  0
SECTION
  2
HEADER
  9
$ACADVER
  1
AC1009
  9
$DWGCODEPAGE
  3
ansi_1252
  9
$INSBASE
 10
0.0
 20
0.0
 30
0.0
  9
$EXTMIN
 10
0.0
 20
0.0
 30
0.0
  9
$EXTMAX
 10
22.856112
 20
25.742907
 30
2.0
  9
$LIMMIN
 10
0.0
 20
0.0
  9
$LIMMAX
 10
420.0
 20
297.0
  9
$ORTHOMODE
 70
     0
  9
$REGENMODE
 70
     1
  9
$FILLMODE
 70
     1
  9
$QTEXTMODE
 70
     0
  9
$MIRRTEXT
 70
     1
  9
$DRAGMODE
 70
     2
  9
$LTSCALE
 40
1.0
  9
$OSMODE
 70
     0
  9
$ATTMODE
 70
     1
  9
$TEXTSIZE
 40
2.5
  9
$TRACEWID
 40
1.0
  9
$TEXTSTYLE
  7
STANDARD
  9
$CLAYER
  8
0
  9
$CELTYPE
  6
BYLAYER
  9
$CECOLOR
 62
   256
  9
$DIMSCALE
 40
1.0
  9
$DIMASZ
 40
2.5
  9
$DIMEXO
 40
0.625
  9
$DIMDLI
 40
3.75
  9
$DIMRND
 40
0.0
  9
$DIMDLE
 40
0.0
  9
$DIMEXE
 40
1.25
  9
$DIMTP
 40
0.0
  9
$DIMTM
 40
0.0
  9
$DIMTXT
 40
2.5
  9
$DIMCEN
 40
2.5
  9
$DIMTSZ
 40
0.0
  9
$DIMTOL
 70
     0
  9
$DIMLIM
 70
     0
  9
$DIMTIH
 70
     0
  9
$DIMTOH
 70
     0
  9
$DIMSE1
 70
     0
  9
$DIMSE2
 70
     0
  9
$DIMTAD
 70
     1
  9
$DIMZIN
 70
     8
  9
$DIMBLK
  1

  9
$DIMASO
 70
     1
  9
$DIMSHO
 70
     1
  9
$DIMPOST
  1

  9
$DIMAPOST
  1

  9
$DIMALT
 70
     0
  9
$DIMALTD
 70
     3
  9
$DIMALTF
 40
0.03937
  9
$DIMLFAC
 40
1.0
  9
$DIMTOFL
 70
     1
  9
$DIMTVP
 40
0.0
  9
$DIMTIX
 70
     0
  9
$DIMSOXD
 70
     0
  9
$DIMSAH
 70
     0
  9
$DIMBLK1
  1

  9
$DIMBLK2
  1

  9
$DIMSTYLE
  2

  9
$DIMCLRD
 70
     0
  9
$DIMCLRE
 70
     0
  9
$DIMCLRT
 70
     0
  9
$DIMTFAC
 40
1.0
  9
$DIMGAP
 40
0.625
  9
$LUNITS
 70
     2
  9
$LUPREC
 70
     4
  9
$AXISMODE
 70
     0
  9
$AXISUNIT
 10
0.0
 20
0.0
  9
$SKETCHINC
 40
1.0
  9
$FILLETRAD
 40
2.5
  9
$AUNITS
 70
     0
  9
$AUPREC
 70
     0
  9
$MENU
  1
.
  9
$ELEVATION
 40
0.0
  9
$PELEVATION
 40
0.0
  9
$THICKNESS
 40
0.0
  9
$LIMCHECK
 70
     0
  9
$BLIPMODE
 70
     1
  9
$CHAMFERA
 40
2.5
  9
$CHAMFERB
 40
2.5
  9
$SKPOLY
 70
     0
  9
$TDCREATE
 40
0.000000000
  9
$TDUPDATE
 40
0.000000000
  9
$TDINDWG
 40
0.0000000000
  9
$TDUSRTIMER
 40
0.0000000000
  9
$USRTIMER
 70
     1
  9
$ANGBASE
 50
0.0
  9
$ANGDIR
 70
     0
  9
$PDMODE
 70
     0
  9
$PDSIZE
 40
0.0
  9
$PLINEWID
 40
0.0
  9
$COORDS
 70
     0
  9
$SPLFRAME
 70
     0
  9
$SPLINETYPE
 70
     6
  9
$SPLINESEGS
 70
     8
  9
$ATTDIA
 70
     0
  9
$ATTREQ
 70
     1
  9
$HANDLING
 70
     0
  9
$HANDSEED
  5
3
  9
$SURFTAB1
 70
     6
  9
$SURFTAB2
 70
     6
  9
$SURFTYPE
 70
     6
  9
$SURFU
 70
     6
  9
$SURFV
 70
     6
  9
$UCSNAME
  2

  9
$UCSORG
 10
0.0
 20
0.0
 30
0.0
  9
$UCSXDIR
 10
1.0
 20
0.0
 30
0.0
  9
$UCSYDIR
 10
0.0
 20
1.0
 30
0.0
  9
$PUCSNAME
  2

  9
$PUCSORG
 10
0.0
 20
0.0
 30
0.0
  9
$PUCSXDIR
 10
1.0
 20
0.0
 30
0.0
  9
$PUCSYDIR
 10
0.0
 20
1.0
 30
0.0
  9
$USERI1
 70
     0
  9
$USERI2
 70
     0
  9
$USERI3
 70
     0
  9
$USERI4
 70
     0
  9
$USERI5
 70
     0
  9
$USERR1
 40
0.0
  9
$USERR2
 40
0.0
  9
$USERR3
 40
0.0
  9
$USERR4
 40
0.0
  9
$USERR5
 40
0.0
  9
$WORLDVIEW
 70
     1
  9
$SHADEDGE
 70
     3
  9
$SHADEDIF
 70
    70
  9
$TILEMODE
 70
     1
  9
$MAXACTVP
 70
    48
  9
$PINSBASE
 10
0.0
 20
0.0
 30
0.0
  9
$PLIMCHECK
 70
     0
  9
$PEXTMIN
 10
0.0
 20
0.0
 30
0.0
  9
$PEXTMAX
 10
22.856112
 20
25.742907
 30
2.0
  9
$PLIMMIN
 10
0.0
 20
0.0
  9
$PLIMMAX
 10
420.0
 20
297.0
  9
$UNITMODE
 70
     0
  9
$VISRETAIN
 70
     0
  9
$PLINEGEN
 70
     0
  9
$PSLTSCALE
 70
     1
  9
$TREEDEPTH
 70
  3020
  9
$DWGCODEPAGE
  3
ansi_1252
  0
ENDSEC
  0
SECTION
  2
TABLES
  0
TABLE
  2
VPORT
 70
     1
  0
VPORT
  2
*ACTIVE
 70
     0
 10
0.0
 20
0.0
 11
1.0
 21
1.0
 12
6.591288
 22
4.579184
 13
0.0
 23
0.0
 14
1.0
 24
1.0
 15
0.0
 25
0.0
 16
0.0
 26
0.0
 36
1.0
 17
0.0
 27
0.0
 37
0.0
 40
9.158369
 41
0.688564
 42
50.0
 43
0.0
 44
0.0
 50
0.0
 51
0.0
 71
     0
 72
   100
 73
     1
 74
     1
 75
     0
 76
     0
 77
     0
 78
     0
  0
ENDTAB
  0
TABLE
  2
LTYPE
 70
     8
  0
LTYPE
  2
CONTINUOUS
 70
    64
  3
Solid line
 72
    65
 73
     0
 40
0.0
  0
LTYPE
  2
DASHED
 70
     0
  3
__ __ __ __ __ __ __ __ __ __ __ __ __ __ __ __
 72
    65
 73
     2
 40
15.0
 49
12.0
 49
-3.0
  0
LTYPE
  2
DASHDOT
 70
     0
  3
 __ . __ . __ . __ . __ . __ . __ . 
 72
    65
 73
     4
 40
18.5
 49
12.0
 49
-3.0
 49
0.5
 49
-3.0
  0
LTYPE
  2
DOT
 70
     0
  3
 . . . . . . . . . . . . . . . .
 72
    65
 73
     2
 40
3.5
 49
0.5
 49
-3.0
  0
LTYPE
  2
DASHSPACE
 70
     0
  3
__    __    __    __    __   
 72
    65
 73
     2
 40
30.0
 49
12.0
 49
-18.0
  0
LTYPE
  2
DASHDOT2
 70
     0
  3
__ . . __ . . __ . . __ 
 72
    65
 73
     6
 40
22.0
 49
12.0
 49
-3.0
 49
0.5
 49
-3.0
 49
0.5
 49
-3.0
  0
LTYPE
  2
PHANTOM
 70
     0
  3
____________    ____    ____   _
 72
    65
 73
     6
 40
20.0
 49
10.0
 49
-2.0
 49
2.0
 49
-2.0
 49
2.0
 49
-2.0
  0
LTYPE
  2
AXES
 70
     0
  3
________  __  ________  __  _____
 72
    65
 73
     4
 40
24.0
 49
15.0
 49
-3.0
 49
3.0
 49
-3.0
  0
ENDTAB
  0
TABLE
  2
LAYER
 70
     1
  0
LAYER
  2
0
 70
     0
 62
     7
  6
CONTINUOUS
  0
ENDTAB
  0
TABLE
  2
STYLE
 70
     1
  0
STYLE
  2
STANDARD
 70
     0
 40
0.0
 41
1.0
 50
0.0
 71
     0
 42
0.0
  3
txt
  4

  0
ENDTAB
  0
TABLE
  2
VIEW
 70
     0
  0
ENDTAB
  0
TABLE
  2
UCS
 70
     0
  0
ENDTAB
  0
TABLE
  2
APPID
 70
     1
  0
APPID
  2
ACAD
 70
     0
  0
ENDTAB
  0
TABLE
  2
DIMSTYLE
 70
     1
  0
DIMSTYLE
  2
STANDARD
 70
     0
  3

  4

  5

  6

  7

 40
1.0
 41
0.18
 42
0.0625
 43
0.38
 44
0.18
 45
0.0
 46
0.0
 47
0.0
 48
0.0
 71
     0
 72
     0
 73
     1
 74
     1
 75
     0
 76
     0
 77
     0
 78
     0
140
0.18
141
0.09
142
0.0
143
25.4
144
1.0
145
0.0
146
1.0
147
0.09
170
     0
171
     2
172
     0
173
     0
174
     0
175
     0
176
     0
177
     0
178
     0
  0
ENDTAB
  0
ENDSEC
  0
SECTION
  2
BLOCKS
  0
ENDSEC
  0
SECTION
  2
ENTITIES
  0
VIEWPORT
  8
0
 62
     0
 67
     1
 68
     1
 10
0.0
 20
0.0
 30
0.0
 40
1000.0
 41
1000.0
 69
     1
1001
ACAD
1000
MVIEW
1002
{
1070
    16
1010
0.0
1020
0.0
1030
0.0
1010
0.0
1020
0.0
1030
1.0
1040
0.0
1040
1000.0
1040
0.0
1040
0.0
1040
50.0
1040
0.0
1040
0.0
1070
     0
1070
   100
1070
     1
1070
     1
1070
     0
1070
     0
1070
     0
1070
     0
1040
0.0
1040
0.0
1040
0.0
1040
1.0
1040
1.0
1040
1.0
1040
1.0
1070
     0
1002
{
1002
}
1002
}
  0
LINE
  8
0
 62
     7
 10
1.065651
 20
17.342907
 30
0.0
 11
1.065651
 21
18.242893
 31
0.0
210
0.0
220
0.0
230
1.0
  0
LINE
  8
0
 62
     7
 10
1.365651
 20
17.342907
 30
0.0
 11
1.365651
 21
18.242905
 31
0.0
210
0.0
220
0.0
230
1.0
  0
LINE
  8
0
 62
     7
 10
1.065651
 20
17.342907
 30
0.0
 11
5.565651
 21
17.342907
 31
0.0
210
0.0
220
0.0
230
1.0
  0
LINE
  8
0
 62
     7
 10
5.265651
 20
17.342907
 30
0.0
 11
5.265651
 21
18.242905
 31
0.0
210
0.0
220
0.0
230
1.0
  0
LINE
  8
0
 62
     7
 10
5.565651
 20
17.342907
 30
0.0
 11
5.565651
 21
18.242893
 31
0.0
210
0.0
220
0.0
230
1.0
  0
LINE
  8
0
 62
     7
 10
7.165651
 20
17.342907
 30
0.0
 11
7.165651
 21
18.242893
 31
0.0
210
0.0
220
0.0
230
1.0
  0
LINE
  8
0
 62
     7
 10
7.465651
 20
17.342907
 30
0.0
 11
7.465651
 21
18.242905
 31
0.0
210
0.0
220
0.0
230
1.0
  0
LINE
  8
0
 62
     7
 10
7.165651
 20
17.342907
 30
0.0
 11
11.66565
 21
17.342907
 31
0.0
210
0.0
220
0.0
230
1.0
  0
LINE
  8
0
 62
     7
 10
11.365651
 20
17.342907
 30
0.0
 11
11.365651
 21
18.242905
 31
0.0
210
0.0
220
0.0
230
1.0
  0
LINE
  8
0
 62
     7
 10
11.66565
 20
17.342907
 30
0.0
 11
11.66565
 21
18.242893
 31
0.0
210
0.0
220
0.0
230
1.0
  0
LINE
  8
0
 62
     7
 10
1.065651
 20
18.242905
 30
0.0
 11
5.565651
 21
18.242905
 31
0.0
210
0.0
220
0.0
230
1.0
  0
LINE
  8
0
 62
     7
 10
5.505436
 20
25.742905
 30
0.0
 11
5.560896
 21
19.38773
 31
0.0
210
0.0
220
0.0
230
1.0
  0
LINE
  8
0
 62
     7
 10
7.165651
 20
18.842907
 30
0.0
 11
7.225866
 21
25.742905
 31
0.0
210
0.0
220
0.0
230
1.0
  0
LINE
  8
0
 62
     7
 10
11.521658
 20
35.342903
 30
0.0
 11
11.66565
 21
18.842907
 31
0.0
210
0.0
220
0.0
230
1.0
  0
LINE
  8
0
 62
     7
 10
7.165651
 20
18.842907
 30
0.0
 11
11.66565
 21
18.842907
 31
0.0
210
0.0
220
0.0
230
1.0
  0
LINE
  8
0
 62
     7
 10
1.209644
 20
35.342903
 30
0.0
 11
5.365667
 21
35.342903
 31
0.0
210
0.0
220
0.0
230
1.0
  0
LINE
  8
0
 62
     7
 10
7.221503
 20
25.242905
 30
0.0
 11
11.609798
 21
25.242905
 31
0.0
210
0.0
220
0.0
230
1.0
  0
LINE
  8
0
 62
     7
 10
1.121503
 20
25.242905
 30
0.0
 11
5.509799
 21
25.242905
 31
0.0
210
0.0
220
0.0
230
1.0
  0
LINE
  8
0
 62
     7
 10
6.615651
 20
25.742905
 30
0.0
 11
6.615651
 21
28.942905
 31
0.0
210
0.0
220
0.0
230
1.0
  0
LINE
  8
0
 62
     7
 10
6.115651
 20
25.742905
 30
0.0
 11
6.115651
 21
28.942905
 31
0.0
210
0.0
220
0.0
230
1.0
  0
LINE
  8
0
 62
     7
 10
1.125866
 20
25.742905
 30
0.0
 11
6.115651
 21
25.742905
 31
0.0
210
0.0
220
0.0
230
1.0
  0
LINE
  8
0
 62
     7
 10
6.615651
 20
25.742905
 30
0.0
 11
11.605435
 21
25.742905
 31
0.0
210
0.0
220
0.0
230
1.0
  0
LINE
  8
0
 62
     7
 10
6.115651
 20
28.942905
 30
0.0
 11
6.615651
 21
28.942905
 31
0.0
210
0.0
220
0.0
230
1.0
  0
LINE
  8
0
 62
     7
 10
1.121503
 20
24.742905
 30
0.0
 11
5.509799
 21
24.742905
 31
0.0
210
0.0
220
0.0
230
1.0
  0
LINE
  8
0
 62
     7
 10
7.221503
 20
24.742905
 30
0.0
 11
11.609798
 21
24.742905
 31
0.0
210
0.0
220
0.0
230
1.0
  0
LINE
  8
0
 62
     7
 10
1.617159
 20
24.242905
 30
0.0
 11
5.014143
 21
24.242905
 31
0.0
210
0.0
220
0.0
230
1.0
  0
LINE
  8
0
 62
     7
 10
7.717159
 20
24.242905
 30
0.0
 11
11.114142
 21
24.242905
 31
0.0
210
0.0
220
0.0
230
1.0
  0
LINE
  8
0
 62
     7
 10
1.205281
 20
34.842903
 30
0.0
 11
11.526021
 21
34.842903
 31
0.0
210
0.0
220
0.0
230
1.0
  0
ARC
  8
0
 62
     7
 10
1.617159
 20
24.742905
 30
0.0
 40
0.5
 50
179.499994
 51
270.000001
210
0.0
220
0.0
230
1.0
  0
ARC
  8
0
 62
     7
 10
5.014143
 20
24.742905
 30
0.0
 40
0.5
 50
270.000001
 51
360.5
210
0.0
220
0.0
230
1.0
  0
ARC
  8
0
 62
     7
 10
7.717159
 20
24.742905
 30
0.0
 40
0.5
 50
179.499994
 51
270.000001
210
0.0
220
0.0
230
1.0
  0
ARC
  8
0
 62
     7
 10
11.114142
 20
24.742905
 30
0.0
 40
0.5
 50
270.000001
 51
360.5
210
0.0
220
0.0
230
1.0
  0
LINE
  8
0
 62
     7
 10
9.415683
 20
12.792906
 30
0.0
 11
10.590683
 21
12.792906
 31
0.0
210
0.0
220
0.0
230
1.0
  0
LINE
  8
0
 62
     7
 10
9.415683
 20
14.292906
 30
0.0
 11
10.590683
 21
14.292906
 31
0.0
210
0.0
220
0.0
230
1.0
  0
LINE
  8
0
 62
     7
 10
1.132551
 20
18.242905
 30
0.0
 11
5.632551
 21
18.242905
 31
0.0
210
0.0
220
0.0
230
1.0
  0
LINE
  8
0
 62
     7
 10
1.065651
 20
18.842907
 30
0.0
 11
1.271539
 21
18.842907
 31
0.0
210
0.0
220
0.0
230
1.0
  0
LINE
  8
0
 62
     7
 10
1.065651
 20
18.842907
 30
0.0
 11
1.066142
 21
18.899139
 31
0.0
210
0.0
220
0.0
230
1.0
  0
LINE
  8
0
 62
     7
 10
1.070405
 20
19.387714
 30
0.0
 11
1.209644
 21
35.342903
 31
0.0
210
0.0
220
0.0
230
1.0
  0
LINE
  8
0
 62
     7
 10
5.56516
 20
18.899122
 30
0.0
 11
5.565651
 21
18.842907
 31
0.0
210
0.0
220
0.0
230
1.0
  0
LINE
  8
0
 62
     7
 10
5.359828
 20
18.842907
 30
0.0
 11
5.565651
 21
18.842907
 31
0.0
210
0.0
220
0.0
230
1.0
  0
POINT
  8
0
 62
     7
 10
1.065651
 20
18.842907
 30
0.0
210
0.0
220
0.0
230
1.0
  0
LINE
  8
0
 62
     7
 10
1.066142
 20
18.899139
 30
0.0
 11
1.070405
 21
19.387714
 31
0.0
210
0.0
220
0.0
230
1.0
  0
LINE
  8
0
 62
     7
 10
5.560896
 20
19.38773
 30
0.0
 11
5.56516
 21
18.899122
 31
0.0
210
0.0
220
0.0
230
1.0
  0
LINE
  8
0
 62
     7
 10
1.271539
 20
18.842907
 30
0.0
 11
5.359828
 21
18.842907
 31
0.0
210
0.0
220
0.0
230
1.0
  0
LINE
  8
0
 62
     7
 10
10.590683
 20
12.792906
 30
0.0
 11
10.590683
 21
14.292906
 31
0.0
210
0.0
220
0.0
230
1.0
  0
LINE
  8
0
 62
     7
 10
10.915683
 20
14.855823
 30
0.0
 11
10.915683
 21
17.342907
 31
0.0
210
0.0
220
0.0
230
1.0
  0
ARC
  8
0
 62
     7
 10
11.615683
 20
19.192905
 30
0.0
 40
0.2
 50
0.0
 51
76.934404
210
0.0
220
0.0
230
1.0
  0
ARC
  8
0
 62
     7
 10
11.615683
 20
19.092907
 30
0.0
 40
0.2
 50
284.322907
 51
360.0
210
0.0
220
0.0
230
1.0
  0
LINE
  8
0
 62
     7
 10
7.03489
 20
18.242893
 30
0.0
 11
11.796476
 21
18.242893
 31
0.0
210
0.0
220
0.0
230
1.0
  0
LINE
  8
0
 62
     7
 10
7.015683
 20
18.792894
 30
0.0
 11
11.815682
 21
18.792894
 31
0.0
210
0.0
220
0.0
230
1.0
  0
LINE
  8
0
 62
     7
 10
11.815682
 20
19.092907
 30
0.0
 11
11.815682
 21
19.192905
 31
0.0
210
0.0
220
0.0
230
1.0
  0
LINE
  8
0
 62
     7
 10
11.459827
 20
18.842907
 30
0.0
 11
11.815682
 21
18.792894
 31
0.0
210
0.0
220
0.0
230
1.0
  0
LINE
  8
0
 62
     7
 10
11.796476
 20
18.242893
 30
0.0
 11
11.815682
 21
18.792894
 31
0.0
210
0.0
220
0.0
230
1.0
  0
LINE
  8
0
 62
     7
 10
8.240683
 20
12.792906
 30
0.0
 11
8.240683
 21
14.292906
 31
0.0
210
0.0
220
0.0
230
1.0
  0
LINE
  8
0
 62
     7
 10
7.915683
 20
14.855823
 30
0.0
 11
7.915683
 21
17.342907
 31
0.0
210
0.0
220
0.0
230
1.0
  0
ARC
  8
0
 62
     7
 10
7.215683
 20
19.192905
 30
0.0
 40
0.2
 50
103.084528
 51
180.000005
210
0.0
220
0.0
230
1.0
  0
ARC
  8
0
 62
     7
 10
7.215683
 20
19.092907
 30
0.0
 40
0.2
 50
180.000005
 51
255.658133
210
0.0
220
0.0
230
1.0
  0
LINE
  8
0
 62
     7
 10
7.015683
 20
19.092907
 30
0.0
 11
7.015683
 21
19.192905
 31
0.0
210
0.0
220
0.0
230
1.0
  0
LINE
  8
0
 62
     7
 10
7.015683
 20
18.792894
 30
0.0
 11
7.371539
 21
18.842907
 31
0.0
210
0.0
220
0.0
230
1.0
  0
LINE
  8
0
 62
     7
 10
7.015683
 20
18.792894
 30
0.0
 11
7.03489
 21
18.242893
 31
0.0
210
0.0
220
0.0
230
1.0
  0
LINE
  8
0
 62
     7
 10
10.590683
 20
14.292906
 30
0.0
 11
10.915683
 21
14.855823
 31
0.0
210
0.0
220
0.0
230
1.0
  0
LINE
  8
0
 62
     7
 10
7.915683
 20
14.855823
 30
0.0
 11
8.240683
 21
14.292906
 31
0.0
210
0.0
220
0.0
230
1.0
  0
LINE
  8
0
 62
     7
 10
7.915683
 20
14.855823
 30
0.0
 11
10.915683
 21
14.855823
 31
0.0
210
0.0
220
0.0
230
1.0
  0
LINE
  8
0
 62
     7
 10
2.140683
 20
12.792906
 30
0.0
 11
4.490683
 21
12.792906
 31
0.0
210
0.0
220
0.0
230
1.0
  0
LINE
  8
0
 62
     7
 10
2.140683
 20
14.292906
 30
0.0
 11
4.490683
 21
14.292906
 31
0.0
210
0.0
220
0.0
230
1.0
  0
LINE
  8
0
 62
     7
 10
4.490683
 20
12.792906
 30
0.0
 11
4.490683
 21
14.292906
 31
0.0
210
0.0
220
0.0
230
1.0
  0
LINE
  8
0
 62
     7
 10
4.815683
 20
14.855823
 30
0.0
 11
4.815683
 21
17.342907
 31
0.0
210
0.0
220
0.0
230
1.0
  0
ARC
  8
0
 62
     7
 10
5.515683
 20
19.192905
 30
0.0
 40
0.2
 50
0.0
 51
76.934404
210
0.0
220
0.0
230
1.0
  0
LINE
  8
0
 62
     7
 10
5.715683
 20
19.092907
 30
0.0
 11
5.715683
 21
19.192905
 31
0.0
210
0.0
220
0.0
230
1.0
  0
LINE
  8
0
 62
     7
 10
5.696477
 20
18.242893
 30
0.0
 11
5.715683
 21
18.792894
 31
0.0
210
0.0
220
0.0
230
1.0
  0
LINE
  8
0
 62
     7
 10
2.140683
 20
12.792906
 30
0.0
 11
2.140683
 21
14.292906
 31
0.0
210
0.0
220
0.0
230
1.0
  0
LINE
  8
0
 62
     7
 10
1.815683
 20
14.855823
 30
0.0
 11
1.815683
 21
17.342907
 31
0.0
210
0.0
220
0.0
230
1.0
  0
LINE
  8
0
 62
     7
 10
0.93489
 20
18.242893
 30
0.0
 11
5.696477
 21
18.242893
 31
0.0
210
0.0
220
0.0
230
1.0
  0
LINE
  8
0
 62
     7
 10
0.915683
 20
18.792894
 30
0.0
 11
5.715683
 21
18.792894
 31
0.0
210
0.0
220
0.0
230
1.0
  0
LINE
  8
0
 62
     7
 10
0.915683
 20
19.092894
 30
0.0
 11
0.915683
 21
19.192905
 31
0.0
210
0.0
220
0.0
230
1.0
  0
LINE
  8
0
 62
     7
 10
0.915683
 20
18.792894
 30
0.0
 11
1.271539
 21
18.842907
 31
0.0
210
0.0
220
0.0
230
1.0
  0
LINE
  8
0
 62
     7
 10
0.915683
 20
18.792894
 30
0.0
 11
0.93489
 21
18.242893
 31
0.0
210
0.0
220
0.0
230
1.0
  0
LINE
  8
0
 62
     7
 10
4.490683
 20
14.292906
 30
0.0
 11
4.815683
 21
14.855823
 31
0.0
210
0.0
220
0.0
230
1.0
  0
LINE
  8
0
 62
     7
 10
1.815683
 20
14.855823
 30
0.0
 11
2.140683
 21
14.292906
 31
0.0
210
0.0
220
0.0
230
1.0
  0
LINE
  8
0
 62
     7
 10
1.815683
 20
14.855823
 30
0.0
 11
4.815683
 21
14.855823
 31
0.0
210
0.0
220
0.0
230
1.0
  0
ARC
  8
0
 62
     7
 10
1.115683
 20
19.092894
 30
0.0
 40
0.2
 50
180.000005
 51
255.658106
210
0.0
220
0.0
230
1.0
  0
LINE
  8
0
 62
     7
 10
8.240683
 20
12.792906
 30
0.0
 11
10.523783
 21
12.792906
 31
0.0
210
0.0
220
0.0
230
1.0
  0
LINE
  8
0
 62
     7
 10
8.240683
 20
14.292906
 30
0.0
 11
10.523783
 21
14.292906
 31
0.0
210
0.0
220
0.0
230
1.0
  0
ARC
  8
0
 62
     7
 10
1.115683
 20
19.192905
 30
0.0
 40
0.2
 50
103.084528
 51
180.000005
210
0.0
220
0.0
230
1.0
  0
ARC
  8
0
 62
     7
 10
5.515683
 20
19.092907
 30
0.0
 40
0.2
 50
284.322907
 51
360.0
210
0.0
220
0.0
230
1.0
  0
LINE
  8
0
 62
     7
 10
5.359828
 20
18.842907
 30
0.0
 11
5.715683
 21
18.792894
 31
0.0
210
0.0
220
0.0
230
1.0
  0
LINE
  8
0
 62
     7
 10
5.560896
 20
19.38773
 30
0.0
 11
5.56516
 21
18.899122
 31
0.0
210
0.0
220
0.0
230
1.0
  0
LINE
  8
0
 62
     7
 10
1.271539
 20
18.842907
 30
0.0
 11
5.359828
 21
18.842907
 31
0.0
210
0.0
220
0.0
230
1.0
  0
POINT
  8
0
 62
     7
 10
11.66565
 20
18.842907
 30
0.0
210
0.0
220
0.0
230
1.0
  0
LINE
  8
0
 62
     7
 10
7.365667
 20
34.942905
 30
0.0
 11
7.365667
 21
35.342903
 31
0.0
210
0.0
220
0.0
230
1.0
  0
LINE
  8
0
 62
     7
 10
5.365667
 20
34.942905
 30
0.0
 11
5.365667
 21
35.342903
 31
0.0
210
0.0
220
0.0
230
1.0
  0
LINE
  8
0
 62
     7
 10
6.865667
 20
34.942905
 30
0.0
 11
6.865667
 21
35.342903
 31
0.0
210
0.0
220
0.0
230
1.0
  0
LINE
  8
0
 62
     7
 10
5.865667
 20
34.942905
 30
0.0
 11
5.865667
 21
35.342903
 31
0.0
210
0.0
220
0.0
230
1.0
  0
LINE
  8
0
 62
     7
 10
5.365667
 20
34.942905
 30
0.0
 11
5.865667
 21
34.942905
 31
0.0
210
0.0
220
0.0
230
1.0
  0
LINE
  8
0
 62
     7
 10
5.865667
 20
35.342903
 30
0.0
 11
6.865667
 21
35.342903
 31
0.0
210
0.0
220
0.0
230
1.0
  0
LINE
  8
0
 62
     7
 10
7.365667
 20
35.342903
 30
0.0
 11
11.521658
 21
35.342903
 31
0.0
210
0.0
220
0.0
230
1.0
  0
LINE
  8
0
 62
     7
 10
6.865667
 20
34.942905
 30
0.0
 11
7.365667
 21
34.942905
 31
0.0
210
0.0
220
0.0
230
1.0
  0
LINE
  8
0
 62
     7
 10
21.856108
 20
25.427437
 30
0.0
 11
21.856112
 21
18.342907
 31
0.0
210
0.0
220
0.0
230
1.0
  0
ARC
  8
0
 62
     7
 10
22.856112
 20
18.342907
 30
0.0
 40
1.0
 50
180.000019
 51
270.000028
210
0.0
220
0.0
230
1.0
  0
LINE
  8
0
 62
     7
 10
22.756107
 20
25.742908
 30
0.0
 11
22.756111
 21
18.342907
 31
0.0
210
0.0
220
0.0
230
1.0
  0
LINE
  8
0
 62
     7
 10
22.856112
 20
18.242908
 30
0.0
 11
28.256111
 21
18.242908
 31
0.0
210
0.0
220
0.0
230
1.0
  0
LINE
  8
0
 62
     7
 10
22.856112
 20
17.342907
 30
0.0
 11
28.256111
 21
17.342909
 31
0.0
210
0.0
220
0.0
230
1.0
  0
ARC
  8
0
 62
     7
 10
22.856112
 20
18.342907
 30
0.0
 40
0.1
 50
180.000019
 51
270.000028
210
0.0
220
0.0
230
1.0
  0
LINE
  8
0
 62
     7
 10
27.736496
 20
18.242908
 30
0.0
 11
27.736496
 21
17.342909
 31
0.0
210
0.0
220
0.0
230
1.0
  0
LINE
  8
0
 62
     7
 10
28.256111
 20
18.242908
 30
0.0
 11
28.256111
 21
17.342909
 31
0.0
210
0.0
220
0.0
230
1.0
  0
LINE
  8
0
 62
     7
 10
21.856108
 20
25.142906
 30
0.0
 11
22.756107
 21
25.142908
 31
0.0
210
0.0
220
0.0
230
1.0
  0
LINE
  8
0
 62
     7
 10
21.856108
 20
25.742907
 30
0.0
 11
21.856108
 21
25.658377
 31
0.0
210
0.0
220
0.0
230
1.0
  0
LINE
  8
0
 62
     7
 10
21.856108
 20
25.658377
 30
0.0
 11
22.056108
 21
25.542908
 31
0.0
210
0.0
220
0.0
230
1.0
  0
LINE
  8
0
 62
     7
 10
22.056108
 20
25.542908
 30
0.0
 11
21.856108
 21
25.427437
 31
0.0
210
0.0
220
0.0
230
1.0
  0
LINE
  8
0
 62
     7
 10
25.070944
 20
23.742908
 30
0.0
 11
26.741274
 21
23.742908
 31
0.0
210
0.0
220
0.0
230
1.0
  0
LINE
  8
0
 62
     7
 10
22.80611
 20
18.842907
 30
0.0
 11
24.706112
 21
18.842907
 31
0.0
210
0.0
220
0.0
230
1.0
  0
LINE
  8
0
 62
     7
 10
28.806108
 20
24.242908
 30
0.0
 11
28.80611
 21
18.842911
 31
0.0
210
0.0
220
0.0
230
1.0
  0
LINE
  8
0
 62
     7
 10
23.856108
 20
25.242908
 30
0.0
 11
28.306108
 21
25.242908
 31
0.0
210
0.0
220
0.0
230
1.0
  0
LINE
  8
0
 62
     7
 10
21.256107
 20
25.742907
 30
0.0
 11
22.806108
 21
25.742908
 31
0.0
210
0.0
220
0.0
230
1.0
  0
LINE
  8
0
 62
     7
 10
21.339884
 20
35.342907
 30
0.0
 11
22.806105
 21
35.342907
 31
0.0
210
0.0
220
0.0
230
1.0
  0
LINE
  8
0
 62
     7
 10
21.339884
 20
35.342907
 30
0.0
 11
21.256107
 21
25.742907
 31
0.0
210
0.0
220
0.0
230
1.0
  0
LINE
  8
0
 62
     7
 10
23.276691
 20
34.842907
 30
0.0
 11
23.356108
 21
25.742908
 31
0.0
210
0.0
220
0.0
230
1.0
  0
LINE
  8
0
 62
     7
 10
23.356108
 20
25.742908
 30
0.0
 11
23.856108
 21
25.242908
 31
0.0
210
0.0
220
0.0
230
1.0
  0
LINE
  8
0
 62
     7
 10
28.306108
 20
25.242908
 30
0.0
 11
28.306108
 21
24.742908
 31
0.0
210
0.0
220
0.0
230
1.0
  0
LINE
  8
0
 62
     7
 10
28.306108
 20
24.742908
 30
0.0
 11
28.806108
 21
24.242908
 31
0.0
210
0.0
220
0.0
230
1.0
  0
LINE
  8
0
 62
     7
 10
22.806108
 20
25.742908
 30
0.0
 11
22.80611
 21
18.842907
 31
0.0
210
0.0
220
0.0
230
1.0
  0
LINE
  8
0
 62
     7
 10
27.106112
 20
18.842909
 30
0.0
 11
28.80611
 21
18.842911
 31
0.0
210
0.0
220
0.0
230
1.0
  0
LINE
  8
0
 62
     7
 10
22.806105
 20
35.313492
 30
0.0
 11
23.276691
 21
34.842907
 31
0.0
210
0.0
220
0.0
230
1.0
  0
LINE
  8
0
 62
     7
 10
26.741274
 20
23.742908
 30
0.0
 11
26.741276
 21
19.102716
 31
0.0
210
0.0
220
0.0
230
1.0
  0
LINE
  8
0
 62
     7
 10
25.070944
 20
23.742908
 30
0.0
 11
25.070946
 21
19.102716
 31
0.0
210
0.0
220
0.0
230
1.0
  0
LINE
  8
0
 62
     7
 10
25.070946
 20
19.102716
 30
0.0
 11
24.706112
 21
18.842907
 31
0.0
210
0.0
220
0.0
230
1.0
  0
LINE
  8
0
 62
     7
 10
26.741276
 20
19.102716
 30
0.0
 11
27.106112
 21
18.842909
 31
0.0
210
0.0
220
0.0
230
1.0
  0
LINE
  8
0
 62
     7
 10
23.656128
 20
18.242908
 30
0.0
 11
28.156128
 21
18.242908
 31
0.0
210
0.0
220
0.0
230
1.0
  0
LINE
  8
0
 62
     7
 10
23.723026
 20
18.242908
 30
0.0
 11
28.223026
 21
18.242908
 31
0.0
210
0.0
220
0.0
230
1.0
  0
POINT
  8
0
 62
     7
 10
21.256107
 20
25.742907
 30
0.0
210
0.0
220
0.0
230
1.0
  0
LINE
  8
0
 62
     7
 10
26.30616
 20
20.592909
 30
0.0
 11
26.741276
 21
20.592909
 31
0.0
210
0.0
220
0.0
230
1.0
  0
LINE
  8
0
 62
     7
 10
27.081161
 20
14.292909
 30
0.0
 11
27.081161
 21
12.792909
 31
0.0
210
0.0
220
0.0
230
1.0
  0
LINE
  8
0
 62
     7
 10
27.40616
 20
17.342909
 30
0.0
 11
27.406162
 21
14.855825
 31
0.0
210
0.0
220
0.0
230
1.0
  0
LINE
  8
0
 62
     7
 10
26.30616
 20
20.592909
 30
0.0
 11
26.30616
 21
19.492908
 31
0.0
210
0.0
220
0.0
230
1.0
  0
LINE
  8
0
 62
     7
 10
27.950304
 20
18.842909
 30
0.0
 11
28.30616
 21
18.792896
 31
0.0
210
0.0
220
0.0
230
1.0
  0
LINE
  8
0
 62
     7
 10
28.30616
 20
18.792896
 30
0.0
 11
28.286953
 21
18.242897
 31
0.0
210
0.0
220
0.0
230
1.0
  0
LINE
  8
0
 62
     7
 10
24.731161
 20
12.792908
 30
0.0
 11
27.081161
 21
12.792909
 31
0.0
210
0.0
220
0.0
230
1.0
  0
LINE
  8
0
 62
     7
 10
24.731161
 20
14.292908
 30
0.0
 11
27.081161
 21
14.292909
 31
0.0
210
0.0
220
0.0
230
1.0
  0
LINE
  8
0
 62
     7
 10
25.070946
 20
20.592907
 30
0.0
 11
25.506159
 21
20.592909
 31
0.0
210
0.0
220
0.0
230
1.0
  0
LINE
  8
0
 62
     7
 10
25.506159
 20
19.492908
 30
0.0
 11
26.30616
 21
19.492908
 31
0.0
210
0.0
220
0.0
230
1.0
  0
LINE
  8
0
 62
     7
 10
24.731161
 20
14.292908
 30
0.0
 11
24.731161
 21
12.792908
 31
0.0
210
0.0
220
0.0
230
1.0
  0
LINE
  8
0
 62
     7
 10
24.40616
 20
17.342907
 30
0.0
 11
24.40616
 21
14.855824
 31
0.0
210
0.0
220
0.0
230
1.0
  0
LINE
  8
0
 62
     7
 10
25.506159
 20
20.592909
 30
0.0
 11
25.506159
 21
19.492908
 31
0.0
210
0.0
220
0.0
230
1.0
  0
LINE
  8
0
 62
     7
 10
23.525366
 20
18.242895
 30
0.0
 11
28.286953
 21
18.242897
 31
0.0
210
0.0
220
0.0
230
1.0
  0
LINE
  8
0
 62
     7
 10
23.506159
 20
18.792896
 30
0.0
 11
28.30616
 21
18.792896
 31
0.0
210
0.0
220
0.0
230
1.0
  0
LINE
  8
0
 62
     7
 10
23.862015
 20
18.842907
 30
0.0
 11
23.506159
 21
18.792896
 31
0.0
210
0.0
220
0.0
230
1.0
  0
LINE
  8
0
 62
     7
 10
24.776306
 20
18.892895
 30
0.0
 11
27.035898
 21
18.892897
 31
0.0
210
0.0
220
0.0
230
1.0
  0
LINE
  8
0
 62
     7
 10
23.506159
 20
18.792896
 30
0.0
 11
23.525366
 21
18.242895
 31
0.0
210
0.0
220
0.0
230
1.0
  0
LINE
  8
0
 62
     7
 10
27.406162
 20
14.855825
 30
0.0
 11
27.081161
 21
14.292909
 31
0.0
210
0.0
220
0.0
230
1.0
  0
LINE
  8
0
 62
     7
 10
24.40616
 20
14.855824
 30
0.0
 11
24.731161
 21
14.292908
 31
0.0
210
0.0
220
0.0
230
1.0
  0
LINE
  8
0
 62
     7
 10
24.40616
 20
14.855824
 30
0.0
 11
27.406162
 21
14.855825
 31
0.0
210
0.0
220
0.0
230
1.0
  0
LINE
  8
0
 62
     7
 10
25.070946
 20
19.392895
 30
0.0
 11
26.741276
 21
19.392897
 31
0.0
210
0.0
220
0.0
230
1.0
  0
LINE
  8
0
 62
     7
 10
1.065656
 20
9.037947
 30
0.0
 11
1.065651
 21
1.987946
 31
0.0
210
0.0
220
0.0
230
1.0
  0
LINE
  8
0
 62
     7
 10
7.165655
 20
6.937942
 30
0.0
 11
7.165651
 21
1.987942
 31
0.0
210
0.0
220
0.0
230
1.0
  0
LINE
  8
0
 62
     7
 10
5.565655
 20
6.937943
 30
0.0
 11
5.565651
 21
1.987943
 31
0.0
210
0.0
220
0.0
230
1.0
  0
LINE
  8
0
 62
     7
 10
11.665656
 20
9.037939
 30
0.0
 11
1.065656
 21
9.037947
 31
0.0
210
0.0
220
0.0
230
1.0
  0
LINE
  8
0
 62
     7
 10
5.565654
 20
6.437943
 30
0.0
 11
1.065654
 21
6.437946
 31
0.0
210
0.0
220
0.0
230
1.0
  0
LINE
  8
0
 62
     7
 10
11.665654
 20
6.437939
 30
0.0
 11
7.165654
 21
6.437942
 31
0.0
210
0.0
220
0.0
230
1.0
  0
LINE
  8
0
 62
     7
 10
5.565651
 20
1.987943
 30
0.0
 11
1.065651
 21
1.987946
 31
0.0
210
0.0
220
0.0
230
1.0
  0
LINE
  8
0
 62
     7
 10
11.665651
 20
1.987939
 30
0.0
 11
7.165651
 21
1.987942
 31
0.0
210
0.0
220
0.0
230
1.0
  0
LINE
  8
0
 62
     7
 10
5.065651
 20
1.487943
 30
0.0
 11
1.565651
 21
1.487945
 31
0.0
210
0.0
220
0.0
230
1.0
  0
LINE
  8
0
 62
     7
 10
11.165651
 20
1.487939
 30
0.0
 11
7.665651
 21
1.487941
 31
0.0
210
0.0
220
0.0
230
1.0
  0
ARC
  8
0
 62
     7
 10
1.565651
 20
1.987945
 30
0.0
 40
0.5
 50
180.000005
 51
270.000001
210
0.0
220
0.0
230
1.0
  0
ARC
  8
0
 62
     7
 10
5.065651
 20
1.987943
 30
0.0
 40
0.5
 50
270.000001
 51
360.00001
210
0.0
220
0.0
230
1.0
  0
ARC
  8
0
 62
     7
 10
7.665651
 20
1.987941
 30
0.0
 40
0.5
 50
180.000005
 51
270.000001
210
0.0
220
0.0
230
1.0
  0
ARC
  8
0
 62
     7
 10
11.165651
 20
1.987939
 30
0.0
 40
0.5
 50
270.000001
 51
360.00001
210
0.0
220
0.0
230
1.0
  0
LINE
  8
0
 62
     7
 10
1.209649
 20
8.954168
 30
0.0
 11
1.209648
 21
7.01736
 31
0.0
210
0.0
220
0.0
230
1.0
  0
LINE
  8
0
 62
     7
 10
11.521663
 20
8.954161
 30
0.0
 11
11.521661
 21
7.017353
 31
0.0
210
0.0
220
0.0
230
1.0
  0
LINE
  8
0
 62
     7
 10
1.209649
 20
8.954168
 30
0.0
 11
1.065656
 21
9.037947
 31
0.0
210
0.0
220
0.0
230
1.0
  0
LINE
  8
0
 62
     7
 10
1.209648
 20
7.01736
 30
0.0
 11
1.065655
 21
6.937946
 31
0.0
210
0.0
220
0.0
230
1.0
  0
LINE
  8
0
 62
     7
 10
11.665656
 20
9.037939
 30
0.0
 11
11.521663
 21
8.954161
 31
0.0
210
0.0
220
0.0
230
1.0
  0
LINE
  8
0
 62
     7
 10
11.665655
 20
6.937939
 30
0.0
 11
11.521661
 21
7.017353
 31
0.0
210
0.0
220
0.0
230
1.0
  0
LINE
  8
0
 62
     7
 10
5.365656
 20
8.954165
 30
0.0
 11
5.365655
 21
7.117357
 31
0.0
210
0.0
220
0.0
230
1.0
  0
LINE
  8
0
 62
     7
 10
7.365656
 20
8.954165
 30
0.0
 11
7.365655
 21
7.117356
 31
0.0
210
0.0
220
0.0
230
1.0
  0
CIRCLE
  8
0
 62
     7
 10
6.365655
 20
7.987942
 30
0.0
 40
0.5
210
0.0
220
0.0
230
1.0
  0
LINE
  8
0
 62
     7
 10
5.365655
 20
7.517334
 30
0.0
 11
1.209648
 21
7.517337
 31
0.0
210
0.0
220
0.0
230
1.0
  0
LINE
  8
0
 62
     7
 10
11.665655
 20
6.937939
 30
0.0
 11
1.065655
 21
6.937946
 31
0.0
210
0.0
220
0.0
230
1.0
  0
LINE
  8
0
 62
     7
 10
11.521661
 20
7.017353
 30
0.0
 11
1.209648
 21
7.01736
 31
0.0
210
0.0
220
0.0
230
1.0
  0
LINE
  8
0
 62
     7
 10
11.521663
 20
8.954161
 30
0.0
 11
1.209649
 21
8.954168
 31
0.0
210
0.0
220
0.0
230
1.0
  0
LINE
  8
0
 62
     7
 10
11.521662
 20
7.51733
 30
0.0
 11
7.365655
 21
7.517333
 31
0.0
210
0.0
220
0.0
230
1.0
  0
LINE
  8
0
 62
     7
 10
7.365655
 20
7.117356
 30
0.0
 11
5.365655
 21
7.117357
 31
0.0
210
0.0
220
0.0
230
1.0
  0
CIRCLE
  8
0
 62
     7
 10
9.415653
 20
4.38794
 30
0.0
 40
1.75
210
0.0
220
0.0
230
1.0
  0
CIRCLE
  8
0
 62
     7
 10
3.315653
 20
4.387944
 30
0.0
 40
1.75
210
0.0
220
0.0
230
1.0
  0
LINE
  8
0
 62
     7
 10
10.903175
 20
5.309775
 30
0.0
 11
8.493816
 21
2.90042
 31
0.0
210
0.0
220
0.0
230
1.0
  0
LINE
  8
0
 62
     7
 10
10.33749
 20
5.875461
 30
0.0
 11
7.928131
 21
3.466105
 31
0.0
210
0.0
220
0.0
230
1.0
  0
LINE
  8
0
 62
     7
 10
4.803175
 20
5.309779
 30
0.0
 11
2.393816
 21
2.900424
 31
0.0
210
0.0
220
0.0
230
1.0
  0
LINE
  8
0
 62
     7
 10
4.23749
 20
5.875465
 30
0.0
 11
1.828131
 21
3.466109
 31
0.0
210
0.0
220
0.0
230
1.0
  0
LINE
  8
0
 62
     7
 10
11.665656
 20
9.037939
 30
0.0
 11
11.665651
 21
1.987939
 31
0.0
210
0.0
220
0.0
230
1.0
  0
CIRCLE
  8
0
 62
     7
 10
9.415653
 20
4.38794
 30
0.0
 40
1.8
210
0.0
220
0.0
230
1.0
  0
CIRCLE
  8
0
 62
     7
 10
3.315653
 20
4.387944
 30
0.0
 40
1.8
210
0.0
220
0.0
230
1.0
  0
ARC
  8
0
 62
     7
 10
9.415653
 20
4.38794
 30
0.0
 40
2.4
 50
339.635856
 51
380.364136
210
0.0
220
0.0
230
1.0
  0
ARC
  8
0
 62
     7
 10
9.415653
 20
4.38794
 30
0.0
 40
2.4
 50
159.635864
 51
200.364132
210
0.0
220
0.0
230
1.0
  0
ARC
  8
0
 62
     7
 10
3.315653
 20
4.387944
 30
0.0
 40
2.4
 50
339.635856
 51
380.364136
210
0.0
220
0.0
230
1.0
  0
ARC
  8
0
 62
     7
 10
3.315653
 20
4.387944
 30
0.0
 40
2.4
 50
159.635864
 51
200.364132
210
0.0
220
0.0
230
1.0
  0
ENDSEC
  0
EOF
