  0
SECTION
  2
HEADER
  9
$ACADVER
  1
AC1015
  9
$ACADMAINTVER
 70
    20
  9
$DWGCODEPAGE
  3
ANSI_1252
  9
$INSBASE
 10
0.0
 20
0.0
 30
0.0
  9
$EXTMIN
 10
72.49583299999999
 20
112.4385747142857
 30
0.0
  9
$EXTMAX
 10
140.2510736666666
 20
169.91676
 30
0.0
  9
$LIMMIN
 10
72.49583299999999
 20
113.030138
  9
$LIMMAX
 10
139.732039
 20
169.91676
  9
$ORTHOMODE
 70
     0
  9
$REGENMODE
 70
     1
  9
$FILLMODE
 70
     1
  9
$QTEXTMODE
 70
     0
  9
$MIRRTEXT
 70
     1
  9
$LTSCALE
 40
1.0
  9
$ATTMODE
 70
     1
  9
$TEXTSIZE
 40
0.0
  9
$TRACEWID
 40
0.05
  9
$TEXTSTYLE
  7
STANDARD
  9
$CLAYER
  8
0
  9
$CELTYPE
  6
CONTINUOUS
  9
$CECOLOR
 62
   256
  9
$CELTSCALE
 40
1.0
  9
$DISPSILH
 70
     0
  9
$DIMSCALE
 40
1.0
  9
$DIMASZ
 40
0.18
  9
$DIMEXO
 40
0.0625
  9
$DIMDLI
 40
0.38
  9
$DIMRND
 40
0.0
  9
$DIMDLE
 40
0.0
  9
$DIMEXE
 40
0.18
  9
$DIMTP
 40
0.0
  9
$DIMTM
 40
0.0
  9
$DIMTXT
 40
0.18
  9
$DIMCEN
 40
0.09
  9
$DIMTSZ
 40
0.0
  9
$DIMTOL
 70
     0
  9
$DIMLIM
 70
     0
  9
$DIMTIH
 70
     1
  9
$DIMTOH
 70
     1
  9
$DIMSE1
 70
     0
  9
$DIMSE2
 70
     0
  9
$DIMTAD
 70
     0
  9
$DIMZIN
 70
     0
  9
$DIMBLK
  1

  9
$DIMASO
 70
     1
  9
$DIMSHO
 70
     1
  9
$DIMPOST
  1

  9
$DIMAPOST
  1

  9
$DIMALT
 70
     0
  9
$DIMALTD
 70
     2
  9
$DIMALTF
 40
25.4
  9
$DIMLFAC
 40
1.0
  9
$DIMTOFL
 70
     0
  9
$DIMTVP
 40
0.0
  9
$DIMTIX
 70
     0
  9
$DIMSOXD
 70
     0
  9
$DIMSAH
 70
     0
  9
$DIMBLK1
  1

  9
$DIMBLK2
  1

  9
$DIMSTYLE
  2
STANDARD
  9
$DIMCLRD
 70
     0
  9
$DIMCLRE
 70
     0
  9
$DIMCLRT
 70
     0
  9
$DIMTFAC
 40
1.0
  9
$DIMGAP
 40
0.09
  9
$DIMJUST
 70
     0
  9
$DIMSD1
 70
     0
  9
$DIMSD2
 70
     0
  9
$DIMTOLJ
 70
     1
  9
$DIMTZIN
 70
     0
  9
$DIMALTZ
 70
     0
  9
$DIMALTTZ
 70
     0
  9
$DIMUPT
 70
     0
  9
$DIMDEC
 70
     4
  9
$DIMTDEC
 70
     4
  9
$DIMALTU
 70
     2
  9
$DIMALTTD
 70
     2
  9
$DIMTXSTY
  7
STANDARD
  9
$DIMAUNIT
 70
     0
  9
$DIMADEC
 70
     0
  9
$DIMALTRND
 40
0.0
  9
$DIMAZIN
 70
     0
  9
$DIMDSEP
 70
    46
  9
$DIMATFIT
 70
     3
  9
$DIMFRAC
 70
     0
  9
$DIMLDRBLK
  1

  9
$DIMLUNIT
 70
     2
  9
$DIMLWD
 70
    -2
  9
$DIMLWE
 70
    -2
  9
$DIMTMOVE
 70
     0
  9
$LUNITS
 70
     2
  9
$LUPREC
 70
     4
  9
$SKETCHINC
 40
0.1
  9
$FILLETRAD
 40
0.0
  9
$AUNITS
 70
     0
  9
$AUPREC
 70
     0
  9
$MENU
  1
acad
  9
$ELEVATION
 40
0.0
  9
$PELEVATION
 40
0.0
  9
$THICKNESS
 40
0.0
  9
$LIMCHECK
 70
     0
  9
$CHAMFERA
 40
0.0
  9
$CHAMFERB
 40
0.0
  9
$CHAMFERC
 40
0.0
  9
$CHAMFERD
 40
0.0
  9
$SKPOLY
 70
     0
  9
$TDCREATE
 40
2305814.042176054
  9
$TDUCREATE
 40
2305814.250509387
  9
$TDUPDATE
 40
2455862.599317871
  9
$TDUUPDATE
 40
2455862.807651204
  9
$TDINDWG
 40
0.0004107060
  9
$TDUSRTIMER
 40
0.0004105208
  9
$USRTIMER
 70
     1
  9
$ANGBASE
 50
0.0
  9
$ANGDIR
 70
     0
  9
$PDMODE
 70
     0
  9
$PDSIZE
 40
0.0
  9
$PLINEWID
 40
0.0
  9
$SPLFRAME
 70
     0
  9
$SPLINETYPE
 70
     6
  9
$SPLINESEGS
 70
     8
  9
$HANDSEED
  5
2C4
  9
$SURFTAB1
 70
     6
  9
$SURFTAB2
 70
     6
  9
$SURFTYPE
 70
     6
  9
$SURFU
 70
     6
  9
$SURFV
 70
     6
  9
$UCSBASE
  2

  9
$UCSNAME
  2

  9
$UCSORG
 10
0.0
 20
0.0
 30
0.0
  9
$UCSXDIR
 10
1.0
 20
0.0
 30
0.0
  9
$UCSYDIR
 10
0.0
 20
1.0
 30
0.0
  9
$UCSORTHOREF
  2

  9
$UCSORTHOVIEW
 70
     0
  9
$UCSORGTOP
 10
0.0
 20
0.0
 30
0.0
  9
$UCSORGBOTTOM
 10
0.0
 20
0.0
 30
0.0
  9
$UCSORGLEFT
 10
0.0
 20
0.0
 30
0.0
  9
$UCSORGRIGHT
 10
0.0
 20
0.0
 30
0.0
  9
$UCSORGFRONT
 10
0.0
 20
0.0
 30
0.0
  9
$UCSORGBACK
 10
0.0
 20
0.0
 30
0.0
  9
$PUCSBASE
  2

  9
$PUCSNAME
  2

  9
$PUCSORG
 10
0.0
 20
0.0
 30
0.0
  9
$PUCSXDIR
 10
1.0
 20
0.0
 30
0.0
  9
$PUCSYDIR
 10
0.0
 20
1.0
 30
0.0
  9
$PUCSORTHOREF
  2

  9
$PUCSORTHOVIEW
 70
     0
  9
$PUCSORGTOP
 10
0.0
 20
0.0
 30
0.0
  9
$PUCSORGBOTTOM
 10
0.0
 20
0.0
 30
0.0
  9
$PUCSORGLEFT
 10
0.0
 20
0.0
 30
0.0
  9
$PUCSORGRIGHT
 10
0.0
 20
0.0
 30
0.0
  9
$PUCSORGFRONT
 10
0.0
 20
0.0
 30
0.0
  9
$PUCSORGBACK
 10
0.0
 20
0.0
 30
0.0
  9
$USERI1
 70
     0
  9
$USERI2
 70
     0
  9
$USERI3
 70
     0
  9
$USERI4
 70
     0
  9
$USERI5
 70
     0
  9
$USERR1
 40
0.0
  9
$USERR2
 40
0.0
  9
$USERR3
 40
0.0
  9
$USERR4
 40
0.0
  9
$USERR5
 40
0.0
  9
$WORLDVIEW
 70
     1
  9
$SHADEDGE
 70
     3
  9
$SHADEDIF
 70
    70
  9
$TILEMODE
 70
     1
  9
$MAXACTVP
 70
    16
  9
$PINSBASE
 10
0.0
 20
0.0
 30
0.0
  9
$PLIMCHECK
 70
     0
  9
$PEXTMIN
 10
1.000000000000000E+20
 20
1.000000000000000E+20
 30
1.000000000000000E+20
  9
$PEXTMAX
 10
-1.000000000000000E+20
 20
-1.000000000000000E+20
 30
-1.000000000000000E+20
  9
$PLIMMIN
 10
0.0
 20
0.0
  9
$PLIMMAX
 10
12.0
 20
9.0
  9
$UNITMODE
 70
     0
  9
$VISRETAIN
 70
     0
  9
$PLINEGEN
 70
     1
  9
$PSLTSCALE
 70
     0
  9
$TREEDEPTH
 70
  3020
  9
$CMLSTYLE
  2
STANDARD
  9
$CMLJUST
 70
     0
  9
$CMLSCALE
 40
1.0
  9
$PROXYGRAPHICS
 70
     1
  9
$MEASUREMENT
 70
     0
  9
$CELWEIGHT
370
    -1
  9
$ENDCAPS
280
     0
  9
$JOINSTYLE
280
     0
  9
$LWDISPLAY
290
     0
  9
$INSUNITS
 70
     0
  9
$HYPERLINKBASE
  1

  9
$STYLESHEET
  1

  9
$XEDIT
290
     1
  9
$CEPSNTYPE
380
     0
  9
$PSTYLEMODE
290
     1
  9
$FINGERPRINTGUID
  2
{59A82505-D383-45F7-B297-A7730BABDFE4}
  9
$VERSIONGUID
  2
{F47897CC-5DEB-4B9F-B75B-451752D7084A}
  9
$EXTNAMES
290
     1
  9
$PSVPSCALE
 40
0.0
  9
$OLESTARTUP
290
     0
  0
ENDSEC
  0
SECTION
  2
CLASSES
  0
CLASS
  1
IMAGE
  2
AcDbRasterImage
  3
ISM
 90
    32895
280
     0
281
     1
  0
CLASS
  1
DICTIONARYVAR
  2
AcDbDictionaryVar
  3
ObjectDBX Classes
 90
        0
280
     0
281
     0
  0
CLASS
  1
RASTERVARIABLES
  2
AcDbRasterVariables
  3
ISM
 90
    32768
280
     0
281
     0
  0
CLASS
  1
IMAGEDEF
  2
AcDbRasterImageDef
  3
ISM
 90
    32768
280
     0
281
     0
  0
CLASS
  1
IMAGEDEF_REACTOR
  2
AcDbRasterImageDefReactor
  3
ISM
 90
    32769
280
     0
281
     0
  0
CLASS
  1
IDBUFFER
  2
AcDbIdBuffer
  3
ObjectDBX Classes
 90
    32768
280
     0
281
     0
  0
CLASS
  1
SPATIAL_FILTER
  2
AcDbSpatialFilter
  3
ObjectDBX Classes
 90
    32768
280
     0
281
     0
  0
CLASS
  1
SORTENTSTABLE
  2
AcDbSortentsTable
  3
ObjectDBX Classes
 90
    32768
280
     0
281
     0
  0
CLASS
  1
LAYER_INDEX
  2
AcDbLayerIndex
  3
ObjectDBX Classes
 90
    32768
280
     0
281
     0
  0
CLASS
  1
SPATIAL_INDEX
  2
AcDbSpatialIndex
  3
ObjectDBX Classes
 90
    32768
280
     0
281
     0
  0
CLASS
  1
OBJECT_PTR
  2
CAseDLPNTableRecord
  3
ASE-LPNTableRecord
 90
    32769
280
     0
281
     0
  0
CLASS
  1
LAYOUT
  2
AcDbLayout
  3
ObjectDBX Classes
 90
        0
280
     0
281
     0
  0
CLASS
  1
PLOTSETTINGS
  2
AcDbPlotSettings
  3
ObjectDBX Classes
 90
    32768
280
     0
281
     0
  0
CLASS
  1
ACDBDICTIONARYWDFLT
  2
AcDbDictionaryWithDefault
  3
ObjectDBX Classes
 90
        0
280
     0
281
     0
  0
CLASS
  1
ACDBPLACEHOLDER
  2
AcDbPlaceHolder
  3
ObjectDBX Classes
 90
        0
280
     0
281
     0
  0
CLASS
  1
VBA_PROJECT
  2
AcDbVbaProject
  3
acad
 90
    32768
280
     0
281
     0
  0
CLASS
  1
WIPEOUT
  2
AcDbWipeout
  3
"WipeOut|Product Desc: Object Enabler for WipeOut entity^I^I^I^I^I^I|Company: Autodesk, Inc.^I^I^I^I^I^I|WEB Address: www.autodesk.com"
 90
    32895
280
     0
281
     1
  0
CLASS
  1
WIPEOUTVARIABLES
  2
AcDbWipeoutVariables
  3
"WipeOut|Product Desc:     WipeOut Dbx Application|Company:          Autodesk, Inc.|WEB Address:      www.autodesk.com"
 90
    32768
280
     0
281
     0
  0
CLASS
  1
RTEXT
  2
RText
  3
RText|AutoCAD Express Tool|expresstools@autodesk.com
 90
    32768
280
     0
281
     1
  0
CLASS
  1
ARCALIGNEDTEXT
  2
AcDbArcAlignedText
  3
ATEXT|AutoCAD Express Tool|expresstools@autodesk.com
 90
    32768
280
     0
281
     1
  0
CLASS
  1
TABLESTYLE
  2
AcDbTableStyle
  3
ObjectDBX Classes
 90
     2047
280
     0
281
     0
  0
CLASS
  1
AMGSETTINGSOBJ
  2
AmgSettingsObj
  3
"AcadM|Product Description: AutoCAD Mechanical 2000|Company: Autodesk"
 90
        0
280
     0
281
     0
  0
CLASS
  1
ACME_DOCUMENT
  2
AcMeDbDoc
  3
AcMeServices
 90
        0
280
     0
281
     0
  0
CLASS
  1
ACMESCOPE
  2
AcMeScope
  3
AcMeServices
 90
        0
280
     0
281
     0
  0
CLASS
  1
ACMECOMMANDHISTORY
  2
AcMeCommandHistory
  3
AcMeServices
 90
        0
280
     0
281
     0
  0
CLASS
  1
ACIMSYSVARMAN
  2
AcImSysVarManager
  3
AcMeServices
 90
        0
280
     0
281
     0
  0
CLASS
  1
ACIMINTSYSVAR
  2
AcImIntSysVar
  3
AcMeServices
 90
        0
280
     0
281
     0
  0
CLASS
  1
ACMEDRAWINGMAN
  2
AcMeDrawingMan
  3
AcMeServices
 90
        0
280
     0
281
     0
  0
CLASS
  1
ACMEVIEW
  2
AcMeView
  3
AcMeServices
 90
        0
280
     0
281
     0
  0
CLASS
  1
ACDBENTITYCACHE
  2
AcMeEntityCache
  3
AcMeServices
 90
        0
280
     0
281
     0
  0
CLASS
  1
GSMANAGER
  2
AcMeGSManager
  3
AcMeServices
 90
        0
280
     0
281
     0
  0
CLASS
  1
AMDTINTERNALREACTOR
  2
AmdtInternalReactor
  3
AcMeServices
 90
        0
280
     0
281
     0
  0
CLASS
  1
ACMESTATEMGR
  2
AcMeStateMgr
  3
AcMeServices
 90
        0
280
     0
281
     0
  0
CLASS
  1
ACGREFMASTER
  2
AcGrefMaster
  3
AcAttribServices
 90
        0
280
     0
281
     0
  0
CLASS
  1
AM_DRAWING_MGR
  2
AcDmDwgMgr
  3
AcMechDwgViewMgmt
 90
        0
280
     0
281
     0
  0
CLASS
  1
AM_DWG_DOCUMENT
  2
AcDmDwgDocument
  3
AcMechDwgViewMgmt
 90
        0
280
     0
281
     0
  0
CLASS
  1
AM_DWG_SHEET
  2
AcDmSheet
  3
AcMechDwgViewMgmt
 90
        0
280
     0
281
     0
  0
CLASS
  1
AM_VIEWDIMPARMAP
  2
AcDmViewDimParMap
  3
AcMechDwgViewMgmt
 90
        0
280
     0
281
     0
  0
CLASS
  1
ACIMREALSYSVAR
  2
AcImRealSysVar
  3
AcMeServices
 90
        0
280
     0
281
     0
  0
CLASS
  1
AM_DWGMGR_NAME
  2
AcDmDwgMgrName
  3
AcMechDwgViewMgmt
 90
        0
280
     0
281
     0
  0
CLASS
  1
ACME_DATABASE
  2
AcMeDbDatabase
  3
AcMeServices
 90
        0
280
     0
281
     0
  0
CLASS
  1
ACRFINSADJUSTERMGR
  2
AcRfInsAdjusterMgr
  3
AcMeServices
 90
        0
280
     0
281
     0
  0
CLASS
  1
ACGREFACADMASTER
  2
AcGrefacadMaster
  3
AcGrefServices
 90
        0
280
     0
281
     0
  0
CLASS
  1
AMDTMENUSTATEMGR
  2
AmdtMenuStateMgr
  3
McadcomServices
 90
        0
280
     0
281
     0
  0
CLASS
  1
AMDTMCOMMENUSTATE
  2
AmdtMcomMenuState
  3
McadcomServices
 90
        0
280
     0
281
     0
  0
CLASS
  1
AMIMASTER
  2
AmiMaster
  3
AmiServices
 90
        0
280
     0
281
     0
  0
CLASS
  1
MAPIAMMOUDLE
  2
MApiAmModule
  3
MApiAmServices
 90
        0
280
     0
281
     0
  0
CLASS
  1
ACIMSTRSYSVAR
  2
AcImStrSysVar
  3
AcMeServices
 90
        0
280
     0
281
     0
  0
CLASS
  1
AMDTADMENUSTATE
  2
AmdtAdMenuState
  3
DesignerServices
 90
        0
280
     0
281
     0
  0
CLASS
  1
ADAPPL
  2
AcAdAppl
  3
DesignerServices
 90
        0
280
     0
281
     0
  0
CLASS
  1
DEPMGR
  2
AcAdDepMgr
  3
DesignerServices
 90
        0
280
     0
281
     0
  0
CLASS
  1
PARAMMGR
  2
AcAdParamMgr
  3
DesignerServices
 90
        0
280
     0
281
     0
  0
CLASS
  1
PARAMSCOPE
  2
AcAdParamScope
  3
DesignerServices
 90
        0
280
     0
281
     0
  0
CLASS
  1
NAMEDAPPL
  2
AcAdNamedAppl
  3
DesignerServices
 90
        0
280
     0
281
     0
  0
CLASS
  1
AMDTDMMENUSTATE
  2
AmdtDmMenuState
  3
AcMechDwgViewMgmt
 90
        0
280
     0
281
     0
  0
CLASS
  1
AMDTAMMENUSTATE
  2
AmdtAmMenuState
  3
DesignerAssemblies
 90
        0
280
     0
281
     0
  0
CLASS
  1
ACAMPROJECT
  2
AcAmProject
  3
DesignerAssemblies
 90
        0
280
     0
281
     0
  0
CLASS
  1
ACAMGRCOMPDEF
  2
AcAmGrCompDef
  3
DesignerAssemblies
 90
        0
280
     0
281
     0
  0
CLASS
  1
ACCMCONTEXT
  2
AcCmContext
  3
DesignerAssemblies
 90
        0
280
     0
281
     0
  0
CLASS
  1
ACAMCOMPDEF
  2
AcAmCompDef
  3
DesignerAssemblies
 90
        0
280
     0
281
     0
  0
CLASS
  1
ACAMCOMPDEFMGR
  2
AcAmCompDefMgr
  3
DesignerAssemblies
 90
        0
280
     0
281
     0
  0
CLASS
  1
AMCONTEXTMGR
  2
AcAmContextMgr
  3
DesignerAssemblies
 90
        0
280
     0
281
     0
  0
CLASS
  1
ACAMCONTEXTMODELER
  2
AcAmContextModeler
  3
DesignerAssemblies
 90
        0
280
     0
281
     0
  0
CLASS
  1
ACMDATADICTIONARY
  2
AcmDataDictionary
  3
"AcmSymBB|Product Description: AutoCAD Mechanical 2004 DX|Company: Autodesk"
 90
        0
280
     0
281
     0
  0
CLASS
  1
CATALOGSTATE
  2
AcAmCatalogState
  3
DesignerAssemblies
 90
        0
280
     0
281
     0
  0
CLASS
  1
ACAMGRCOMPDEFSET
  2
AcAmGrCompDefSet
  3
DesignerAssemblies
 90
        0
280
     0
281
     0
  0
CLASS
  1
AMDTBROWSERDBTAB
  2
AmdtBrowserDbTab
  3
McadcomServices
 90
        0
280
     0
281
     0
  0
CLASS
  1
CBROWSERAPPOBJECT
  2
CBrowserAppObject
  3
McadcomServices
 90
        0
280
     0
281
     0
  0
CLASS
  1
DM_PLACEHOLDER
  2
AcDmSelsetPlaceholder
  3
AcMechDwgViewMgmt
 90
        0
280
     0
281
     0
  0
CLASS
  1
ACMSTANDARDANSI
  2
AcmStandardANSI
  3
"Amdt_StdImp|Product Description: AutoCAD Mechanical 2004 DX|Company: Autodesk"
 90
        0
280
     0
281
     0
  0
CLASS
  1
AMGOBJPROPCFG
  2
AmgObjPropCfg
  3
"AmgLay|Product Description: AutoCAD Mechanical 2000|Company: Autodesk"
 90
        1
280
     0
281
     0
  0
CLASS
  1
ACMSURFSTANDARDANSI
  2
AcmSurfTextStdANSI
  3
"Amdt_StdImp|Product Description: AutoCAD Mechanical 2004 DX|Company: Autodesk"
 90
        0
280
     0
281
     0
  0
CLASS
  1
ACMFCFSTANDARDANSI
  2
AcmFCFStdANSI
  3
"Amdt_StdImp|Product Description: AutoCAD Mechanical 2004 DX|Company: Autodesk"
 90
        0
280
     0
281
     0
  0
CLASS
  1
ACMWELDSTANDARDANSI
  2
AcmWeldingStdANSI
  3
"Amdt_StdImp|Product Description: AutoCAD Mechanical 2004 DX|Company: Autodesk"
 90
        0
280
     0
281
     0
  0
CLASS
  1
ACMIDSTANDARDANSI
  2
AcmIdStdANSI
  3
"Amdt_StdImp|Product Description: AutoCAD Mechanical 2004 DX|Company: Autodesk"
 90
        0
280
     0
281
     0
  0
CLASS
  1
ACMDATUMSTANDARDANSI
  2
AcmDatumStdANSI
  3
"Amdt_StdImp|Product Description: AutoCAD Mechanical 2004 DX|Company: Autodesk"
 90
        0
280
     0
281
     0
  0
CLASS
  1
ACMBOMSTANDARDANSI
  2
AcmBOMStdANSI
  3
"Amdt_StdImp|Product Description: AutoCAD Mechanical 2004 DX|Company: Autodesk"
 90
        0
280
     0
281
     0
  0
CLASS
  1
ACMDETAILSTANDARDANSI
  2
AmdtDetailSymStdANSI
  3
"Amdt_StdImp|Product Description: AutoCAD Mechanical 2004 DX|Company: Autodesk"
 90
        0
280
     0
281
     0
  0
CLASS
  1
ACMSECTIONSTANDARDANSI
  2
AmdtSectionSymStdANSI
  3
"Amdt_StdImp|Product Description: AutoCAD Mechanical 2004 DX|Company: Autodesk"
 90
        0
280
     0
281
     0
  0
CLASS
  1
ACMCENTERLINESTANDARDANSI
  2
AmdtCenterLineStdANSI
  3
"Amdt_StdImp|Product Description: AutoCAD Mechanical 2004 DX|Company: Autodesk"
 90
        0
280
     0
281
     0
  0
CLASS
  1
ACMTHREADLINESTANDARDANSI
  2
AmdtThreadLineStdANSI
  3
"Amdt_StdImp|Product Description: AutoCAD Mechanical 2004 DX|Company: Autodesk"
 90
        0
280
     0
281
     0
  0
CLASS
  1
ACMNOTESTANDARDANSI
  2
AmdtNoteStdANSI
  3
"Amdt_StdImp|Product Description: AutoCAD Mechanical 2004 DX|Company: Autodesk"
 90
        0
280
     0
281
     0
  0
CLASS
  1
AMDTNOTETEMPLATEDB
  2
AmdtNoteTemplateDB
  3
AMDT_STDIMP_MODULE_NAME
 90
        0
280
     0
281
     0
  0
CLASS
  1
ACAMGLAYSTD
  2
AcAmgLayStd
  3
"AcAmgLayStd|Product Description: AutoCAD Mechanical 2000|Company: Autodesk"
 90
        0
280
     0
281
     0
  0
CLASS
  1
ACAMGDIMSTD
  2
AcAmgDimStd
  3
"AcAmgDimStd|Product Description: AutoCAD Mechanical 2000|Company: Autodesk"
 90
        0
280
     0
281
     0
  0
CLASS
  1
ACAMGHOLECHARTSTDANSI
  2
AcAmgHoleChartStdANSI
  3
ACMSYMBB_MODULE_NAME
 90
        0
280
     0
281
     0
  0
CLASS
  1
ACAMGTITLESTD
  2
AcAmgTitleStd
  3
"TITLEAPP"
 90
        0
280
     0
281
     0
  0
CLASS
  1
ACAMGFILTERDAT
  2
AcAmgFilterDat
  3
"AcadM|Product Description: AutoCAD Mechanical 2000|Company: Autodesk"
 90
        0
280
     0
281
     0
  0
ENDSEC
  0
SECTION
  2
TABLES
  0
TABLE
  2
VPORT
  5
7
330
0
100
AcDbSymbolTable
 70
     3
  0
VPORT
  5
2BE
330
7
100
AcDbSymbolTableRecord
100
AcDbViewportTableRecord
  2
*Active
 70
     0
 10
0.0
 20
0.0
 11
1.0
 21
1.0
 12
8.847702598996946
 22
4.579183999999999
 13
0.0
 23
0.0
 14
1.0
 24
1.0
 15
0.0
 25
0.0
 16
0.0
 26
0.0
 36
1.0
 17
0.0
 27
0.0
 37
0.0
 40
9.158369
 41
1.181318681318681
 42
50.0
 43
0.0
 44
0.0
 50
0.0
 51
0.0
 71
     0
 72
   100
 73
     1
 74
     1
 75
     0
 76
     0
 77
     0
 78
     0
281
     0
 65
     0
110
0.0
120
0.0
130
0.0
111
1.0
121
0.0
131
0.0
112
0.0
122
1.0
132
0.0
 79
     0
146
0.0
  0
ENDTAB
  0
TABLE
  2
LTYPE
  5
4
330
0
100
AcDbSymbolTable
 70
    17
  0
LTYPE
  5
11
330
4
100
AcDbSymbolTableRecord
100
AcDbLinetypeTableRecord
  2
BYBLOCK
 70
     0
  3

 72
    65
 73
     0
 40
0.0
  0
LTYPE
  5
12
330
4
100
AcDbSymbolTableRecord
100
AcDbLinetypeTableRecord
  2
BYLAYER
 70
     0
  3

 72
    65
 73
     0
 40
0.0
  0
LTYPE
  5
13
330
4
100
AcDbSymbolTableRecord
100
AcDbLinetypeTableRecord
  2
CONTINUOUS
 70
     0
  3
Solid line
 72
    65
 73
     0
 40
0.0
  0
LTYPE
  5
58
330
4
100
AcDbSymbolTableRecord
100
AcDbLinetypeTableRecord
  2
AI9-LTYPE1
 70
     0
  3
Illustrator Dash Style No.1
 72
    65
 73
     2
 40
1.368778
 49
0.684389
 74
     0
 49
-0.684389
 74
     0
  0
LTYPE
  5
233
330
4
100
AcDbSymbolTableRecord
100
AcDbLinetypeTableRecord
  2
HIDDEN
 70
     0
  3
Hidden __ __ __ __ __ __ __ __ __ __ __ __ __ _
 72
    65
 73
     2
 40
0.375
 49
0.25
 74
     0
 49
-0.125
 74
     0
  0
LTYPE
  5
234
330
4
100
AcDbSymbolTableRecord
100
AcDbLinetypeTableRecord
  2
PHANTOM2
 70
     0
  3
Phantom (.5x) ___ _ _ ___ _ _ ___ _ _ ___ _ _
 72
    65
 73
     6
 40
1.25
 49
0.625
 74
     0
 49
-0.125
 74
     0
 49
0.125
 74
     0
 49
-0.125
 74
     0
 49
0.125
 74
     0
 49
-0.125
 74
     0
  0
LTYPE
  5
235
330
4
100
AcDbSymbolTableRecord
100
AcDbLinetypeTableRecord
  2
CENTER
 70
     0
  3
Center ____ _ ____ _ ____ _ ____ _ ____ _ ____
 72
    65
 73
     4
 40
2.0
 49
1.25
 74
     0
 49
-0.25
 74
     0
 49
0.25
 74
     0
 49
-0.25
 74
     0
  0
LTYPE
  5
269
330
4
100
AcDbSymbolTableRecord
100
AcDbLinetypeTableRecord
  2
AM_ISO02W050
 70
     0
  3
__ __ __ __ __ __ __ __ __ __ __ __ __ __ __
 72
    65
 73
     2
 40
7.5
 49
6.0
 74
     0
 49
-1.5
 74
     0
  0
LTYPE
  5
26A
330
4
100
AcDbSymbolTableRecord
100
AcDbLinetypeTableRecord
  2
AM_ISO08W050
 70
     0
  3
____ . ____ . ____ . ____ . ____ . ____ . ____
 72
    65
 73
     4
 40
18.0
 49
12.0
 74
     0
 49
-1.5
 74
     0
 49
3.0
 74
     0
 49
-1.5
 74
     0
  0
LTYPE
  5
26B
330
4
100
AcDbSymbolTableRecord
100
AcDbLinetypeTableRecord
  2
AM_ISO09W050
 70
     0
  3
_____ . . _____ . . _____ . . ____ .. ____
 72
    65
 73
     6
 40
22.5
 49
12.0
 74
     0
 49
-1.5
 74
     0
 49
3.0
 74
     0
 49
-1.5
 74
     0
 49
3.0
 74
     0
 49
-1.5
 74
     0
  0
LTYPE
  5
26C
330
4
100
AcDbSymbolTableRecord
100
AcDbLinetypeTableRecord
  2
Amconstr
 70
     0
  3
_______________________
 72
    65
 73
     2
 40
9999.0
 49
9999.0
 74
     0
 49
0.0
 74
     0
  0
LTYPE
  5
26D
330
4
100
AcDbSymbolTableRecord
100
AcDbLinetypeTableRecord
  2
AM_ISO08W050x2
 70
     0
  3
__ . __ . __ . __ . __ . __
 72
    65
 73
     4
 40
9.0
 49
6.0
 74
     0
 49
-0.75
 74
     0
 49
1.5
 74
     0
 49
-0.75
 74
     0
  0
LTYPE
  5
26E
330
4
100
AcDbSymbolTableRecord
100
AcDbLinetypeTableRecord
  2
AM_ISO02W050x2
 70
     0
  3
 _ _ _ _ _ _ _ _ _ _ _ _
 72
    65
 73
     2
 40
3.75
 49
3.0
 74
     0
 49
-0.75
 74
     0
  0
LTYPE
  5
271
330
4
100
AcDbSymbolTableRecord
100
AcDbLinetypeTableRecord
  2
Amzigzag
 70
     0
  3
/\/-/\/-/\/-/\/-/\/-/\/
 72
    65
 73
     2
 40
11.0001
 49
0.0001
 74
     4
 75
   136
340
270
 46
0.04
 50
0.0
 44
0.0
 45
0.0
 49
-11.0
 74
     0
  0
LTYPE
  5
272
330
4
100
AcDbSymbolTableRecord
100
AcDbLinetypeTableRecord
  2
CENTER2
 70
     0
  3
Center (.5x) ___ _ ___ _ ___ _ ___ _ ___ _ ___
 72
    65
 73
     4
 40
1.125
 49
0.75
 74
     0
 49
-0.125
 74
     0
 49
0.125
 74
     0
 49
-0.125
 74
     0
  0
LTYPE
  5
273
330
4
100
AcDbSymbolTableRecord
100
AcDbLinetypeTableRecord
  2
HIDDEN2
 70
     0
  3
Hidden (.5x) _ _ _ _ _ _ _ _ _ _ _ _ _ _ _ _ _
 72
    65
 73
     2
 40
0.1875
 49
0.125
 74
     0
 49
-0.0625
 74
     0
  0
LTYPE
  5
274
330
4
100
AcDbSymbolTableRecord
100
AcDbLinetypeTableRecord
  2
Amzigzag2
 70
     0
  3
/\/-/\/-/\/-/\/-/\/-/\/
 72
    65
 73
     2
 40
0.4401
 49
0.0001
 74
     4
 75
   136
340
270
 46
0.0016
 50
0.0
 44
0.0
 45
0.0
 49
-0.4400000000000001
 74
     0
  0
LTYPE
  5
282
330
4
100
AcDbSymbolTableRecord
100
AcDbLinetypeTableRecord
  2
ACANSTGB
 70
     0
  3
__ . . __ . .
 72
    65
 73
     6
 40
0.35433070866
 49
0.15748031496
 74
     0
 49
-0.03937007874
 74
     0
 49
0.03937007874
 74
     0
 49
-0.03937007874
 74
     0
 49
0.03937007874
 74
     0
 49
-0.03937007874
 74
     0
  0
LTYPE
  5
283
330
4
100
AcDbSymbolTableRecord
100
AcDbLinetypeTableRecord
  2
ACANSTGL
 70
     0
  3
_ _ _ _ _
 72
    65
 73
     2
 40
0.11811023622
 49
0.07874015748
 74
     0
 49
-0.03937007874
 74
     0
  0
ENDTAB
  0
TABLE
  2
LAYER
  5
2
330
0
100
AcDbSymbolTable
 70
     2
  0
LAYER
  5
14
330
2
100
AcDbSymbolTableRecord
100
AcDbLayerTableRecord
  2
0
 70
     0
 62
     7
  6
CONTINUOUS
370
    -3
390
1F5
  0
LAYER
  5
21
330
2
100
AcDbSymbolTableRecord
100
AcDbLayerTableRecord
  2
LAYER_1
 70
     0
 62
     5
  6
CONTINUOUS
370
    -3
390
1F5
  0
ENDTAB
  0
TABLE
  2
STYLE
  5
3
330
0
100
AcDbSymbolTable
 70
     8
  0
STYLE
  5
17
330
3
100
AcDbSymbolTableRecord
100
AcDbTextStyleTableRecord
  2
STANDARD
 70
     0
 40
0.0
 41
1.0
 50
0.0
 71
     0
 42
0.0
  3
txt
  4

  0
STYLE
  5
1D
330
3
100
AcDbSymbolTableRecord
100
AcDbTextStyleTableRecord
  2
STD
 70
     0
 40
0.0
 41
1.0
 50
0.0
 71
     0
 42
0.0
  3
txt
  4

  0
STYLE
  5
1E
330
3
100
AcDbSymbolTableRecord
100
AcDbTextStyleTableRecord
  2
TATESTD
 70
     4
 40
0.0
 41
1.0
 50
0.0
 71
     0
 42
0.0
  3
txt
  4

  0
STYLE
  5
1F
330
3
100
AcDbSymbolTableRecord
100
AcDbTextStyleTableRecord
  2
KANJISTD
 70
     0
 40
0.0
 41
1.0
 50
0.0
 71
     0
 42
0.0
  3
txt
  4
extfont
  0
STYLE
  5
20
330
3
100
AcDbSymbolTableRecord
100
AcDbTextStyleTableRecord
  2
KANJITATE
 70
     4
 40
0.0
 41
1.0
 50
0.0
 71
     0
 42
0.0
  3
txt
  4
extfont
  0
STYLE
  5
270
330
3
100
AcDbSymbolTableRecord
100
AcDbTextStyleTableRecord
  2

 70
     1
 40
0.0
 41
1.0
 50
0.0
 71
     0
 42
0.2
  3
genltshp.shx
  4

  0
STYLE
  5
275
330
3
100
AcDbSymbolTableRecord
100
AcDbTextStyleTableRecord
  2
ACANSTS
 70
     0
 40
1.0
 41
1.0
 50
0.0
 71
     0
 42
0.2
  3
romans.shx
  4

  0
STYLE
  5
281
330
3
100
AcDbSymbolTableRecord
100
AcDbTextStyleTableRecord
  2
ACANSGDT
 70
     0
 40
0.0
 41
1.0
 50
0.0
 71
     0
 42
0.2
  3
AMGDT
  4

  0
ENDTAB
  0
TABLE
  2
VIEW
  5
5
330
0
100
AcDbSymbolTable
 70
     0
  0
ENDTAB
  0
TABLE
  2
UCS
  5
6
330
0
100
AcDbSymbolTable
 70
     0
  0
ENDTAB
  0
TABLE
  2
APPID
  5
8
330
0
100
AcDbSymbolTable
 70
    11
  0
APPID
  5
16
330
8
100
AcDbSymbolTableRecord
100
AcDbRegAppTableRecord
  2
ACAD
 70
     0
  0
APPID
  5
206
330
8
100
AcDbSymbolTableRecord
100
AcDbRegAppTableRecord
  2
MCAD_NO_VIS
 70
     0
  0
APPID
  5
207
330
8
100
AcDbSymbolTableRecord
100
AcDbRegAppTableRecord
  2
ACAD_TEMP_GRAPHIC
 70
     0
  0
APPID
  5
237
330
8
100
AcDbSymbolTableRecord
100
AcDbRegAppTableRecord
  2
AD_DRAW
 70
     0
  0
APPID
  5
23A
330
8
100
AcDbSymbolTableRecord
100
AcDbRegAppTableRecord
  2
ACATTRIBSERVICES
 70
     0
  0
APPID
  5
25A
330
8
100
AcDbSymbolTableRecord
100
AcDbRegAppTableRecord
  2
DESIGNERASSEMBLIES
 70
     0
  0
APPID
  5
260
330
8
100
AcDbSymbolTableRecord
100
AcDbRegAppTableRecord
  2
ACADM_DIM_EDIT
 70
     0
  0
APPID
  5
261
330
8
100
AcDbSymbolTableRecord
100
AcDbRegAppTableRecord
  2
AMDT_DM_ADJ
 70
     0
  0
APPID
  5
28F
330
8
100
AcDbSymbolTableRecord
100
AcDbRegAppTableRecord
  2
ACAD_DSTYLE_DIMARC_LENGTH_SYMBOL
 70
     0
  0
APPID
  5
290
330
8
100
AcDbSymbolTableRecord
100
AcDbRegAppTableRecord
  2
ACAD_DSTYLE_DIMJOGGED_JOGANGLE_SYMBOL
 70
     0
  0
APPID
  5
2B8
330
8
100
AcDbSymbolTableRecord
100
AcDbRegAppTableRecord
  2
DCO15
 70
     0
  0
ENDTAB
  0
TABLE
  2
DIMSTYLE
  5
9
330
0
100
AcDbSymbolTable
 70
     7
100
AcDbDimStyleTable
 71
     0
  0
DIMSTYLE
105
18
330
9
100
AcDbSymbolTableRecord
100
AcDbDimStyleTableRecord
  2
STANDARD
 70
     0
340
17
  0
DIMSTYLE
105
28E
330
9
100
AcDbSymbolTableRecord
100
AcDbDimStyleTableRecord
  2
AM_ANSI
 70
     0
  4
mm
 41
0.1
 42
0.05
 43
0.5
 44
0.1
 47
0.1
 48
0.1
 78
     7
 79
     2
140
0.12
141
0.0
146
0.71
147
0.06
176
   256
177
   256
178
     2
274
     4
284
     7
340
17
371
    -1
372
    -1
1001
ACAD_DSTYLE_DIMARC_LENGTH_SYMBOL
1070
   379
1070
     1
1001
ACAD_DSTYLE_DIMJOGGED_JOGANGLE_SYMBOL
1070
   384
1040
0.7853981633974483
  0
DIMSTYLE
105
297
330
9
100
AcDbSymbolTableRecord
100
AcDbDimStyleTableRecord
  2
AM_ANSI$3
 70
     0
  4
mm
 41
0.1
 42
0.05
 43
0.5
 44
0.1
 47
0.1
 48
0.1
 78
     7
 79
     2
140
0.12
141
0.0
146
0.71
147
0.06
176
   256
177
   256
178
     2
274
     4
284
     7
288
     1
289
     0
340
17
371
    -1
372
    -1
1001
ACAD_DSTYLE_DIMARC_LENGTH_SYMBOL
1070
   379
1070
     1
1001
ACAD_DSTYLE_DIMJOGGED_JOGANGLE_SYMBOL
1070
   384
1040
0.7853981633974483
  0
DIMSTYLE
105
29A
330
9
100
AcDbSymbolTableRecord
100
AcDbDimStyleTableRecord
  2
AM_ANSI$4
 70
     0
  4
mm
 41
0.1
 42
0.05
 43
0.5
 44
0.1
 47
0.1
 48
0.1
 78
     7
 79
     2
140
0.12
141
0.0
146
0.71
147
0.06
176
   256
177
   256
178
     2
274
     4
284
     7
288
     1
289
     0
340
17
371
    -1
372
    -1
1001
ACAD_DSTYLE_DIMARC_LENGTH_SYMBOL
1070
   379
1070
     1
1001
ACAD_DSTYLE_DIMJOGGED_JOGANGLE_SYMBOL
1070
   384
1040
0.7853981633974483
  0
DIMSTYLE
105
29F
330
9
100
AcDbSymbolTableRecord
100
AcDbDimStyleTableRecord
  2
AM_ANSI$7
 70
     0
  4
mm
 41
0.1
 42
0.05
 43
0.5
 44
0.1
 47
0.1
 48
0.1
 78
     7
 79
     2
140
0.24
141
0.0
146
0.71
147
0.06
176
   256
177
   256
178
     2
274
     4
284
     7
340
17
371
    -1
372
    -1
1001
ACAD_DSTYLE_DIMARC_LENGTH_SYMBOL
1070
   379
1070
     1
1001
ACAD_DSTYLE_DIMJOGGED_JOGANGLE_SYMBOL
1070
   384
1040
0.7853981633974483
  0
DIMSTYLE
105
2A2
330
9
100
AcDbSymbolTableRecord
100
AcDbDimStyleTableRecord
  2
AM_ANSI$SF
 70
     0
  4
mm
 41
0.1
 42
0.05
 43
0.5
 44
0.1
 47
0.1
 48
0.1
 75
     1
 76
     1
 78
     7
 79
     2
140
0.12
141
0.0
146
0.71
147
0.06
176
   256
177
   256
178
     2
274
     4
284
     7
340
17
371
    -1
372
    -1
1001
ACAD_DSTYLE_DIMARC_LENGTH_SYMBOL
1070
   379
1070
     1
1001
ACAD_DSTYLE_DIMJOGGED_JOGANGLE_SYMBOL
1070
   384
1040
0.7853981633974483
  0
DIMSTYLE
105
2A9
330
9
100
AcDbSymbolTableRecord
100
AcDbDimStyleTableRecord
  2
AM_ANSI$SH
 70
     0
  4
mm
 41
0.1
 42
0.05
 43
0.5
 44
0.1
 47
0.1
 48
0.1
 75
     1
 76
     1
 78
     7
 79
     2
140
0.12
141
0.0
146
0.71
147
0.06
173
     1
176
   256
177
   256
178
     2
274
     4
284
     7
340
17
343
2A3
371
    -1
372
    -1
1001
ACAD_DSTYLE_DIMARC_LENGTH_SYMBOL
1070
   379
1070
     1
1001
ACAD_DSTYLE_DIMJOGGED_JOGANGLE_SYMBOL
1070
   384
1040
0.7853981633974483
  0
ENDTAB
  0
TABLE
  2
BLOCK_RECORD
  5
1
330
0
100
AcDbSymbolTable
 70
    14
  0
BLOCK_RECORD
  5
A
330
1
100
AcDbSymbolTableRecord
100
AcDbBlockTableRecord
  2
*MODEL_SPACE
340
1FC
  0
BLOCK_RECORD
  5
B
330
1
100
AcDbSymbolTableRecord
100
AcDbBlockTableRecord
  2
*PAPER_SPACE
340
1FD
  0
BLOCK_RECORD
  5
41
330
1
100
AcDbSymbolTableRecord
100
AcDbBlockTableRecord
  2
AI9-BLK1
340
0
102
{BLKREFS
331
42
102
}
  0
BLOCK_RECORD
  5
4F
330
1
100
AcDbSymbolTableRecord
100
AcDbBlockTableRecord
  2
AI9-BLK2
340
0
102
{BLKREFS
331
50
102
}
  0
BLOCK_RECORD
  5
55
330
1
100
AcDbSymbolTableRecord
100
AcDbBlockTableRecord
  2
AI9-BLK3
340
0
102
{BLKREFS
331
56
102
}
  0
BLOCK_RECORD
  5
149
330
1
100
AcDbSymbolTableRecord
100
AcDbBlockTableRecord
  2
AI9-BLK4
340
0
102
{BLKREFS
331
14A
102
}
  0
BLOCK_RECORD
  5
153
330
1
100
AcDbSymbolTableRecord
100
AcDbBlockTableRecord
  2
AI9-BLK5
340
0
102
{BLKREFS
331
154
102
}
  0
BLOCK_RECORD
  5
166
330
1
100
AcDbSymbolTableRecord
100
AcDbBlockTableRecord
  2
AI9-BLK6
340
0
102
{BLKREFS
331
167
102
}
  0
BLOCK_RECORD
  5
16C
330
1
100
AcDbSymbolTableRecord
100
AcDbBlockTableRecord
  2
AI9-BLK7
340
0
102
{BLKREFS
331
16D
102
}
  0
BLOCK_RECORD
  5
17C
330
1
100
AcDbSymbolTableRecord
100
AcDbBlockTableRecord
  2
AI9-BLK8
340
0
102
{BLKREFS
331
17D
102
}
  0
BLOCK_RECORD
  5
186
330
1
100
AcDbSymbolTableRecord
100
AcDbBlockTableRecord
  2
AI9-BLK9
340
0
102
{BLKREFS
331
187
102
}
  0
BLOCK_RECORD
  5
196
330
1
100
AcDbSymbolTableRecord
100
AcDbBlockTableRecord
  2
AI9-BLK10
340
0
102
{BLKREFS
331
197
102
}
  0
BLOCK_RECORD
  5
1BB
330
1
100
AcDbSymbolTableRecord
100
AcDbBlockTableRecord
  2
AI9-BLK11
340
0
102
{BLKREFS
331
1BC
102
}
  0
BLOCK_RECORD
  5
1D7
330
1
100
AcDbSymbolTableRecord
100
AcDbBlockTableRecord
  2
AI9-BLK12
340
0
102
{BLKREFS
331
1D8
102
}
  0
BLOCK_RECORD
  5
2A3
330
1
100
AcDbSymbolTableRecord
100
AcDbBlockTableRecord
  2
GENAXEH
340
0
  0
ENDTAB
  0
ENDSEC
  0
SECTION
  2
BLOCKS
  0
BLOCK
  5
D
330
A
100
AcDbEntity
  8
0
100
AcDbBlockBegin
  2
*MODEL_SPACE
 70
     0
 10
0.0
 20
0.0
 30
0.0
  3
*MODEL_SPACE
  1

  0
ENDBLK
  5
E
330
A
100
AcDbEntity
  8
0
100
AcDbBlockEnd
  0
BLOCK
  5
F
330
B
100
AcDbEntity
 67
     1
  8
0
100
AcDbBlockBegin
  2
*PAPER_SPACE
 70
     0
 10
0.0
 20
0.0
 30
0.0
  3
*PAPER_SPACE
  1

  0
ENDBLK
  5
10
330
B
100
AcDbEntity
 67
     1
  8
0
100
AcDbBlockEnd
  0
BLOCK
  5
43
330
41
100
AcDbEntity
  8
0
 62
     7
100
AcDbBlockBegin
  2
AI9-BLK1
 70
     0
 10
0.0
 20
0.0
 30
0.0
  3
AI9-BLK1
  1

  0
LINE
  5
45
330
41
100
AcDbEntity
  8
LAYER_1
 62
     7
100
AcDbLine
 10
4.428412
 20
0.8262199999999999
 30
0.0
 11
4.428412
 21
-2.058186
 31
0.0
  0
LINE
  5
44
330
41
100
AcDbEntity
  8
LAYER_1
 62
     7
100
AcDbLine
 10
-4.428412
 20
2.058186
 30
0.0
 11
-4.428412
 21
-1.989972999999999
 31
0.0
  0
ENDBLK
  5
46
330
41
100
AcDbEntity
  8
0
100
AcDbBlockEnd
  0
BLOCK
  5
51
330
4F
100
AcDbEntity
  8
0
 62
     7
100
AcDbBlockBegin
  2
AI9-BLK2
 70
     0
 10
0.0
 20
0.0
 30
0.0
  3
AI9-BLK2
  1

  0
CIRCLE
  5
53
330
4F
100
AcDbEntity
  8
LAYER_1
 62
     7
100
AcDbCircle
 10
0.0
 20
1.186404999999999
 30
0.0
 40
0.227893
  0
CIRCLE
  5
52
330
4F
100
AcDbEntity
  8
LAYER_1
 62
     7
100
AcDbCircle
 10
0.0
 20
-1.186404999999999
 30
0.0
 40
0.227893
  0
ENDBLK
  5
54
330
4F
100
AcDbEntity
  8
0
100
AcDbBlockEnd
  0
BLOCK
  5
57
330
55
100
AcDbEntity
  8
0
 62
     7
100
AcDbBlockBegin
  2
AI9-BLK3
 70
     0
 10
0.0
 20
0.0
 30
0.0
  3
AI9-BLK3
  1

  0
POLYLINE
  5
5C
330
55
100
AcDbEntity
  8
LAYER_1
  6
AI9-LTYPE1
 62
     7
100
AcDb2dPolyline
 66
     1
 10
0.0
 20
0.0
 30
0.0
  0
VERTEX
  5
5D
330
5C
100
AcDbEntity
  8
LAYER_1
  6
AI9-LTYPE1
 62
     7
100
AcDbVertex
100
AcDb2dVertex
 10
4.468547
 20
-1.73383
 30
0.0
  0
VERTEX
  5
5E
330
5C
100
AcDbEntity
  8
LAYER_1
  6
AI9-LTYPE1
 62
     7
100
AcDbVertex
100
AcDb2dVertex
 10
-3.835510999999999
 20
-1.73383
 30
0.0
  0
VERTEX
  5
5F
330
5C
100
AcDbEntity
  8
LAYER_1
  6
AI9-LTYPE1
 62
     7
100
AcDbVertex
100
AcDb2dVertex
 10
-4.382937
 20
-1.209486999999999
 30
0.0
  0
VERTEX
  5
60
330
5C
100
AcDbEntity
  8
LAYER_1
  6
AI9-LTYPE1
 62
     7
100
AcDbVertex
100
AcDb2dVertex
 10
-4.382937
 20
1.186233
 30
0.0
  0
VERTEX
  5
61
330
5C
100
AcDbEntity
  8
LAYER_1
  6
AI9-LTYPE1
 62
     7
100
AcDbVertex
100
AcDb2dVertex
 10
-3.858248999999999
 20
1.73383
 30
0.0
  0
VERTEX
  5
62
330
5C
100
AcDbEntity
  8
LAYER_1
  6
AI9-LTYPE1
 62
     7
100
AcDbVertex
100
AcDb2dVertex
 10
4.468547
 20
1.73383
 30
0.0
  0
SEQEND
  5
63
330
5C
100
AcDbEntity
  8
LAYER_1
  6
AI9-LTYPE1
 62
     7
  0
CIRCLE
  5
5B
330
55
100
AcDbEntity
  8
LAYER_1
  6
AI9-LTYPE1
 62
     7
100
AcDbCircle
 10
-2.580462999999999
 20
-0.000086
 30
0.0
 40
0.8328520000000001
  0
CIRCLE
  5
5A
330
55
100
AcDbEntity
  8
LAYER_1
  6
AI9-LTYPE1
 62
     7
100
AcDbCircle
 10
3.487555999999999
 20
-0.000086
 30
0.0
 40
0.832507
  0
CIRCLE
  5
59
330
55
100
AcDbEntity
  8
LAYER_1
  6
AI9-LTYPE1
 62
     7
100
AcDbCircle
 10
0.407899
 20
0.05693
 30
0.0
 40
0.8325929999999999
  0
ENDBLK
  5
64
330
55
100
AcDbEntity
  8
0
100
AcDbBlockEnd
  0
BLOCK
  5
14B
330
149
100
AcDbEntity
  8
0
 62
     7
100
AcDbBlockBegin
  2
AI9-BLK4
 70
     0
 10
0.0
 20
0.0
 30
0.0
  3
AI9-BLK4
  1

  0
LINE
  5
151
330
149
100
AcDbEntity
  8
LAYER_1
 62
     7
100
AcDbLine
 10
-0.325131
 20
10.138572
 30
0.0
 11
8.65985
 21
10.138572
 31
0.0
  0
LINE
  5
150
330
149
100
AcDbEntity
  8
LAYER_1
 62
     7
100
AcDbLine
 10
-4.228251999999999
 20
2.739195
 30
0.0
 11
-8.822459
 21
2.739195
 31
0.0
  0
LINE
  5
14F
330
149
100
AcDbEntity
  8
LAYER_1
 62
     7
100
AcDbLine
 10
-4.146948
 20
-3.806830999999999
 30
0.0
 11
-8.65985
 21
-3.806830999999999
 31
0.0
  0
LINE
  5
14E
330
149
100
AcDbEntity
  8
LAYER_1
 62
     7
100
AcDbLine
 10
1.992212999999999
 20
-3.806830999999999
 30
0.0
 11
8.822459
 21
-3.806830999999999
 31
0.0
  0
LINE
  5
14D
330
149
100
AcDbEntity
  8
LAYER_1
 62
     7
100
AcDbLine
 10
-3.984338999999999
 20
-4.009746999999999
 30
0.0
 11
-3.984338999999999
 21
-10.189903
 31
0.0
  0
LINE
  5
14C
330
149
100
AcDbEntity
  8
LAYER_1
 62
     7
100
AcDbLine
 10
1.667168
 20
-4.009746999999999
 30
0.0
 11
1.667168
 21
-10.108599
 31
0.0
  0
ENDBLK
  5
152
330
149
100
AcDbEntity
  8
0
100
AcDbBlockEnd
  0
BLOCK
  5
155
330
153
100
AcDbEntity
  8
0
 62
     7
100
AcDbBlockBegin
  2
AI9-BLK5
 70
     0
 10
0.0
 20
0.0
 30
0.0
  3
AI9-BLK5
  1

  0
LINE
  5
157
330
153
100
AcDbEntity
  8
LAYER_1
 62
     7
100
AcDbLine
 10
-1.006226
 20
-0.645783
 30
0.0
 11
-1.006226
 21
0.645783
 31
0.0
  0
LINE
  5
156
330
153
100
AcDbEntity
  8
LAYER_1
 62
     7
100
AcDbLine
 10
1.006226
 20
-0.645783
 30
0.0
 11
1.006226
 21
0.645783
 31
0.0
  0
ENDBLK
  5
158
330
153
100
AcDbEntity
  8
0
100
AcDbBlockEnd
  0
BLOCK
  5
168
330
166
100
AcDbEntity
  8
0
 62
     7
100
AcDbBlockBegin
  2
AI9-BLK6
 70
     0
 10
0.0
 20
0.0
 30
0.0
  3
AI9-BLK6
  1

  0
SPLINE
  5
16A
330
166
100
AcDbEntity
  8
LAYER_1
 62
     7
100
AcDbSpline
210
0.0
220
0.0
230
1.0
 70
     8
 71
     3
 72
    17
 73
    13
 74
     0
 42
0.0000000001
 43
0.0000000001
 40
0.0
 40
0.0
 40
0.0
 40
0.0
 40
1.0
 40
1.0
 40
1.0
 40
2.0
 40
2.0
 40
2.0
 40
3.0
 40
3.0
 40
3.0
 40
4.0
 40
4.0
 40
4.0
 40
4.0
 10
-0.8233778211805555
 20
-3.778236219618055
 30
0.0
 10
-0.8233778211805555
 20
-3.778236219618055
 30
0.0
 10
-0.8233778211805555
 20
2.900081380208332
 30
0.0
 10
-0.8233778211805555
 20
2.900081380208332
 30
0.0
 10
-0.8233778211805555
 20
3.354489474826388
 30
0.0
 10
-0.4547526041666666
 20
3.723114691840276
 30
0.0
 10
0.0
 20
3.723114691840276
 30
0.0
 10
0.4547526041666666
 20
3.723114691840276
 30
0.0
 10
0.8233778211805555
 20
3.354489474826388
 30
0.0
 10
0.8233778211805555
 20
2.900081380208332
 30
0.0
 10
0.8233778211805555
 20
2.900081380208332
 30
0.0
 10
0.8233778211805555
 20
-3.808553059895833
 30
0.0
 10
0.8233778211805555
 20
-3.808553059895833
 30
0.0
  0
CIRCLE
  5
169
330
166
100
AcDbEntity
  8
LAYER_1
 62
     7
100
AcDbCircle
 10
-0.000086
 20
2.030539
 30
0.0
 40
0.411775
  0
ENDBLK
  5
16B
330
166
100
AcDbEntity
  8
0
100
AcDbBlockEnd
  0
BLOCK
  5
16E
330
16C
100
AcDbEntity
  8
0
 62
     7
100
AcDbBlockBegin
  2
AI9-BLK7
 70
     0
 10
0.0
 20
0.0
 30
0.0
  3
AI9-BLK7
  1

  0
LINE
  5
17A
330
16C
100
AcDbEntity
  8
LAYER_1
 62
     7
100
AcDbLine
 10
-16.435173
 20
0.709517
 30
0.0
 11
-21.954905
 21
0.709517
 31
0.0
  0
LINE
  5
179
330
16C
100
AcDbEntity
  8
LAYER_1
 62
     7
100
AcDbLine
 10
-16.282899
 20
-3.407026999999999
 30
0.0
 11
-21.893754
 21
-3.407026999999999
 31
0.0
  0
LINE
  5
178
330
16C
100
AcDbEntity
  8
LAYER_1
 62
     7
100
AcDbLine
 10
-14.240302
 20
-2.705605999999999
 30
0.0
 11
-14.240302
 21
-11.018621
 31
0.0
  0
LINE
  5
177
330
16C
100
AcDbEntity
  8
LAYER_1
 62
     7
100
AcDbLine
 10
-16.099965
 20
2.233972
 30
0.0
 11
-16.099965
 21
11.155391
 31
0.0
  0
LINE
  5
176
330
16C
100
AcDbEntity
  8
LAYER_1
 62
     7
100
AcDbLine
 10
7.043841999999999
 20
2.233972
 30
0.0
 11
7.043841999999999
 21
11.018621
 31
0.0
  0
LINE
  5
175
330
16C
100
AcDbEntity
  8
LAYER_1
 62
     7
100
AcDbLine
 10
5.847705
 20
1.237651
 30
0.0
 11
13.440351
 21
1.237651
 31
0.0
  0
LINE
  5
174
330
16C
100
AcDbEntity
  8
LAYER_1
 62
     7
100
AcDbLine
 10
5.909028
 20
0.273713
 30
0.0
 11
13.502018
 21
0.273713
 31
0.0
  0
LINE
  5
173
330
16C
100
AcDbEntity
  8
LAYER_1
 62
     7
100
AcDbLine
 10
14.362259
 20
-0.5713689999999999
 30
0.0
 11
21.954905
 21
-0.5713689999999999
 31
0.0
  0
LINE
  5
172
330
16C
100
AcDbEntity
  8
LAYER_1
 62
     7
100
AcDbLine
 10
14.362259
 20
-1.089511
 30
0.0
 11
17.116268
 21
-1.089511
 31
0.0
  0
LINE
  5
171
330
16C
100
AcDbEntity
  8
LAYER_1
 62
     7
100
AcDbLine
 10
7.501350999999999
 20
-4.535295999999999
 30
0.0
 11
21.83846
 21
-4.535295999999999
 31
0.0
  0
LINE
  5
170
330
16C
100
AcDbEntity
  8
LAYER_1
 62
     7
100
AcDbLine
 10
5.207262
 20
-2.592950999999999
 30
0.0
 11
5.207262
 21
-11.155391
 31
0.0
  0
LINE
  5
16F
330
16C
100
AcDbEntity
  8
LAYER_1
 62
     7
100
AcDbLine
 10
4.794539
 20
-2.745224
 30
0.0
 11
4.794539
 21
-7.938705999999999
 31
0.0
  0
ENDBLK
  5
17B
330
16C
100
AcDbEntity
  8
0
100
AcDbBlockEnd
  0
BLOCK
  5
17E
330
17C
100
AcDbEntity
  8
0
 62
     7
100
AcDbBlockBegin
  2
AI9-BLK8
 70
     0
 10
0.0
 20
0.0
 30
0.0
  3
AI9-BLK8
  1

  0
LINE
  5
184
330
17C
100
AcDbEntity
  8
LAYER_1
 62
     7
100
AcDbLine
 10
-11.56708
 20
2.083076999999999
 30
0.0
 11
11.56708
 21
2.083076999999999
 31
0.0
  0
SPLINE
  5
183
330
17C
100
AcDbEntity
  8
LAYER_1
 62
     7
100
AcDbSpline
210
0.0
220
0.0
230
1.0
 70
     9
 71
     3
 72
    23
 73
    19
 74
     0
 42
0.0000000001
 43
0.0000000001
 40
0.0
 40
0.0
 40
0.0
 40
0.0
 40
1.0
 40
1.0
 40
1.0
 40
2.0
 40
2.0
 40
2.0
 40
3.0
 40
3.0
 40
3.0
 40
4.0
 40
4.0
 40
4.0
 40
5.0
 40
5.0
 40
5.0
 40
6.0
 40
6.0
 40
6.0
 40
6.0
 10
-9.774941677517359
 20
1.606964789496527
 30
0.0
 10
-10.04124755859375
 20
1.606964789496527
 30
0.0
 10
-10.25725504557291
 20
1.822283257378471
 30
0.0
 10
-10.25725504557291
 20
2.088933648003472
 30
0.0
 10
-10.25725504557291
 20
2.35523952907986
 30
0.0
 10
-10.04124755859375
 20
2.570902506510416
 30
0.0
 10
-9.774941677517359
 20
2.570902506510416
 30
0.0
 10
-9.774941677517359
 20
2.570902506510416
 30
0.0
 10
-9.362219238281248
 20
2.570902506510416
 30
0.0
 10
-9.362219238281248
 20
2.570902506510416
 30
0.0
 10
-9.09591335720486
 20
2.570902506510416
 30
0.0
 10
-8.879905870225693
 20
2.35523952907986
 30
0.0
 10
-8.879905870225693
 20
2.088933648003472
 30
0.0
 10
-8.879905870225693
 20
1.822283257378471
 30
0.0
 10
-9.09591335720486
 20
1.606964789496527
 30
0.0
 10
-9.362219238281248
 20
1.606964789496527
 30
0.0
 10
-9.362219238281248
 20
1.606964789496527
 30
0.0
 10
-9.774941677517359
 20
1.606964789496527
 30
0.0
 10
-9.774941677517359
 20
1.606964789496527
 30
0.0
  0
SPLINE
  5
182
330
17C
100
AcDbEntity
  8
LAYER_1
 62
     7
100
AcDbSpline
210
0.0
220
0.0
230
1.0
 70
     9
 71
     3
 72
    23
 73
    19
 74
     0
 42
0.0000000001
 43
0.0000000001
 40
0.0
 40
0.0
 40
0.0
 40
0.0
 40
1.0
 40
1.0
 40
1.0
 40
2.0
 40
2.0
 40
2.0
 40
3.0
 40
3.0
 40
3.0
 40
4.0
 40
4.0
 40
4.0
 40
5.0
 40
5.0
 40
5.0
 40
6.0
 40
6.0
 40
6.0
 40
6.0
 10
9.286771647135415
 20
1.606964789496527
 30
0.0
 10
9.020465766059027
 20
1.606964789496527
 30
0.0
 10
8.80445827907986
 20
1.822283257378471
 30
0.0
 10
8.80445827907986
 20
2.088933648003472
 30
0.0
 10
8.80445827907986
 20
2.35523952907986
 30
0.0
 10
9.020465766059027
 20
2.570902506510416
 30
0.0
 10
9.286771647135415
 20
2.570902506510416
 30
0.0
 10
9.286771647135415
 20
2.570902506510416
 30
0.0
 10
9.699494086371526
 20
2.570902506510416
 30
0.0
 10
9.699494086371526
 20
2.570902506510416
 30
0.0
 10
9.966144476996527
 20
2.570902506510416
 30
0.0
 10
10.18180745442708
 20
2.35523952907986
 30
0.0
 10
10.18180745442708
 20
2.088933648003472
 30
0.0
 10
10.18180745442708
 20
1.822283257378471
 30
0.0
 10
9.966144476996527
 20
1.606964789496527
 30
0.0
 10
9.699494086371526
 20
1.606964789496527
 30
0.0
 10
9.699494086371526
 20
1.606964789496527
 30
0.0
 10
9.286771647135415
 20
1.606964789496527
 30
0.0
 10
9.286771647135415
 20
1.606964789496527
 30
0.0
  0
LINE
  5
181
330
17C
100
AcDbEntity
  8
LAYER_1
 62
     7
100
AcDbLine
 10
-11.56708
 20
-2.094100999999999
 30
0.0
 11
11.56708
 21
-2.094100999999999
 31
0.0
  0
SPLINE
  5
180
330
17C
100
AcDbEntity
  8
LAYER_1
 62
     7
100
AcDbSpline
210
0.0
220
0.0
230
1.0
 70
     9
 71
     3
 72
    23
 73
    19
 74
     0
 42
0.0000000001
 43
0.0000000001
 40
0.0
 40
0.0
 40
0.0
 40
0.0
 40
1.0
 40
1.0
 40
1.0
 40
2.0
 40
2.0
 40
2.0
 40
3.0
 40
3.0
 40
3.0
 40
4.0
 40
4.0
 40
4.0
 40
5.0
 40
5.0
 40
5.0
 40
6.0
 40
6.0
 40
6.0
 40
6.0
 10
-9.774941677517359
 20
-2.570902506510416
 30
0.0
 10
-10.04124755859375
 20
-2.570902506510416
 30
0.0
 10
-10.25725504557291
 20
-2.354895019531249
 30
0.0
 10
-10.25725504557291
 20
-2.08858913845486
 30
0.0
 10
-10.25725504557291
 20
-1.822627766927083
 30
0.0
 10
-10.04124755859375
 20
-1.606275770399305
 30
0.0
 10
-9.774941677517359
 20
-1.606275770399305
 30
0.0
 10
-9.774941677517359
 20
-1.606275770399305
 30
0.0
 10
-9.362219238281248
 20
-1.606275770399305
 30
0.0
 10
-9.362219238281248
 20
-1.606275770399305
 30
0.0
 10
-9.09591335720486
 20
-1.606275770399305
 30
0.0
 10
-8.879905870225693
 20
-1.822627766927083
 30
0.0
 10
-8.879905870225693
 20
-2.08858913845486
 30
0.0
 10
-8.879905870225693
 20
-2.354895019531249
 30
0.0
 10
-9.09591335720486
 20
-2.570902506510416
 30
0.0
 10
-9.362219238281248
 20
-2.570902506510416
 30
0.0
 10
-9.362219238281248
 20
-2.570902506510416
 30
0.0
 10
-9.774941677517359
 20
-2.570902506510416
 30
0.0
 10
-9.774941677517359
 20
-2.570902506510416
 30
0.0
  0
SPLINE
  5
17F
330
17C
100
AcDbEntity
  8
LAYER_1
 62
     7
100
AcDbSpline
210
0.0
220
0.0
230
1.0
 70
     9
 71
     3
 72
    23
 73
    19
 74
     0
 42
0.0000000001
 43
0.0000000001
 40
0.0
 40
0.0
 40
0.0
 40
0.0
 40
1.0
 40
1.0
 40
1.0
 40
2.0
 40
2.0
 40
2.0
 40
3.0
 40
3.0
 40
3.0
 40
4.0
 40
4.0
 40
4.0
 40
5.0
 40
5.0
 40
5.0
 40
6.0
 40
6.0
 40
6.0
 40
6.0
 10
9.286771647135415
 20
-2.570902506510416
 30
0.0
 10
9.020465766059027
 20
-2.570902506510416
 30
0.0
 10
8.80445827907986
 20
-2.354895019531249
 30
0.0
 10
8.80445827907986
 20
-2.08858913845486
 30
0.0
 10
8.80445827907986
 20
-1.822627766927083
 30
0.0
 10
9.020465766059027
 20
-1.606275770399305
 30
0.0
 10
9.286771647135415
 20
-1.606275770399305
 30
0.0
 10
9.286771647135415
 20
-1.606275770399305
 30
0.0
 10
9.699494086371526
 20
-1.606275770399305
 30
0.0
 10
9.699494086371526
 20
-1.606275770399305
 30
0.0
 10
9.966144476996527
 20
-1.606275770399305
 30
0.0
 10
10.18180745442708
 20
-1.822627766927083
 30
0.0
 10
10.18180745442708
 20
-2.08858913845486
 30
0.0
 10
10.18180745442708
 20
-2.354895019531249
 30
0.0
 10
9.966144476996527
 20
-2.570902506510416
 30
0.0
 10
9.699494086371526
 20
-2.570902506510416
 30
0.0
 10
9.699494086371526
 20
-2.570902506510416
 30
0.0
 10
9.286771647135415
 20
-2.570902506510416
 30
0.0
 10
9.286771647135415
 20
-2.570902506510416
 30
0.0
  0
ENDBLK
  5
185
330
17C
100
AcDbEntity
  8
0
100
AcDbBlockEnd
  0
BLOCK
  5
188
330
186
100
AcDbEntity
  8
0
 62
     7
100
AcDbBlockBegin
  2
AI9-BLK9
 70
     0
 10
0.0
 20
0.0
 30
0.0
  3
AI9-BLK9
  1

  0
LINE
  5
194
330
186
100
AcDbEntity
  8
LAYER_1
 62
     7
100
AcDbLine
 10
19.484082
 20
-2.536020999999999
 30
0.0
 11
19.484082
 21
-8.288125
 31
0.0
  0
LINE
  5
193
330
186
100
AcDbEntity
  8
LAYER_1
 62
     7
100
AcDbLine
 10
12.16601
 20
-4.121453999999999
 30
0.0
 11
12.16601
 21
-8.151010000000001
 31
0.0
  0
LINE
  5
192
330
186
100
AcDbEntity
  8
LAYER_1
 62
     7
100
AcDbLine
 10
12.226644
 20
8.547885
 30
0.0
 11
12.226644
 21
2.058358
 31
0.0
  0
LINE
  5
191
330
186
100
AcDbEntity
  8
LAYER_1
 62
     7
100
AcDbLine
 10
8.913496
 20
-1.560024999999999
 30
0.0
 11
8.913496
 21
-8.151010000000001
 31
0.0
  0
LINE
  5
190
330
186
100
AcDbEntity
  8
LAYER_1
 62
     7
100
AcDbLine
 10
8.913496
 20
8.486907
 30
0.0
 11
8.913496
 21
0.02558
 31
0.0
  0
LINE
  5
18F
330
186
100
AcDbEntity
  8
LAYER_1
 62
     7
100
AcDbLine
 10
4.755954
 20
5.673296999999999
 30
0.0
 11
4.755954
 21
-0.828287
 31
0.0
  0
LINE
  5
18E
330
186
100
AcDbEntity
  8
LAYER_1
 62
     7
100
AcDbLine
 10
-3.552926999999999
 20
5.673296999999999
 30
0.0
 11
-3.552926999999999
 21
-0.828287
 31
0.0
  0
LINE
  5
18D
330
186
100
AcDbEntity
  8
LAYER_1
 62
     7
100
AcDbLine
 10
-7.674983999999999
 20
-1.763458
 30
0.0
 11
-7.674983999999999
 21
-8.547885
 31
0.0
  0
LINE
  5
18C
330
186
100
AcDbEntity
  8
LAYER_1
 62
     7
100
AcDbLine
 10
-20.750844
 20
0.879447
 30
0.0
 11
-24.501002
 21
0.879447
 31
0.0
  0
LINE
  5
18B
330
186
100
AcDbEntity
  8
LAYER_1
 62
     7
100
AcDbLine
 10
-20.750844
 20
-2.475042999999999
 30
0.0
 11
-24.569387
 21
-2.475042999999999
 31
0.0
  0
LINE
  5
18A
330
186
100
AcDbEntity
  8
LAYER_1
 62
     7
100
AcDbLine
 10
19.67873
 20
0.597638
 30
0.0
 11
24.501175
 21
0.597638
 31
0.0
  0
LINE
  5
189
330
186
100
AcDbEntity
  8
LAYER_1
 62
     7
100
AcDbLine
 10
19.562975
 20
-2.254557
 30
0.0
 11
24.569387
 21
-2.254557
 31
0.0
  0
ENDBLK
  5
195
330
186
100
AcDbEntity
  8
0
100
AcDbBlockEnd
  0
BLOCK
  5
198
330
196
100
AcDbEntity
  8
0
 62
     7
100
AcDbBlockBegin
  2
AI9-BLK10
 70
     0
 10
0.0
 20
0.0
 30
0.0
  3
AI9-BLK10
  1

  0
LINE
  5
1A7
330
196
100
AcDbEntity
  8
LAYER_1
 62
     7
100
AcDbLine
 10
11.648385
 20
1.677159
 30
0.0
 11
-11.647696
 21
1.677159
 31
0.0
  0
CIRCLE
  5
1A6
330
196
100
AcDbEntity
  8
LAYER_1
 62
     7
100
AcDbCircle
 10
8.375887999999999
 20
1.697484999999999
 30
0.0
 40
0.325217
  0
CIRCLE
  5
1A5
330
196
100
AcDbEntity
  8
LAYER_1
 62
     7
100
AcDbCircle
 10
-8.212590999999999
 20
1.677159
 30
0.0
 40
0.325217
  0
CIRCLE
  5
1A4
330
196
100
AcDbEntity
  8
LAYER_1
 62
     7
100
AcDbCircle
 10
4.218347
 20
-0.030575
 30
0.0
 40
0.884356
  0
CIRCLE
  5
1A3
330
196
100
AcDbEntity
  8
LAYER_1
 62
     7
100
AcDbCircle
 10
-4.090533999999999
 20
-0.030575
 30
0.0
 40
0.884356
  0
SPLINE
  5
1A2
330
196
100
AcDbEntity
  8
LAYER_1
 62
     7
100
AcDbSpline
210
0.0
220
0.0
230
1.0
 70
     9
 71
     3
 72
    23
 73
    19
 74
     0
 42
0.0000000001
 43
0.0000000001
 40
0.0
 40
0.0
 40
0.0
 40
0.0
 40
1.0
 40
1.0
 40
1.0
 40
2.0
 40
2.0
 40
2.0
 40
3.0
 40
3.0
 40
3.0
 40
4.0
 40
4.0
 40
4.0
 40
5.0
 40
5.0
 40
5.0
 40
6.0
 40
6.0
 40
6.0
 40
6.0
 10
4.218347167968749
 20
0.8537807888454858
 30
0.0
 10
4.706861707899305
 20
0.8537807888454858
 30
0.0
 10
5.103047688802083
 20
0.4577670627170138
 30
0.0
 10
5.103047688802083
 20
-0.0305752224392361
 30
0.0
 10
5.103047688802083
 20
-0.5189175075954861
 30
0.0
 10
4.706861707899305
 20
-0.9149312337239582
 30
0.0
 10
4.218347167968749
 20
-0.9149312337239582
 30
0.0
 10
4.218347167968749
 20
-0.9149312337239582
 30
0.0
 10
-4.090534125434028
 20
-0.9149312337239582
 30
0.0
 10
-4.090534125434028
 20
-0.9149312337239582
 30
0.0
 10
-4.579048665364583
 20
-0.9149312337239582
 30
0.0
 10
-4.974545627170138
 20
-0.5189175075954861
 30
0.0
 10
-4.974545627170138
 20
-0.0305752224392361
 30
0.0
 10
-4.974545627170138
 20
0.4577670627170138
 30
0.0
 10
-4.579048665364583
 20
0.8537807888454858
 30
0.0
 10
-4.090534125434028
 20
0.8537807888454858
 30
0.0
 10
-4.090534125434028
 20
0.8537807888454858
 30
0.0
 10
4.218347167968749
 20
0.8537807888454858
 30
0.0
 10
4.218347167968749
 20
0.8537807888454858
 30
0.0
  0
LINE
  5
1A1
330
196
100
AcDbEntity
  8
LAYER_1
 62
     7
100
AcDbLine
 10
-3.328133999999999
 20
0.380941
 30
0.0
 11
-4.883251
 21
0.380941
 31
0.0
  0
LINE
  5
1A0
330
196
100
AcDbEntity
  8
LAYER_1
 62
     7
100
AcDbLine
 10
-3.328133999999999
 20
-0.457423
 30
0.0
 11
-4.883251
 21
-0.457423
 31
0.0
  0
CIRCLE
  5
19F
330
196
100
AcDbEntity
  8
LAYER_1
 62
     7
100
AcDbCircle
 10
-5.783453999999999
 20
-1.052132
 30
0.0
 40
0.518573
  0
CIRCLE
  5
19E
330
196
100
AcDbEntity
  8
LAYER_1
 62
     7
100
AcDbCircle
 10
-5.783453999999999
 20
-1.052045999999999
 30
0.0
 40
0.320394
  0
LINE
  5
19D
330
196
100
AcDbEntity
  8
LAYER_1
 62
     7
100
AcDbLine
 10
11.648385
 20
-1.697484999999999
 30
0.0
 11
-11.648385
 21
-1.697484999999999
 31
0.0
  0
CIRCLE
  5
19C
330
196
100
AcDbEntity
  8
LAYER_1
 62
     7
100
AcDbCircle
 10
8.375887999999999
 20
-1.677159
 30
0.0
 40
0.325045
  0
CIRCLE
  5
19B
330
196
100
AcDbEntity
  8
LAYER_1
 62
     7
100
AcDbCircle
 10
-8.212590999999999
 20
-1.697570999999999
 30
0.0
 40
0.325131
  0
SPLINE
  5
19A
330
196
100
AcDbEntity
  8
LAYER_1
 62
     7
100
AcDbSpline
210
0.0
220
0.0
230
1.0
 70
     8
 71
     3
 72
    11
 73
     7
 74
     0
 42
0.0000000001
 43
0.0000000001
 40
0.0
 40
0.0
 40
0.0
 40
0.0
 40
1.0
 40
1.0
 40
1.0
 40
2.0
 40
2.0
 40
2.0
 40
2.0
 10
2.821705457899305
 20
0.836727566189236
 30
0.0
 10
2.757626681857638
 20
0.7631747775607638
 30
0.0
 10
2.663920084635416
 20
0.7166659884982638
 30
0.0
 10
2.558844672309028
 20
0.7166659884982638
 30
0.0
 10
2.437921820746527
 20
0.7166659884982638
 30
0.0
 10
2.331812879774304
 20
0.7783331976996527
 30
0.0
 10
2.269456651475694
 20
0.8720397949218748
 30
0.0
  0
SPLINE
  5
199
330
196
100
AcDbEntity
  8
LAYER_1
 62
     7
100
AcDbSpline
210
0.0
220
0.0
230
1.0
 70
     8
 71
     3
 72
    11
 73
     7
 74
     0
 42
0.0000000001
 43
0.0000000001
 40
0.0
 40
0.0
 40
0.0
 40
0.0
 40
1.0
 40
1.0
 40
1.0
 40
2.0
 40
2.0
 40
2.0
 40
2.0
 10
2.821705457899305
 20
-0.8660108778211805
 30
0.0
 10
2.757626681857638
 20
-0.7921135796440972
 30
0.0
 10
2.663920084635416
 20
-0.7457770453559027
 30
0.0
 10
2.558844672309028
 20
-0.7457770453559027
 30
0.0
 10
2.437921820746527
 20
-0.7457770453559027
 30
0.0
 10
2.331812879774304
 20
-0.8074442545572916
 30
0.0
 10
2.269456651475694
 20
-0.9011508517795137
 30
0.0
  0
ENDBLK
  5
1A8
330
196
100
AcDbEntity
  8
0
100
AcDbBlockEnd
  0
BLOCK
  5
1BD
330
1BB
100
AcDbEntity
  8
0
 62
     7
100
AcDbBlockBegin
  2
AI9-BLK11
 70
     0
 10
0.0
 20
0.0
 30
0.0
  3
AI9-BLK11
  1

  0
POLYLINE
  5
1C4
330
1BB
100
AcDbEntity
  8
LAYER_1
 62
     7
100
AcDb2dPolyline
 66
     1
 10
0.0
 20
0.0
 30
0.0
 70
     1
  0
VERTEX
  5
1C5
330
1C4
100
AcDbEntity
  8
LAYER_1
 62
     7
100
AcDbVertex
100
AcDb2dVertex
 10
-0.321083
 20
1.230329999999999
 30
0.0
  0
VERTEX
  5
1C6
330
1C4
100
AcDbEntity
  8
LAYER_1
 62
     7
100
AcDbVertex
100
AcDb2dVertex
 10
0.321083
 20
1.230329999999999
 30
0.0
  0
VERTEX
  5
1C7
330
1C4
100
AcDbEntity
  8
LAYER_1
 62
     7
100
AcDbVertex
100
AcDb2dVertex
 10
0.321083
 20
0.352692
 30
0.0
  0
VERTEX
  5
1C8
330
1C4
100
AcDbEntity
  8
LAYER_1
 62
     7
100
AcDbVertex
100
AcDb2dVertex
 10
-0.321083
 20
0.352692
 30
0.0
  0
SEQEND
  5
1C9
330
1C4
100
AcDbEntity
  8
LAYER_1
 62
     7
  0
POLYLINE
  5
1BE
330
1BB
100
AcDbEntity
  8
LAYER_1
 62
     7
100
AcDb2dPolyline
 66
     1
 10
0.0
 20
0.0
 30
0.0
 70
     1
  0
VERTEX
  5
1BF
330
1BE
100
AcDbEntity
  8
LAYER_1
 62
     7
100
AcDbVertex
100
AcDb2dVertex
 10
-0.321083
 20
-0.352519
 30
0.0
  0
VERTEX
  5
1C0
330
1BE
100
AcDbEntity
  8
LAYER_1
 62
     7
100
AcDbVertex
100
AcDb2dVertex
 10
0.321083
 20
-0.352519
 30
0.0
  0
VERTEX
  5
1C1
330
1BE
100
AcDbEntity
  8
LAYER_1
 62
     7
100
AcDbVertex
100
AcDb2dVertex
 10
0.321083
 20
-1.230329999999999
 30
0.0
  0
VERTEX
  5
1C2
330
1BE
100
AcDbEntity
  8
LAYER_1
 62
     7
100
AcDbVertex
100
AcDb2dVertex
 10
-0.321083
 20
-1.230329999999999
 30
0.0
  0
SEQEND
  5
1C3
330
1BE
100
AcDbEntity
  8
LAYER_1
 62
     7
  0
ENDBLK
  5
1CA
330
1BB
100
AcDbEntity
  8
0
100
AcDbBlockEnd
  0
BLOCK
  5
1D9
330
1D7
100
AcDbEntity
  8
0
 62
     7
100
AcDbBlockBegin
  2
AI9-BLK12
 70
     0
 10
0.0
 20
0.0
 30
0.0
  3
AI9-BLK12
  1

  0
SPLINE
  5
1E0
330
1D7
100
AcDbEntity
  8
LAYER_1
 62
     7
100
AcDbSpline
210
0.0
220
0.0
230
1.0
 70
     9
 71
     3
 72
    38
 73
    34
 74
     0
 42
0.0000000001
 43
0.0000000001
 40
0.0
 40
0.0
 40
0.0
 40
0.0
 40
1.0
 40
1.0
 40
1.0
 40
2.0
 40
2.0
 40
2.0
 40
3.0
 40
3.0
 40
3.0
 40
4.0
 40
4.0
 40
4.0
 40
5.0
 40
5.0
 40
5.0
 40
6.0
 40
6.0
 40
6.0
 40
7.0
 40
7.0
 40
7.0
 40
8.0
 40
8.0
 40
8.0
 40
9.0
 40
9.0
 40
9.0
 40
10.0
 40
10.0
 40
10.0
 40
11.0
 40
11.0
 40
11.0
 40
11.0
 10
-2.866147189670138
 20
3.949112955729166
 30
0.0
 10
-2.866147189670138
 20
4.062801106770833
 30
0.0
 10
-2.819293891059027
 20
4.165464952256944
 30
0.0
 10
-2.743846299913194
 20
4.239189995659721
 30
0.0
 10
-2.743846299913194
 20
4.239189995659721
 30
0.0
 10
-2.743846299913194
 20
4.762155490451388
 30
0.0
 10
-2.743846299913194
 20
4.762155490451388
 30
0.0
 10
-2.743846299913194
 20
5.233444552951388
 30
0.0
 10
-3.126596408420138
 20
5.615850151909721
 30
0.0
 10
-3.598229980468749
 20
5.615850151909721
 30
0.0
 10
-4.06951904296875
 20
5.615850151909721
 30
0.0
 10
-4.452269151475695
 20
5.233444552951388
 30
0.0
 10
-4.452269151475695
 20
4.762155490451388
 30
0.0
 10
-4.452269151475695
 20
4.762155490451388
 30
0.0
 10
-4.452269151475695
 20
4.239189995659721
 30
0.0
 10
-4.452269151475695
 20
4.239189995659721
 30
0.0
 10
-4.376477050781249
 20
4.165464952256944
 30
0.0
 10
-4.329623752170137
 20
4.062801106770833
 30
0.0
 10
-4.329623752170137
 20
3.949112955729166
 30
0.0
 10
-4.329623752170137
 20
3.835769314236111
 30
0.0
 10
-4.376477050781249
 20
3.732760959201388
 30
0.0
 10
-4.452269151475695
 20
3.659380425347221
 30
0.0
 10
-4.452269151475695
 20
3.659380425347221
 30
0.0
 10
-4.452269151475695
 20
-2.06843532986111
 30
0.0
 10
-4.452269151475695
 20
-2.06843532986111
 30
0.0
 10
-4.452269151475695
 20
-2.06843532986111
 30
0.0
 10
-2.743846299913194
 20
-2.149395073784722
 30
0.0
 10
-2.743846299913194
 20
-2.149395073784722
 30
0.0
 10
-2.743846299913194
 20
-2.149395073784722
 30
0.0
 10
-2.743846299913194
 20
3.659380425347221
 30
0.0
 10
-2.743846299913194
 20
3.659380425347221
 30
0.0
 10
-2.819293891059027
 20
3.732760959201388
 30
0.0
 10
-2.866147189670138
 20
3.835769314236111
 30
0.0
 10
-2.866147189670138
 20
3.949112955729166
 30
0.0
  0
POLYLINE
  5
1DA
330
1D7
100
AcDbEntity
  8
LAYER_1
 62
     7
100
AcDb2dPolyline
 66
     1
 10
0.0
 20
0.0
 30
0.0
 70
     1
  0
VERTEX
  5
1DB
330
1DA
100
AcDbEntity
  8
LAYER_1
 62
     7
100
AcDbVertex
100
AcDb2dVertex
 10
3.445612
 20
-5.615505999999999
 30
0.0
  0
VERTEX
  5
1DC
330
1DA
100
AcDbEntity
  8
LAYER_1
 62
     7
100
AcDbVertex
100
AcDb2dVertex
 10
4.452269
 20
-5.615505999999999
 30
0.0
  0
VERTEX
  5
1DD
330
1DA
100
AcDbEntity
  8
LAYER_1
 62
     7
100
AcDbVertex
100
AcDb2dVertex
 10
4.452269
 20
-4.761466
 30
0.0
  0
VERTEX
  5
1DE
330
1DA
100
AcDbEntity
  8
LAYER_1
 62
     7
100
AcDbVertex
100
AcDb2dVertex
 10
3.445612
 20
-4.761466
 30
0.0
  0
SEQEND
  5
1DF
330
1DA
100
AcDbEntity
  8
LAYER_1
 62
     7
  0
ENDBLK
  5
1E1
330
1D7
100
AcDbEntity
  8
0
100
AcDbBlockEnd
  0
BLOCK
  5
2A5
330
2A3
100
AcDbEntity
  8
0
100
AcDbBlockBegin
  2
GENAXEH
 70
     0
 10
0.0
 20
0.0
 30
0.0
  3
GENAXEH
  1

  0
LINE
  5
2A4
330
2A3
100
AcDbEntity
  8
0
100
AcDbLine
 10
-1.0
 20
0.0
 30
0.0
 11
1.0
 21
0.0
 31
0.0
  0
ENDBLK
  5
2A6
330
2A3
100
AcDbEntity
  8
0
100
AcDbBlockEnd
  0
ENDSEC
  0
SECTION
  2
ENTITIES
  0
MTEXT
  5
1EF
330
A
100
AcDbEntity
  8
LAYER_1
 62
     7
100
AcDbMText
 10
72.49583299999999
 20
136.202654
 30
0.0
 40
1.837383999999999
 41
0.0
 71
     1
 72
     2
  1
\fGill Sans|b0|i0;40
  7
STD
 73
     1
 44
1.0
1001
ACAD
1000
MTEXTBEGIN
1070
    73
1070
     1
1070
    44
1040
1.0
1070
    74
1070
     0
1000
MTEXTEND
  0
POLYLINE
  5
1E9
330
A
100
AcDbEntity
  8
LAYER_1
 62
     7
100
AcDb2dPolyline
 66
     1
 10
0.0
 20
0.0
 30
0.0
  0
VERTEX
  5
1EA
330
1E9
100
AcDbEntity
  8
LAYER_1
 62
     7
100
AcDbVertex
100
AcDb2dVertex
 10
83.19337199999999
 20
126.920074
 30
0.0
  0
VERTEX
  5
1EB
330
1E9
100
AcDbEntity
  8
LAYER_1
 62
     7
100
AcDbVertex
100
AcDb2dVertex
 10
84.13095400000001
 20
127.171221
 30
0.0
  0
VERTEX
  5
1EC
330
1E9
100
AcDbEntity
  8
LAYER_1
 62
     7
100
AcDbVertex
100
AcDb2dVertex
 10
83.19337199999999
 20
127.422369
 30
0.0
  0
VERTEX
  5
1ED
330
1E9
100
AcDbEntity
  8
LAYER_1
 62
     7
100
AcDbVertex
100
AcDb2dVertex
 10
83.19337199999999
 20
126.920074
 30
0.0
  0
SEQEND
  5
1EE
330
1E9
100
AcDbEntity
  8
LAYER_1
 62
     7
  0
POLYLINE
  5
1E3
330
A
100
AcDbEntity
  8
LAYER_1
 62
     7
100
AcDb2dPolyline
 66
     1
 10
0.0
 20
0.0
 30
0.0
  0
VERTEX
  5
1E4
330
1E3
100
AcDbEntity
  8
LAYER_1
 62
     7
100
AcDbVertex
100
AcDb2dVertex
 10
79.62631999999999
 20
127.416168
 30
0.0
  0
VERTEX
  5
1E5
330
1E3
100
AcDbEntity
  8
LAYER_1
 62
     7
100
AcDbVertex
100
AcDb2dVertex
 10
78.689081
 20
127.16502
 30
0.0
  0
VERTEX
  5
1E6
330
1E3
100
AcDbEntity
  8
LAYER_1
 62
     7
100
AcDbVertex
100
AcDb2dVertex
 10
79.62631999999999
 20
126.913873
 30
0.0
  0
VERTEX
  5
1E7
330
1E3
100
AcDbEntity
  8
LAYER_1
 62
     7
100
AcDbVertex
100
AcDb2dVertex
 10
79.62631999999999
 20
127.416168
 30
0.0
  0
SEQEND
  5
1E8
330
1E3
100
AcDbEntity
  8
LAYER_1
 62
     7
  0
LINE
  5
1E2
330
A
100
AcDbEntity
  8
LAYER_1
 62
     7
100
AcDbLine
 10
79.063908
 20
127.168121
 30
0.0
 11
83.90030499999999
 21
127.168121
 31
0.0
  0
INSERT
  5
1D8
330
A
100
AcDbEntity
  8
LAYER_1
 62
     7
100
AcDbBlockReference
  2
AI9-BLK12
 10
119.586671
 20
140.243981
 30
0.0
  0
POLYLINE
  5
1D1
330
A
100
AcDbEntity
  8
LAYER_1
 62
     7
100
AcDb2dPolyline
 66
     1
 10
0.0
 20
0.0
 30
0.0
 70
     1
  0
VERTEX
  5
1D2
330
1D1
100
AcDbEntity
  8
LAYER_1
 62
     7
100
AcDbVertex
100
AcDb2dVertex
 10
123.398497
 20
135.8787
 30
0.0
  0
VERTEX
  5
1D3
330
1D1
100
AcDbEntity
  8
LAYER_1
 62
     7
100
AcDbVertex
100
AcDb2dVertex
 10
130.502973
 20
135.8787
 30
0.0
  0
VERTEX
  5
1D4
330
1D1
100
AcDbEntity
  8
LAYER_1
 62
     7
100
AcDbVertex
100
AcDb2dVertex
 10
130.502973
 20
135.360213
 30
0.0
  0
VERTEX
  5
1D5
330
1D1
100
AcDbEntity
  8
LAYER_1
 62
     7
100
AcDbVertex
100
AcDb2dVertex
 10
123.398497
 20
135.360213
 30
0.0
  0
SEQEND
  5
1D6
330
1D1
100
AcDbEntity
  8
LAYER_1
 62
     7
  0
POLYLINE
  5
1CB
330
A
100
AcDbEntity
  8
LAYER_1
 62
     7
100
AcDb2dPolyline
 66
     1
 10
0.0
 20
0.0
 30
0.0
 70
     1
  0
VERTEX
  5
1CC
330
1CB
100
AcDbEntity
  8
LAYER_1
 62
     7
100
AcDbVertex
100
AcDb2dVertex
 10
100.416954
 20
138.419803
 30
0.0
  0
VERTEX
  5
1CD
330
1CB
100
AcDbEntity
  8
LAYER_1
 62
     7
100
AcDbVertex
100
AcDb2dVertex
 10
123.551115
 20
138.419803
 30
0.0
  0
VERTEX
  5
1CE
330
1CB
100
AcDbEntity
  8
LAYER_1
 62
     7
100
AcDbVertex
100
AcDb2dVertex
 10
123.551115
 20
131.914773
 30
0.0
  0
VERTEX
  5
1CF
330
1CB
100
AcDbEntity
  8
LAYER_1
 62
     7
100
AcDbVertex
100
AcDb2dVertex
 10
100.416954
 20
131.914773
 30
0.0
  0
SEQEND
  5
1D0
330
1CB
100
AcDbEntity
  8
LAYER_1
 62
     7
  0
INSERT
  5
1BC
330
A
100
AcDbEntity
  8
LAYER_1
 62
     7
100
AcDbBlockReference
  2
AI9-BLK11
 10
129.636876
 20
160.497094
 30
0.0
  0
POLYLINE
  5
1AF
330
A
100
AcDbEntity
  8
LAYER_1
 62
     7
100
AcDb2dPolyline
 66
     1
 10
0.0
 20
0.0
 30
0.0
 70
     1
  0
VERTEX
  5
1B0
330
1AF
100
AcDbEntity
  8
LAYER_1
 62
     7
100
AcDbVertex
100
AcDb2dVertex
 10
130.938433
 20
159.372873
 30
0.0
  0
VERTEX
  5
1B1
330
1AF
100
AcDbEntity
  8
LAYER_1
 62
     7
100
AcDbVertex
100
AcDb2dVertex
 10
130.938433
 20
159.610068
 30
0.0
  0
VERTEX
  5
1B2
330
1AF
100
AcDbEntity
  8
LAYER_1
 62
     7
100
AcDbVertex
100
AcDb2dVertex
 10
127.270095
 20
159.610068
 30
0.0
  0
VERTEX
  5
1B3
330
1AF
100
AcDbEntity
  8
LAYER_1
 62
     7
100
AcDbVertex
100
AcDb2dVertex
 10
127.270095
 20
161.470764
 30
0.0
  0
VERTEX
  5
1B4
330
1AF
100
AcDbEntity
  8
LAYER_1
 62
     7
100
AcDbVertex
100
AcDb2dVertex
 10
130.938433
 20
161.470764
 30
0.0
  0
VERTEX
  5
1B5
330
1AF
100
AcDbEntity
  8
LAYER_1
 62
     7
100
AcDbVertex
100
AcDb2dVertex
 10
130.938433
 20
161.73173
 30
0.0
  0
VERTEX
  5
1B6
330
1AF
100
AcDbEntity
  8
LAYER_1
 62
     7
100
AcDbVertex
100
AcDb2dVertex
 10
130.595646
 20
161.966513
 30
0.0
  0
VERTEX
  5
1B7
330
1AF
100
AcDbEntity
  8
LAYER_1
 62
     7
100
AcDbVertex
100
AcDb2dVertex
 10
122.77838
 20
161.966513
 30
0.0
  0
VERTEX
  5
1B8
330
1AF
100
AcDbEntity
  8
LAYER_1
 62
     7
100
AcDbVertex
100
AcDb2dVertex
 10
122.77838
 20
159.114319
 30
0.0
  0
VERTEX
  5
1B9
330
1AF
100
AcDbEntity
  8
LAYER_1
 62
     7
100
AcDbVertex
100
AcDb2dVertex
 10
130.5615399999999
 20
159.114319
 30
0.0
  0
SEQEND
  5
1BA
330
1AF
100
AcDbEntity
  8
LAYER_1
 62
     7
  0
POLYLINE
  5
1A9
330
A
100
AcDbEntity
  8
LAYER_1
 62
     7
100
AcDb2dPolyline
 66
     1
 10
0.0
 20
0.0
 30
0.0
 70
     1
  0
VERTEX
  5
1AA
330
1A9
100
AcDbEntity
  8
LAYER_1
 62
     7
100
AcDbVertex
100
AcDb2dVertex
 10
100.376302
 20
163.427234
 30
0.0
  0
VERTEX
  5
1AB
330
1A9
100
AcDbEntity
  8
LAYER_1
 62
     7
100
AcDbVertex
100
AcDb2dVertex
 10
123.713723
 20
163.427234
 30
0.0
  0
VERTEX
  5
1AC
330
1A9
100
AcDbEntity
  8
LAYER_1
 62
     7
100
AcDbVertex
100
AcDb2dVertex
 10
123.713723
 20
157.653943
 30
0.0
  0
VERTEX
  5
1AD
330
1A9
100
AcDbEntity
  8
LAYER_1
 62
     7
100
AcDbVertex
100
AcDb2dVertex
 10
100.376302
 20
157.653943
 30
0.0
  0
SEQEND
  5
1AE
330
1A9
100
AcDbEntity
  8
LAYER_1
 62
     7
  0
INSERT
  5
197
330
A
100
AcDbEntity
  8
LAYER_1
 62
     7
100
AcDbBlockReference
  2
AI9-BLK10
 10
112.023998
 20
160.5711639999999
 30
0.0
  0
INSERT
  5
187
330
A
100
AcDbEntity
  8
LAYER_1
 62
     7
100
AcDbBlockReference
  2
AI9-BLK9
 10
111.486391
 20
161.368875
 30
0.0
  0
INSERT
  5
17D
330
A
100
AcDbEntity
  8
LAYER_1
 62
     7
100
AcDbBlockReference
  2
AI9-BLK8
 10
111.984035
 20
135.116817
 30
0.0
  0
INSERT
  5
16D
330
A
100
AcDbEntity
  8
LAYER_1
 62
     7
100
AcDbBlockReference
  2
AI9-BLK7
 10
116.476267
 20
136.450069
 30
0.0
  0
INSERT
  5
167
330
A
100
AcDbEntity
  8
LAYER_1
 62
     7
100
AcDbBlockReference
  2
AI9-BLK6
 10
81.47478599999999
 20
142.41129
 30
0.0
  0
SPLINE
  5
165
330
A
100
AcDbEntity
  8
LAYER_1
 62
     7
100
AcDbSpline
210
0.0
220
0.0
230
1.0
 70
     9
 71
     3
 72
   101
 73
    97
 74
     0
 42
0.0000000001
 43
0.0000000001
 40
0.0
 40
0.0
 40
0.0
 40
0.0
 40
1.0
 40
1.0
 40
1.0
 40
2.0
 40
2.0
 40
2.0
 40
3.0
 40
3.0
 40
3.0
 40
4.0
 40
4.0
 40
4.0
 40
5.0
 40
5.0
 40
5.0
 40
6.0
 40
6.0
 40
6.0
 40
7.0
 40
7.0
 40
7.0
 40
8.0
 40
8.0
 40
8.0
 40
9.0
 40
9.0
 40
9.0
 40
10.0
 40
10.0
 40
10.0
 40
11.0
 40
11.0
 40
11.0
 40
12.0
 40
12.0
 40
12.0
 40
13.0
 40
13.0
 40
13.0
 40
14.0
 40
14.0
 40
14.0
 40
15.0
 40
15.0
 40
15.0
 40
16.0
 40
16.0
 40
16.0
 40
17.0
 40
17.0
 40
17.0
 40
18.0
 40
18.0
 40
18.0
 40
19.0
 40
19.0
 40
19.0
 40
20.0
 40
20.0
 40
20.0
 40
21.0
 40
21.0
 40
21.0
 40
22.0
 40
22.0
 40
22.0
 40
23.0
 40
23.0
 40
23.0
 40
24.0
 40
24.0
 40
24.0
 40
25.0
 40
25.0
 40
25.0
 40
26.0
 40
26.0
 40
26.0
 40
27.0
 40
27.0
 40
27.0
 40
28.0
 40
28.0
 40
28.0
 40
29.0
 40
29.0
 40
29.0
 40
30.0
 40
30.0
 40
30.0
 40
31.0
 40
31.0
 40
31.0
 40
32.0
 40
32.0
 40
32.0
 40
32.0
 10
84.31078830295138
 20
138.5517496744791
 30
0.0
 10
84.31078830295138
 20
138.6471788194444
 30
0.0
 10
84.23292914496528
 20
138.7246934678819
 30
0.0
 10
84.1378445095486
 20
138.7246934678819
 30
0.0
 10
84.1378445095486
 20
138.7246934678819
 30
0.0
 10
83.29810248480901
 20
138.7246934678819
 30
0.0
 10
83.29810248480901
 20
138.7246934678819
 30
0.0
 10
83.26537407769095
 20
138.6864529079861
 30
0.0
 10
83.21765950520834
 20
138.661648220486
 30
0.0
 10
83.16357150607638
 20
138.661648220486
 30
0.0
 10
83.10965576171872
 20
138.661648220486
 30
0.0
 10
83.06159667968747
 20
138.6864529079861
 30
0.0
 10
83.02938503689235
 20
138.7246934678819
 30
0.0
 10
83.02938503689235
 20
138.7246934678819
 30
0.0
 10
79.98099229600693
 20
138.7246934678819
 30
0.0
 10
79.98099229600693
 20
138.7246934678819
 30
0.0
 10
79.94843614366319
 20
138.6864529079861
 30
0.0
 10
79.90072157118054
 20
138.661648220486
 30
0.0
 10
79.8466335720486
 20
138.661648220486
 30
0.0
 10
79.79237331814236
 20
138.661648220486
 30
0.0
 10
79.74465874565972
 20
138.6864529079861
 30
0.0
 10
79.71227484809026
 20
138.7246934678819
 30
0.0
 10
79.71227484809026
 20
138.7246934678819
 30
0.0
 10
78.81172688802083
 20
138.7246934678819
 30
0.0
 10
78.81172688802083
 20
138.7246934678819
 30
0.0
 10
78.71664225260416
 20
138.7246934678819
 30
0.0
 10
78.63895534939235
 20
138.6471788194444
 30
0.0
 10
78.63895534939235
 20
138.5517496744791
 30
0.0
 10
78.63895534939235
 20
138.5517496744791
 30
0.0
 10
78.63895534939235
 20
137.6084825303819
 30
0.0
 10
78.63895534939235
 20
137.6084825303819
 30
0.0
 10
78.67426757812499
 20
137.5757541232638
 30
0.0
 10
78.69648844401041
 20
137.5302788628472
 30
0.0
 10
78.69648844401041
 20
137.4786024305555
 30
0.0
 10
78.69648844401041
 20
137.4269259982638
 30
0.0
 10
78.67426757812499
 20
137.3811062282986
 30
0.0
 10
78.63895534939235
 20
137.3487223307291
 30
0.0
 10
78.63895534939235
 20
137.3487223307291
 30
0.0
 10
78.63895534939235
 20
133.3847954644097
 30
0.0
 10
78.63895534939235
 20
133.3847954644097
 30
0.0
 10
78.67426757812499
 20
133.3524115668402
 30
0.0
 10
78.69648844401041
 20
133.306591796875
 30
0.0
 10
78.69648844401041
 20
133.2549153645833
 30
0.0
 10
78.69648844401041
 20
133.2032389322916
 30
0.0
 10
78.67426757812499
 20
133.1574191623263
 30
0.0
 10
78.63895534939235
 20
133.1250352647569
 30
0.0
 10
78.63895534939235
 20
133.1250352647569
 30
0.0
 10
78.63895534939235
 20
132.280642361111
 30
0.0
 10
78.63895534939235
 20
132.280642361111
 30
0.0
 10
78.63895534939235
 20
132.1855577256944
 30
0.0
 10
78.71664225260416
 20
132.1076985677083
 30
0.0
 10
78.81172688802083
 20
132.1076985677083
 30
0.0
 10
78.81172688802083
 20
132.1076985677083
 30
0.0
 10
79.71193033854166
 20
132.1076985677083
 30
0.0
 10
79.71193033854166
 20
132.1076985677083
 30
0.0
 10
79.7444864908854
 20
132.1462836371527
 30
0.0
 10
79.79237331814236
 20
132.1714328342013
 30
0.0
 10
79.8466335720486
 20
132.1714328342013
 30
0.0
 10
79.90106608072917
 20
132.1714328342013
 30
0.0
 10
79.94860839843747
 20
132.1462836371527
 30
0.0
 10
79.98116455078124
 20
132.1076985677083
 30
0.0
 10
79.98116455078124
 20
132.1076985677083
 30
0.0
 10
83.02921278211803
 20
132.1076985677083
 30
0.0
 10
83.02921278211803
 20
132.1076985677083
 30
0.0
 10
83.06142442491319
 20
132.1462836371527
 30
0.0
 10
83.10931125217013
 20
132.1714328342013
 30
0.0
 10
83.16357150607638
 20
132.1714328342013
 30
0.0
 10
83.21765950520834
 20
132.1714328342013
 30
0.0
 10
83.26554633246527
 20
132.1462836371527
 30
0.0
 10
83.29844699435762
 20
132.1076985677083
 30
0.0
 10
83.29844699435762
 20
132.1076985677083
 30
0.0
 10
84.1378445095486
 20
132.1076985677083
 30
0.0
 10
84.1378445095486
 20
132.1076985677083
 30
0.0
 10
84.23292914496528
 20
132.1076985677083
 30
0.0
 10
84.31078830295138
 20
132.1855577256944
 30
0.0
 10
84.31078830295138
 20
132.280642361111
 30
0.0
 10
84.31078830295138
 20
132.280642361111
 30
0.0
 10
84.31078830295138
 20
133.120556640625
 30
0.0
 10
84.31078830295138
 20
133.120556640625
 30
0.0
 10
84.27220323350693
 20
133.1525960286458
 30
0.0
 10
84.24722629123262
 20
133.2004828559028
 30
0.0
 10
84.24722629123262
 20
133.2549153645833
 30
0.0
 10
84.24722629123262
 20
133.3093478732638
 30
0.0
 10
84.27220323350693
 20
133.3572347005208
 30
0.0
 10
84.31078830295138
 20
133.3892740885416
 30
0.0
 10
84.31078830295138
 20
133.3892740885416
 30
0.0
 10
84.31078830295138
 20
137.3442437065972
 30
0.0
 10
84.31078830295138
 20
137.3442437065972
 30
0.0
 10
84.27220323350693
 20
137.376283094618
 30
0.0
 10
84.24722629123262
 20
137.424169921875
 30
0.0
 10
84.24722629123262
 20
137.4786024305555
 30
0.0
 10
84.24722629123262
 20
137.533034939236
 30
0.0
 10
84.27220323350693
 20
137.580921766493
 30
0.0
 10
84.31078830295138
 20
137.6133056640625
 30
0.0
 10
84.31078830295138
 20
137.6133056640625
 30
0.0
 10
84.31078830295138
 20
138.5517496744791
 30
0.0
 10
84.31078830295138
 20
138.5517496744791
 30
0.0
  0
POLYLINE
  5
15F
330
A
100
AcDbEntity
  8
LAYER_1
 62
     7
100
AcDb2dPolyline
 66
     1
 10
0.0
 20
0.0
 30
0.0
 70
     1
  0
VERTEX
  5
160
330
15F
100
AcDbEntity
  8
LAYER_1
 62
     7
100
AcDbVertex
100
AcDb2dVertex
 10
81.062925
 20
137.9767629999999
 30
0.0
  0
VERTEX
  5
161
330
15F
100
AcDbEntity
  8
LAYER_1
 62
     7
100
AcDbVertex
100
AcDb2dVertex
 10
81.925404
 20
137.9767629999999
 30
0.0
  0
VERTEX
  5
162
330
15F
100
AcDbEntity
  8
LAYER_1
 62
     7
100
AcDbVertex
100
AcDb2dVertex
 10
81.925404
 20
132.790861
 30
0.0
  0
VERTEX
  5
163
330
15F
100
AcDbEntity
  8
LAYER_1
 62
     7
100
AcDbVertex
100
AcDb2dVertex
 10
81.062925
 20
132.790861
 30
0.0
  0
SEQEND
  5
164
330
15F
100
AcDbEntity
  8
LAYER_1
 62
     7
  0
POLYLINE
  5
159
330
A
100
AcDbEntity
  8
LAYER_1
 62
     7
100
AcDb2dPolyline
 66
     1
 10
0.0
 20
0.0
 30
0.0
 70
     1
  0
VERTEX
  5
15A
330
159
100
AcDbEntity
  8
LAYER_1
 62
     7
100
AcDbVertex
100
AcDb2dVertex
 10
79.906578
 20
136.028217
 30
0.0
  0
VERTEX
  5
15B
330
159
100
AcDbEntity
  8
LAYER_1
 62
     7
100
AcDbVertex
100
AcDb2dVertex
 10
83.11913
 20
136.028217
 30
0.0
  0
VERTEX
  5
15C
330
159
100
AcDbEntity
  8
LAYER_1
 62
     7
100
AcDbVertex
100
AcDb2dVertex
 10
83.11913
 20
134.736651
 30
0.0
  0
VERTEX
  5
15D
330
159
100
AcDbEntity
  8
LAYER_1
 62
     7
100
AcDbVertex
100
AcDb2dVertex
 10
79.906578
 20
134.736651
 30
0.0
  0
SEQEND
  5
15E
330
159
100
AcDbEntity
  8
LAYER_1
 62
     7
  0
INSERT
  5
154
330
A
100
AcDbEntity
  8
LAYER_1
 62
     7
100
AcDbBlockReference
  2
AI9-BLK5
 10
81.58235899999999
 20
135.366931
 30
0.0
  0
INSERT
  5
14A
330
A
100
AcDbEntity
  8
LAYER_1
 62
     7
100
AcDbBlockReference
  2
AI9-BLK4
 10
82.613131
 20
135.92452
 30
0.0
  0
POLYLINE
  5
143
330
A
100
AcDbEntity
  8
LAYER_1
 62
     7
100
AcDb2dPolyline
 66
     1
 10
0.0
 20
0.0
 30
0.0
  0
VERTEX
  5
144
330
143
100
AcDbEntity
  8
LAYER_1
 62
     7
100
AcDbVertex
100
AcDb2dVertex
 10
75.448625
 20
137.577132
 30
0.0
  0
VERTEX
  5
145
330
143
100
AcDbEntity
  8
LAYER_1
 62
     7
100
AcDbVertex
100
AcDb2dVertex
 10
75.197477
 20
138.514198
 30
0.0
  0
VERTEX
  5
146
330
143
100
AcDbEntity
  8
LAYER_1
 62
     7
100
AcDbVertex
100
AcDb2dVertex
 10
74.94633
 20
137.577132
 30
0.0
  0
VERTEX
  5
147
330
143
100
AcDbEntity
  8
LAYER_1
 62
     7
100
AcDbVertex
100
AcDb2dVertex
 10
75.448625
 20
137.577132
 30
0.0
  0
SEQEND
  5
148
330
143
100
AcDbEntity
  8
LAYER_1
 62
     7
  0
POLYLINE
  5
13D
330
A
100
AcDbEntity
  8
LAYER_1
 62
     7
100
AcDb2dPolyline
 66
     1
 10
0.0
 20
0.0
 30
0.0
  0
VERTEX
  5
13E
330
13D
100
AcDbEntity
  8
LAYER_1
 62
     7
100
AcDbVertex
100
AcDb2dVertex
 10
74.95253100000001
 20
133.235278
 30
0.0
  0
VERTEX
  5
13F
330
13D
100
AcDbEntity
  8
LAYER_1
 62
     7
100
AcDbVertex
100
AcDb2dVertex
 10
75.20367799999999
 20
132.298212
 30
0.0
  0
VERTEX
  5
140
330
13D
100
AcDbEntity
  8
LAYER_1
 62
     7
100
AcDbVertex
100
AcDb2dVertex
 10
75.45482599999999
 20
133.235278
 30
0.0
  0
VERTEX
  5
141
330
13D
100
AcDbEntity
  8
LAYER_1
 62
     7
100
AcDbVertex
100
AcDb2dVertex
 10
74.95253100000001
 20
133.235278
 30
0.0
  0
SEQEND
  5
142
330
13D
100
AcDbEntity
  8
LAYER_1
 62
     7
  0
LINE
  5
13C
330
A
100
AcDbEntity
  8
LAYER_1
 62
     7
100
AcDbLine
 10
75.200578
 20
132.673039
 30
0.0
 11
75.200578
 21
138.284066
 31
0.0
  0
MTEXT
  5
13B
330
A
100
AcDbEntity
  8
LAYER_1
 62
     7
100
AcDbMText
 10
79.75241
 20
126.446833
 30
0.0
 40
1.837383999999999
 41
0.0
 71
     1
 72
     2
  1
\fGill Sans|b0|i0;34
  7
STD
 73
     1
 44
1.0
1001
ACAD
1000
MTEXTBEGIN
1070
    73
1070
     1
1070
    44
1040
1.0
1070
    74
1070
     0
1000
MTEXTEND
  0
MTEXT
  5
13A
330
A
100
AcDbEntity
  8
LAYER_1
 62
     7
100
AcDbMText
 10
87.17400699999998
 20
140.367774
 30
0.0
 40
1.837383999999999
 41
0.0
 71
     1
 72
     2
  1
\fGill Sans|b0|i0;84
  7
STD
 73
     1
 44
1.0
1001
ACAD
1000
MTEXTBEGIN
1070
    73
1070
     1
1070
    44
1040
1.0
1070
    74
1070
     0
1000
MTEXTEND
  0
POLYLINE
  5
134
330
A
100
AcDbEntity
  8
LAYER_1
 62
     7
100
AcDb2dPolyline
 66
     1
 10
0.0
 20
0.0
 30
0.0
  0
VERTEX
  5
135
330
134
100
AcDbEntity
  8
LAYER_1
 62
     7
100
AcDbVertex
100
AcDb2dVertex
 10
90.29629699999999
 20
145.019916
 30
0.0
  0
VERTEX
  5
136
330
134
100
AcDbEntity
  8
LAYER_1
 62
     7
100
AcDbVertex
100
AcDb2dVertex
 10
90.045494
 20
145.956982
 30
0.0
  0
VERTEX
  5
137
330
134
100
AcDbEntity
  8
LAYER_1
 62
     7
100
AcDbVertex
100
AcDb2dVertex
 10
89.794002
 20
145.019916
 30
0.0
  0
VERTEX
  5
138
330
134
100
AcDbEntity
  8
LAYER_1
 62
     7
100
AcDbVertex
100
AcDb2dVertex
 10
90.29629699999999
 20
145.019916
 30
0.0
  0
SEQEND
  5
139
330
134
100
AcDbEntity
  8
LAYER_1
 62
     7
  0
POLYLINE
  5
12E
330
A
100
AcDbEntity
  8
LAYER_1
 62
     7
100
AcDb2dPolyline
 66
     1
 10
0.0
 20
0.0
 30
0.0
  0
VERTEX
  5
12F
330
12E
100
AcDbEntity
  8
LAYER_1
 62
     7
100
AcDbVertex
100
AcDb2dVertex
 10
89.80020299999999
 20
133.212541
 30
0.0
  0
VERTEX
  5
130
330
12E
100
AcDbEntity
  8
LAYER_1
 62
     7
100
AcDbVertex
100
AcDb2dVertex
 10
90.051523
 20
132.275475
 30
0.0
  0
VERTEX
  5
131
330
12E
100
AcDbEntity
  8
LAYER_1
 62
     7
100
AcDbVertex
100
AcDb2dVertex
 10
90.30249799999999
 20
133.212541
 30
0.0
  0
VERTEX
  5
132
330
12E
100
AcDbEntity
  8
LAYER_1
 62
     7
100
AcDbVertex
100
AcDb2dVertex
 10
89.80020299999999
 20
133.212541
 30
0.0
  0
SEQEND
  5
133
330
12E
100
AcDbEntity
  8
LAYER_1
 62
     7
  0
LINE
  5
12D
330
A
100
AcDbEntity
  8
LAYER_1
 62
     7
100
AcDbLine
 10
90.04825
 20
132.650301
 30
0.0
 11
90.04825
 21
145.72685
 31
0.0
  0
MTEXT
  5
12C
330
A
100
AcDbEntity
  8
LAYER_1
 62
     7
100
AcDbMText
 10
91.332237
 20
135.84712
 30
0.0
 40
1.837383999999999
 41
0.0
 71
     1
 72
     2
  1
\fGill Sans|b0|i0;25.5
  7
STD
 73
     1
 44
1.0
1001
ACAD
1000
MTEXTBEGIN
1070
    73
1070
     1
1070
    44
1040
1.0
1070
    74
1070
     0
1000
MTEXTEND
  0
POLYLINE
  5
126
330
A
100
AcDbEntity
  8
LAYER_1
 62
     7
100
AcDb2dPolyline
 66
     1
 10
0.0
 20
0.0
 30
0.0
  0
VERTEX
  5
127
330
126
100
AcDbEntity
  8
LAYER_1
 62
     7
100
AcDbVertex
100
AcDb2dVertex
 10
96.505737
 20
136.19117
 30
0.0
  0
VERTEX
  5
128
330
126
100
AcDbEntity
  8
LAYER_1
 62
     7
100
AcDbVertex
100
AcDb2dVertex
 10
96.25493399999999
 20
137.128581
 30
0.0
  0
VERTEX
  5
129
330
126
100
AcDbEntity
  8
LAYER_1
 62
     7
100
AcDbVertex
100
AcDb2dVertex
 10
96.00292600000001
 20
136.19117
 30
0.0
  0
VERTEX
  5
12A
330
126
100
AcDbEntity
  8
LAYER_1
 62
     7
100
AcDbVertex
100
AcDb2dVertex
 10
96.505737
 20
136.19117
 30
0.0
  0
SEQEND
  5
12B
330
126
100
AcDbEntity
  8
LAYER_1
 62
     7
  0
POLYLINE
  5
120
330
A
100
AcDbEntity
  8
LAYER_1
 62
     7
100
AcDb2dPolyline
 66
     1
 10
0.0
 20
0.0
 30
0.0
  0
VERTEX
  5
121
330
120
100
AcDbEntity
  8
LAYER_1
 62
     7
100
AcDbVertex
100
AcDb2dVertex
 10
96.009644
 20
134.033851
 30
0.0
  0
VERTEX
  5
122
330
120
100
AcDbEntity
  8
LAYER_1
 62
     7
100
AcDbVertex
100
AcDb2dVertex
 10
96.260963
 20
133.096785
 30
0.0
  0
VERTEX
  5
123
330
120
100
AcDbEntity
  8
LAYER_1
 62
     7
100
AcDbVertex
100
AcDb2dVertex
 10
96.51176600000001
 20
134.033851
 30
0.0
  0
VERTEX
  5
124
330
120
100
AcDbEntity
  8
LAYER_1
 62
     7
100
AcDbVertex
100
AcDb2dVertex
 10
96.009644
 20
134.033851
 30
0.0
  0
SEQEND
  5
125
330
120
100
AcDbEntity
  8
LAYER_1
 62
     7
  0
LINE
  5
11F
330
A
100
AcDbEntity
  8
LAYER_1
 62
     7
100
AcDbLine
 10
96.25769
 20
133.471267
 30
0.0
 11
96.25769
 21
136.897759
 31
0.0
  0
MTEXT
  5
11E
330
A
100
AcDbEntity
  8
LAYER_1
 62
     7
100
AcDbMText
 10
137.570242
 20
134.514081
 30
0.0
 40
1.608498999999999
 41
0.0
 71
     1
 72
     2
  1
\fGill Sans|b0|i0;24
  7
STD
 73
     1
 44
1.0
1001
ACAD
1000
MTEXTBEGIN
1070
    73
1070
     1
1070
    44
1040
1.0
1070
    74
1070
     0
1000
MTEXTEND
  0
POLYLINE
  5
118
330
A
100
AcDbEntity
  8
LAYER_1
 62
     7
100
AcDb2dPolyline
 66
     1
 10
0.0
 20
0.0
 30
0.0
  0
VERTEX
  5
119
330
118
100
AcDbEntity
  8
LAYER_1
 62
     7
100
AcDbVertex
100
AcDb2dVertex
 10
137.385585
 20
134.890991
 30
0.0
  0
VERTEX
  5
11A
330
118
100
AcDbEntity
  8
LAYER_1
 62
     7
100
AcDbVertex
100
AcDb2dVertex
 10
137.134093
 20
135.828402
 30
0.0
  0
VERTEX
  5
11B
330
118
100
AcDbEntity
  8
LAYER_1
 62
     7
100
AcDbVertex
100
AcDb2dVertex
 10
136.882601
 20
134.890991
 30
0.0
  0
VERTEX
  5
11C
330
118
100
AcDbEntity
  8
LAYER_1
 62
     7
100
AcDbVertex
100
AcDb2dVertex
 10
137.385585
 20
134.890991
 30
0.0
  0
SEQEND
  5
11D
330
118
100
AcDbEntity
  8
LAYER_1
 62
     7
  0
POLYLINE
  5
112
330
A
100
AcDbEntity
  8
LAYER_1
 62
     7
100
AcDb2dPolyline
 66
     1
 10
0.0
 20
0.0
 30
0.0
  0
VERTEX
  5
113
330
112
100
AcDbEntity
  8
LAYER_1
 62
     7
100
AcDbVertex
100
AcDb2dVertex
 10
136.888802
 20
132.870443
 30
0.0
  0
VERTEX
  5
114
330
112
100
AcDbEntity
  8
LAYER_1
 62
     7
100
AcDbVertex
100
AcDb2dVertex
 10
137.140294
 20
131.933377
 30
0.0
  0
VERTEX
  5
115
330
112
100
AcDbEntity
  8
LAYER_1
 62
     7
100
AcDbVertex
100
AcDb2dVertex
 10
137.391097
 20
132.870443
 30
0.0
  0
VERTEX
  5
116
330
112
100
AcDbEntity
  8
LAYER_1
 62
     7
100
AcDbVertex
100
AcDb2dVertex
 10
136.888802
 20
132.870443
 30
0.0
  0
SEQEND
  5
117
330
112
100
AcDbEntity
  8
LAYER_1
 62
     7
  0
LINE
  5
111
330
A
100
AcDbEntity
  8
LAYER_1
 62
     7
100
AcDbLine
 10
137.136849
 20
132.307859
 30
0.0
 11
137.136849
 21
135.59758
 31
0.0
  0
MTEXT
  5
110
330
A
100
AcDbEntity
  8
LAYER_1
 62
     7
100
AcDbMText
 10
130.170866
 20
134.748135
 30
0.0
 40
1.837383999999999
 41
0.0
 71
     1
 72
     2
  1
\fGill Sans|b0|i0;20.5
  7
STD
 73
     1
 44
1.0
1001
ACAD
1000
MTEXTBEGIN
1070
    73
1070
     1
1070
    44
1040
1.0
1070
    74
1070
     0
1000
MTEXTEND
  0
POLYLINE
  5
10A
330
A
100
AcDbEntity
  8
LAYER_1
 62
     7
100
AcDb2dPolyline
 66
     1
 10
0.0
 20
0.0
 30
0.0
  0
VERTEX
  5
10B
330
10A
100
AcDbEntity
  8
LAYER_1
 62
     7
100
AcDbVertex
100
AcDb2dVertex
 10
132.731605
 20
130.921552
 30
0.0
  0
VERTEX
  5
10C
330
10A
100
AcDbEntity
  8
LAYER_1
 62
     7
100
AcDbVertex
100
AcDb2dVertex
 10
132.480113
 20
131.858963
 30
0.0
  0
VERTEX
  5
10D
330
10A
100
AcDbEntity
  8
LAYER_1
 62
     7
100
AcDbVertex
100
AcDb2dVertex
 10
132.228966
 20
130.921552
 30
0.0
  0
VERTEX
  5
10E
330
10A
100
AcDbEntity
  8
LAYER_1
 62
     7
100
AcDbVertex
100
AcDb2dVertex
 10
132.731605
 20
130.921552
 30
0.0
  0
SEQEND
  5
10F
330
10A
100
AcDbEntity
  8
LAYER_1
 62
     7
  0
LINE
  5
109
330
A
100
AcDbEntity
  8
LAYER_1
 62
     7
100
AcDbLine
 10
132.483558
 20
129.127002
 30
0.0
 11
132.483558
 21
131.628141
 31
0.0
  0
POLYLINE
  5
103
330
A
100
AcDbEntity
  8
LAYER_1
 62
     7
100
AcDb2dPolyline
 66
     1
 10
0.0
 20
0.0
 30
0.0
  0
VERTEX
  5
104
330
103
100
AcDbEntity
  8
LAYER_1
 62
     7
100
AcDbVertex
100
AcDb2dVertex
 10
132.22931
 20
136.355157
 30
0.0
  0
VERTEX
  5
105
330
103
100
AcDbEntity
  8
LAYER_1
 62
     7
100
AcDbVertex
100
AcDb2dVertex
 10
132.480113
 20
135.417746
 30
0.0
  0
VERTEX
  5
106
330
103
100
AcDbEntity
  8
LAYER_1
 62
     7
100
AcDbVertex
100
AcDb2dVertex
 10
132.731605
 20
136.355157
 30
0.0
  0
VERTEX
  5
107
330
103
100
AcDbEntity
  8
LAYER_1
 62
     7
100
AcDbVertex
100
AcDb2dVertex
 10
132.22931
 20
136.355157
 30
0.0
  0
SEQEND
  5
108
330
103
100
AcDbEntity
  8
LAYER_1
 62
     7
  0
LINE
  5
102
330
A
100
AcDbEntity
  8
LAYER_1
 62
     7
100
AcDbLine
 10
132.477357
 20
138.149363
 30
0.0
 11
132.477357
 21
135.648568
 31
0.0
  0
MTEXT
  5
101
330
A
100
AcDbEntity
  8
LAYER_1
 62
     7
100
AcDbMText
 10
126.439827
 20
142.958486
 30
0.0
 40
1.837383999999999
 41
0.0
 71
     1
 72
     2
  1
\fGill Sans|b0|i0;5.5
  7
STD
 73
     1
 44
1.0
1001
ACAD
1000
MTEXTBEGIN
1070
    73
1070
     1
1070
    44
1040
1.0
1070
    74
1070
     0
1000
MTEXTEND
  0
POLYLINE
  5
FB
330
A
100
AcDbEntity
  8
LAYER_1
 62
     7
100
AcDb2dPolyline
 66
     1
 10
0.0
 20
0.0
 30
0.0
  0
VERTEX
  5
FC
330
FB
100
AcDbEntity
  8
LAYER_1
 62
     7
100
AcDbVertex
100
AcDb2dVertex
 10
128.27124
 20
135.684052
 30
0.0
  0
VERTEX
  5
FD
330
FB
100
AcDbEntity
  8
LAYER_1
 62
     7
100
AcDbVertex
100
AcDb2dVertex
 10
128.020437
 20
136.621118
 30
0.0
  0
VERTEX
  5
FE
330
FB
100
AcDbEntity
  8
LAYER_1
 62
     7
100
AcDbVertex
100
AcDb2dVertex
 10
127.768945
 20
135.684052
 30
0.0
  0
VERTEX
  5
FF
330
FB
100
AcDbEntity
  8
LAYER_1
 62
     7
100
AcDbVertex
100
AcDb2dVertex
 10
128.27124
 20
135.684052
 30
0.0
  0
SEQEND
  5
100
330
FB
100
AcDbEntity
  8
LAYER_1
 62
     7
  0
LINE
  5
FA
330
A
100
AcDbEntity
  8
LAYER_1
 62
     7
100
AcDbLine
 10
128.023193
 20
133.889502
 30
0.0
 11
128.023193
 21
136.390641
 31
0.0
  0
POLYLINE
  5
F4
330
A
100
AcDbEntity
  8
LAYER_1
 62
     7
100
AcDb2dPolyline
 66
     1
 10
0.0
 20
0.0
 30
0.0
  0
VERTEX
  5
F5
330
F4
100
AcDbEntity
  8
LAYER_1
 62
     7
100
AcDbVertex
100
AcDb2dVertex
 10
127.768945
 20
138.65338
 30
0.0
  0
VERTEX
  5
F6
330
F4
100
AcDbEntity
  8
LAYER_1
 62
     7
100
AcDbVertex
100
AcDb2dVertex
 10
128.020437
 20
137.716314
 30
0.0
  0
VERTEX
  5
F7
330
F4
100
AcDbEntity
  8
LAYER_1
 62
     7
100
AcDbVertex
100
AcDb2dVertex
 10
128.27124
 20
138.65338
 30
0.0
  0
VERTEX
  5
F8
330
F4
100
AcDbEntity
  8
LAYER_1
 62
     7
100
AcDbVertex
100
AcDb2dVertex
 10
127.768945
 20
138.65338
 30
0.0
  0
SEQEND
  5
F9
330
F4
100
AcDbEntity
  8
LAYER_1
 62
     7
  0
LINE
  5
F3
330
A
100
AcDbEntity
  8
LAYER_1
 62
     7
100
AcDbLine
 10
128.017681
 20
140.44793
 30
0.0
 11
128.017681
 21
137.946791
 31
0.0
  0
POLYLINE
  5
ED
330
A
100
AcDbEntity
  8
LAYER_1
 62
     7
100
AcDb2dPolyline
 66
     1
 10
0.0
 20
0.0
 30
0.0
  0
VERTEX
  5
EE
330
ED
100
AcDbEntity
  8
LAYER_1
 62
     7
100
AcDbVertex
100
AcDb2dVertex
 10
120.609692
 20
126.235878
 30
0.0
  0
VERTEX
  5
EF
330
ED
100
AcDbEntity
  8
LAYER_1
 62
     7
100
AcDbVertex
100
AcDb2dVertex
 10
121.547447
 20
126.486681
 30
0.0
  0
VERTEX
  5
F0
330
ED
100
AcDbEntity
  8
LAYER_1
 62
     7
100
AcDbVertex
100
AcDb2dVertex
 10
120.609692
 20
126.738173
 30
0.0
  0
VERTEX
  5
F1
330
ED
100
AcDbEntity
  8
LAYER_1
 62
     7
100
AcDbVertex
100
AcDb2dVertex
 10
120.609692
 20
126.235878
 30
0.0
  0
SEQEND
  5
F2
330
ED
100
AcDbEntity
  8
LAYER_1
 62
     7
  0
POLYLINE
  5
E7
330
A
100
AcDbEntity
  8
LAYER_1
 62
     7
100
AcDb2dPolyline
 66
     1
 10
0.0
 20
0.0
 30
0.0
  0
VERTEX
  5
E8
330
E7
100
AcDbEntity
  8
LAYER_1
 62
     7
100
AcDbVertex
100
AcDb2dVertex
 10
103.273972
 20
126.731972
 30
0.0
  0
VERTEX
  5
E9
330
E7
100
AcDbEntity
  8
LAYER_1
 62
     7
100
AcDbVertex
100
AcDb2dVertex
 10
102.336561
 20
126.480824
 30
0.0
  0
VERTEX
  5
EA
330
E7
100
AcDbEntity
  8
LAYER_1
 62
     7
100
AcDbVertex
100
AcDb2dVertex
 10
103.273972
 20
126.229677
 30
0.0
  0
VERTEX
  5
EB
330
E7
100
AcDbEntity
  8
LAYER_1
 62
     7
100
AcDbVertex
100
AcDb2dVertex
 10
103.273972
 20
126.731972
 30
0.0
  0
SEQEND
  5
EC
330
E7
100
AcDbEntity
  8
LAYER_1
 62
     7
  0
LINE
  5
E6
330
A
100
AcDbEntity
  8
LAYER_1
 62
     7
100
AcDbLine
 10
102.711388
 20
126.483925
 30
0.0
 11
121.316281
 21
126.483925
 31
0.0
  0
MTEXT
  5
E5
330
A
100
AcDbEntity
  8
LAYER_1
 62
     7
100
AcDbMText
 10
108.920828
 20
129.295582
 30
0.0
 40
1.837383999999999
 41
0.0
 71
     1
 72
     2
  1
\fGill Sans|b0|i0;117.5
  7
STD
 73
     1
 44
1.0
1001
ACAD
1000
MTEXTBEGIN
1070
    73
1070
     1
1070
    44
1040
1.0
1070
    74
1070
     0
1000
MTEXTEND
  0
POLYLINE
  5
DF
330
A
100
AcDbEntity
  8
LAYER_1
 62
     7
100
AcDb2dPolyline
 66
     1
 10
0.0
 20
0.0
 30
0.0
  0
VERTEX
  5
E0
330
DF
100
AcDbEntity
  8
LAYER_1
 62
     7
100
AcDbVertex
100
AcDb2dVertex
 10
122.792505
 20
129.515264
 30
0.0
  0
VERTEX
  5
E1
330
DF
100
AcDbEntity
  8
LAYER_1
 62
     7
100
AcDbVertex
100
AcDb2dVertex
 10
121.855094
 20
129.264117
 30
0.0
  0
VERTEX
  5
E2
330
DF
100
AcDbEntity
  8
LAYER_1
 62
     7
100
AcDbVertex
100
AcDb2dVertex
 10
122.792505
 20
129.012625
 30
0.0
  0
VERTEX
  5
E3
330
DF
100
AcDbEntity
  8
LAYER_1
 62
     7
100
AcDbVertex
100
AcDb2dVertex
 10
122.792505
 20
129.515264
 30
0.0
  0
SEQEND
  5
E4
330
DF
100
AcDbEntity
  8
LAYER_1
 62
     7
  0
LINE
  5
DE
330
A
100
AcDbEntity
  8
LAYER_1
 62
     7
100
AcDbLine
 10
124.586711
 20
129.267217
 30
0.0
 11
122.085916
 21
129.267217
 31
0.0
  0
POLYLINE
  5
D8
330
A
100
AcDbEntity
  8
LAYER_1
 62
     7
100
AcDb2dPolyline
 66
     1
 10
0.0
 20
0.0
 30
0.0
  0
VERTEX
  5
D9
330
D8
100
AcDbEntity
  8
LAYER_1
 62
     7
100
AcDbVertex
100
AcDb2dVertex
 10
120.267594
 20
129.012969
 30
0.0
  0
VERTEX
  5
DA
330
D8
100
AcDbEntity
  8
LAYER_1
 62
     7
100
AcDbVertex
100
AcDb2dVertex
 10
121.205005
 20
129.264117
 30
0.0
  0
VERTEX
  5
DB
330
D8
100
AcDbEntity
  8
LAYER_1
 62
     7
100
AcDbVertex
100
AcDb2dVertex
 10
120.267594
 20
129.515609
 30
0.0
  0
VERTEX
  5
DC
330
D8
100
AcDbEntity
  8
LAYER_1
 62
     7
100
AcDbVertex
100
AcDb2dVertex
 10
120.267594
 20
129.012969
 30
0.0
  0
SEQEND
  5
DD
330
D8
100
AcDbEntity
  8
LAYER_1
 62
     7
  0
LINE
  5
D7
330
A
100
AcDbEntity
  8
LAYER_1
 62
     7
100
AcDbLine
 10
118.473389
 20
129.261016
 30
0.0
 11
120.974183
 21
129.261016
 31
0.0
  0
MTEXT
  5
D6
330
A
100
AcDbEntity
  8
LAYER_1
 62
     7
100
AcDbMText
 10
125.37047
 20
130.028698
 30
0.0
 40
1.837383999999999
 41
0.0
 71
     1
 72
     2
  1
\fGill Sans|b0|i0;2.5
  7
STD
 73
     1
 44
1.0
1001
ACAD
1000
MTEXTBEGIN
1070
    73
1070
     1
1070
    44
1040
1.0
1070
    74
1070
     0
1000
MTEXTEND
  0
POLYLINE
  5
D0
330
A
100
AcDbEntity
  8
LAYER_1
 62
     7
100
AcDb2dPolyline
 66
     1
 10
0.0
 20
0.0
 30
0.0
  0
VERTEX
  5
D1
330
D0
100
AcDbEntity
  8
LAYER_1
 62
     7
100
AcDbVertex
100
AcDb2dVertex
 10
122.320182
 20
146.178502
 30
0.0
  0
VERTEX
  5
D2
330
D0
100
AcDbEntity
  8
LAYER_1
 62
     7
100
AcDbVertex
100
AcDb2dVertex
 10
123.257937
 20
146.42965
 30
0.0
  0
VERTEX
  5
D3
330
D0
100
AcDbEntity
  8
LAYER_1
 62
     7
100
AcDbVertex
100
AcDb2dVertex
 10
122.320182
 20
146.680797
 30
0.0
  0
VERTEX
  5
D4
330
D0
100
AcDbEntity
  8
LAYER_1
 62
     7
100
AcDbVertex
100
AcDb2dVertex
 10
122.320182
 20
146.178502
 30
0.0
  0
SEQEND
  5
D5
330
D0
100
AcDbEntity
  8
LAYER_1
 62
     7
  0
POLYLINE
  5
CA
330
A
100
AcDbEntity
  8
LAYER_1
 62
     7
100
AcDb2dPolyline
 66
     1
 10
0.0
 20
0.0
 30
0.0
  0
VERTEX
  5
CB
330
CA
100
AcDbEntity
  8
LAYER_1
 62
     7
100
AcDbVertex
100
AcDb2dVertex
 10
101.426367
 20
146.674596
 30
0.0
  0
VERTEX
  5
CC
330
CA
100
AcDbEntity
  8
LAYER_1
 62
     7
100
AcDbVertex
100
AcDb2dVertex
 10
100.488612
 20
146.423448
 30
0.0
  0
VERTEX
  5
CD
330
CA
100
AcDbEntity
  8
LAYER_1
 62
     7
100
AcDbVertex
100
AcDb2dVertex
 10
101.426367
 20
146.171956
 30
0.0
  0
VERTEX
  5
CE
330
CA
100
AcDbEntity
  8
LAYER_1
 62
     7
100
AcDbVertex
100
AcDb2dVertex
 10
101.426367
 20
146.674596
 30
0.0
  0
SEQEND
  5
CF
330
CA
100
AcDbEntity
  8
LAYER_1
 62
     7
  0
LINE
  5
C9
330
A
100
AcDbEntity
  8
LAYER_1
 62
     7
100
AcDbLine
 10
100.863439
 20
146.426549
 30
0.0
 11
123.02746
 21
146.426549
 31
0.0
  0
MTEXT
  5
C8
330
A
100
AcDbEntity
  8
LAYER_1
 62
     7
100
AcDbMText
 10
110.449072
 20
148.789179
 30
0.0
 40
1.608498999999999
 41
0.0
 71
     1
 72
     2
  1
\fGill Sans|b0|i0;140
  7
STD
 73
     1
 44
1.0
1001
ACAD
1000
MTEXTBEGIN
1070
    73
1070
     1
1070
    44
1040
1.0
1070
    74
1070
     0
1000
MTEXTEND
  0
POLYLINE
  5
C2
330
A
100
AcDbEntity
  8
LAYER_1
 62
     7
100
AcDb2dPolyline
 66
     1
 10
0.0
 20
0.0
 30
0.0
  0
VERTEX
  5
C3
330
C2
100
AcDbEntity
  8
LAYER_1
 62
     7
100
AcDbVertex
100
AcDb2dVertex
 10
119.514497
 20
154.048823
 30
0.0
  0
VERTEX
  5
C4
330
C2
100
AcDbEntity
  8
LAYER_1
 62
     7
100
AcDbVertex
100
AcDb2dVertex
 10
120.452252
 20
154.29997
 30
0.0
  0
VERTEX
  5
C5
330
C2
100
AcDbEntity
  8
LAYER_1
 62
     7
100
AcDbVertex
100
AcDb2dVertex
 10
119.514497
 20
154.551118
 30
0.0
  0
VERTEX
  5
C6
330
C2
100
AcDbEntity
  8
LAYER_1
 62
     7
100
AcDbVertex
100
AcDb2dVertex
 10
119.514497
 20
154.048823
 30
0.0
  0
SEQEND
  5
C7
330
C2
100
AcDbEntity
  8
LAYER_1
 62
     7
  0
POLYLINE
  5
BC
330
A
100
AcDbEntity
  8
LAYER_1
 62
     7
100
AcDb2dPolyline
 66
     1
 10
0.0
 20
0.0
 30
0.0
  0
VERTEX
  5
BD
330
BC
100
AcDbEntity
  8
LAYER_1
 62
     7
100
AcDbVertex
100
AcDb2dVertex
 10
104.844935
 20
154.544916
 30
0.0
  0
VERTEX
  5
BE
330
BC
100
AcDbEntity
  8
LAYER_1
 62
     7
100
AcDbVertex
100
AcDb2dVertex
 10
103.907869
 20
154.293769
 30
0.0
  0
VERTEX
  5
BF
330
BC
100
AcDbEntity
  8
LAYER_1
 62
     7
100
AcDbVertex
100
AcDb2dVertex
 10
104.844935
 20
154.042622
 30
0.0
  0
VERTEX
  5
C0
330
BC
100
AcDbEntity
  8
LAYER_1
 62
     7
100
AcDbVertex
100
AcDb2dVertex
 10
104.844935
 20
154.544916
 30
0.0
  0
SEQEND
  5
C1
330
BC
100
AcDbEntity
  8
LAYER_1
 62
     7
  0
LINE
  5
BB
330
A
100
AcDbEntity
  8
LAYER_1
 62
     7
100
AcDbLine
 10
104.282696
 20
154.29687
 30
0.0
 11
120.221086
 21
154.29687
 31
0.0
  0
MTEXT
  5
BA
330
A
100
AcDbEntity
  8
LAYER_1
 62
     7
100
AcDbMText
 10
110.518663
 20
156.477385
 30
0.0
 40
1.837383999999999
 41
0.0
 71
     1
 72
     2
  1
\fGill Sans|b0|i0; 100
  7
STD
 73
     1
 44
1.0
1001
ACAD
1000
MTEXTBEGIN
1070
    73
1070
     1
1070
    44
1040
1.0
1070
    74
1070
     0
1000
MTEXTEND
  0
POLYLINE
  5
B4
330
A
100
AcDbEntity
  8
LAYER_1
 62
     7
100
AcDb2dPolyline
 66
     1
 10
0.0
 20
0.0
 30
0.0
  0
VERTEX
  5
B5
330
B4
100
AcDbEntity
  8
LAYER_1
 62
     7
100
AcDbVertex
100
AcDb2dVertex
 10
115.158173
 20
165.177342
 30
0.0
  0
VERTEX
  5
B6
330
B4
100
AcDbEntity
  8
LAYER_1
 62
     7
100
AcDbVertex
100
AcDb2dVertex
 10
116.095928
 20
165.42849
 30
0.0
  0
VERTEX
  5
B7
330
B4
100
AcDbEntity
  8
LAYER_1
 62
     7
100
AcDbVertex
100
AcDb2dVertex
 10
115.158173
 20
165.679637
 30
0.0
  0
VERTEX
  5
B8
330
B4
100
AcDbEntity
  8
LAYER_1
 62
     7
100
AcDbVertex
100
AcDb2dVertex
 10
115.158173
 20
165.177342
 30
0.0
  0
SEQEND
  5
B9
330
B4
100
AcDbEntity
  8
LAYER_1
 62
     7
  0
POLYLINE
  5
AE
330
A
100
AcDbEntity
  8
LAYER_1
 62
     7
100
AcDb2dPolyline
 66
     1
 10
0.0
 20
0.0
 30
0.0
  0
VERTEX
  5
AF
330
AE
100
AcDbEntity
  8
LAYER_1
 62
     7
100
AcDbVertex
100
AcDb2dVertex
 10
108.748573
 20
165.673781
 30
0.0
  0
VERTEX
  5
B0
330
AE
100
AcDbEntity
  8
LAYER_1
 62
     7
100
AcDbVertex
100
AcDb2dVertex
 10
107.811507
 20
165.422633
 30
0.0
  0
VERTEX
  5
B1
330
AE
100
AcDbEntity
  8
LAYER_1
 62
     7
100
AcDbVertex
100
AcDb2dVertex
 10
108.748573
 20
165.171313
 30
0.0
  0
VERTEX
  5
B2
330
AE
100
AcDbEntity
  8
LAYER_1
 62
     7
100
AcDbVertex
100
AcDb2dVertex
 10
108.748573
 20
165.673781
 30
0.0
  0
SEQEND
  5
B3
330
AE
100
AcDbEntity
  8
LAYER_1
 62
     7
  0
LINE
  5
AD
330
A
100
AcDbEntity
  8
LAYER_1
 62
     7
100
AcDbLine
 10
108.186334
 20
165.425734
 30
0.0
 11
115.864762
 21
165.425734
 31
0.0
  0
MTEXT
  5
AC
330
A
100
AcDbEntity
  8
LAYER_1
 62
     7
100
AcDbMText
 10
110.664735
 20
167.918892
 30
0.0
 40
1.837383999999999
 41
0.0
 71
     1
 72
     2
  1
\fGill Sans|b0|i0;50
  7
STD
 73
     1
 44
1.0
1001
ACAD
1000
MTEXTBEGIN
1070
    73
1070
     1
1070
    44
1040
1.0
1070
    74
1070
     0
1000
MTEXTEND
  0
POLYLINE
  5
A6
330
A
100
AcDbEntity
  8
LAYER_1
 62
     7
100
AcDb2dPolyline
 66
     1
 10
0.0
 20
0.0
 30
0.0
  0
VERTEX
  5
A7
330
A6
100
AcDbEntity
  8
LAYER_1
 62
     7
100
AcDbVertex
100
AcDb2dVertex
 10
124.60118
 20
168.319958
 30
0.0
  0
VERTEX
  5
A8
330
A6
100
AcDbEntity
  8
LAYER_1
 62
     7
100
AcDbVertex
100
AcDb2dVertex
 10
123.664114
 20
168.069156
 30
0.0
  0
VERTEX
  5
A9
330
A6
100
AcDbEntity
  8
LAYER_1
 62
     7
100
AcDbVertex
100
AcDb2dVertex
 10
124.60118
 20
167.817491
 30
0.0
  0
VERTEX
  5
AA
330
A6
100
AcDbEntity
  8
LAYER_1
 62
     7
100
AcDbVertex
100
AcDb2dVertex
 10
124.60118
 20
168.319958
 30
0.0
  0
SEQEND
  5
AB
330
A6
100
AcDbEntity
  8
LAYER_1
 62
     7
  0
LINE
  5
A5
330
A
100
AcDbEntity
  8
LAYER_1
 62
     7
100
AcDbLine
 10
126.395386
 20
168.071912
 30
0.0
 11
123.894591
 21
168.071912
 31
0.0
  0
POLYLINE
  5
9F
330
A
100
AcDbEntity
  8
LAYER_1
 62
     7
100
AcDb2dPolyline
 66
     1
 10
0.0
 20
0.0
 30
0.0
  0
VERTEX
  5
A0
330
9F
100
AcDbEntity
  8
LAYER_1
 62
     7
100
AcDbVertex
100
AcDb2dVertex
 10
119.338797
 20
167.817664
 30
0.0
  0
VERTEX
  5
A1
330
9F
100
AcDbEntity
  8
LAYER_1
 62
     7
100
AcDbVertex
100
AcDb2dVertex
 10
120.276207
 20
168.069156
 30
0.0
  0
VERTEX
  5
A2
330
9F
100
AcDbEntity
  8
LAYER_1
 62
     7
100
AcDbVertex
100
AcDb2dVertex
 10
119.338797
 20
168.320131
 30
0.0
  0
VERTEX
  5
A3
330
9F
100
AcDbEntity
  8
LAYER_1
 62
     7
100
AcDbVertex
100
AcDb2dVertex
 10
119.338797
 20
167.817664
 30
0.0
  0
SEQEND
  5
A4
330
9F
100
AcDbEntity
  8
LAYER_1
 62
     7
  0
LINE
  5
9E
330
A
100
AcDbEntity
  8
LAYER_1
 62
     7
100
AcDbLine
 10
117.544591
 20
168.06571
 30
0.0
 11
120.045386
 21
168.06571
 31
0.0
  0
MTEXT
  5
9D
330
A
100
AcDbEntity
  8
LAYER_1
 62
     7
100
AcDbMText
 10
120.878065
 20
168.83322
 30
0.0
 40
1.837383999999999
 41
0.0
 71
     1
 72
     2
  1
\fGill Sans|b0|i0;20
  7
STD
 73
     1
 44
1.0
1001
ACAD
1000
MTEXTBEGIN
1070
    73
1070
     1
1070
    44
1040
1.0
1070
    74
1070
     0
1000
MTEXTEND
  0
POLYLINE
  5
97
330
A
100
AcDbEntity
  8
LAYER_1
 62
     7
100
AcDb2dPolyline
 66
     1
 10
0.0
 20
0.0
 30
0.0
  0
VERTEX
  5
98
330
97
100
AcDbEntity
  8
LAYER_1
 62
     7
100
AcDbVertex
100
AcDb2dVertex
 10
129.98552
 20
154.11738
 30
0.0
  0
VERTEX
  5
99
330
97
100
AcDbEntity
  8
LAYER_1
 62
     7
100
AcDbVertex
100
AcDb2dVertex
 10
130.92293
 20
154.368528
 30
0.0
  0
VERTEX
  5
9A
330
97
100
AcDbEntity
  8
LAYER_1
 62
     7
100
AcDbVertex
100
AcDb2dVertex
 10
129.98552
 20
154.619331
 30
0.0
  0
VERTEX
  5
9B
330
97
100
AcDbEntity
  8
LAYER_1
 62
     7
100
AcDbVertex
100
AcDb2dVertex
 10
129.98552
 20
154.11738
 30
0.0
  0
SEQEND
  5
9C
330
97
100
AcDbEntity
  8
LAYER_1
 62
     7
  0
POLYLINE
  5
91
330
A
100
AcDbEntity
  8
LAYER_1
 62
     7
100
AcDb2dPolyline
 66
     1
 10
0.0
 20
0.0
 30
0.0
  0
VERTEX
  5
92
330
91
100
AcDbEntity
  8
LAYER_1
 62
     7
100
AcDbVertex
100
AcDb2dVertex
 10
124.692475
 20
154.613474
 30
0.0
  0
VERTEX
  5
93
330
91
100
AcDbEntity
  8
LAYER_1
 62
     7
100
AcDbVertex
100
AcDb2dVertex
 10
123.755065
 20
154.362326
 30
0.0
  0
VERTEX
  5
94
330
91
100
AcDbEntity
  8
LAYER_1
 62
     7
100
AcDbVertex
100
AcDb2dVertex
 10
124.692475
 20
154.111179
 30
0.0
  0
VERTEX
  5
95
330
91
100
AcDbEntity
  8
LAYER_1
 62
     7
100
AcDbVertex
100
AcDb2dVertex
 10
124.692475
 20
154.613474
 30
0.0
  0
SEQEND
  5
96
330
91
100
AcDbEntity
  8
LAYER_1
 62
     7
  0
LINE
  5
90
330
A
100
AcDbEntity
  8
LAYER_1
 62
     7
100
AcDbLine
 10
124.129891
 20
154.365427
 30
0.0
 11
130.692453
 21
154.365427
 31
0.0
  0
MTEXT
  5
8F
330
A
100
AcDbEntity
  8
LAYER_1
 62
     7
100
AcDbMText
 10
126.603125
 20
156.764654
 30
0.0
 40
1.724333
 41
0.0
 71
     1
 72
     2
  1
\W1.07;\fGill Sans|b0|i0;42
  7
STD
 73
     1
 44
1.0
1001
ACAD
1000
MTEXTBEGIN
1070
    73
1070
     1
1070
    44
1040
1.0
1070
    74
1070
     0
1000
MTEXTEND
  0
MTEXT
  5
8E
330
A
100
AcDbEntity
  8
LAYER_1
 62
     7
100
AcDbMText
 10
84.29390699999999
 20
161.619879
 30
0.0
 40
1.837383999999999
 41
0.0
 71
     1
 72
     2
  1
\fGill Sans|b0|i0;19
  7
STD
 73
     1
 44
1.0
1001
ACAD
1000
MTEXTBEGIN
1070
    73
1070
     1
1070
    44
1040
1.0
1070
    74
1070
     0
1000
MTEXTEND
  0
POLYLINE
  5
88
330
A
100
AcDbEntity
  8
LAYER_1
 62
     7
100
AcDb2dPolyline
 66
     1
 10
0.0
 20
0.0
 30
0.0
  0
VERTEX
  5
89
330
88
100
AcDbEntity
  8
LAYER_1
 62
     7
100
AcDbVertex
100
AcDb2dVertex
 10
87.93916299999999
 20
161.245627
 30
0.0
  0
VERTEX
  5
8A
330
88
100
AcDbEntity
  8
LAYER_1
 62
     7
100
AcDbVertex
100
AcDb2dVertex
 10
87.68836
 20
162.18321
 30
0.0
  0
VERTEX
  5
8B
330
88
100
AcDbEntity
  8
LAYER_1
 62
     7
100
AcDbVertex
100
AcDb2dVertex
 10
87.43703999999999
 20
161.245627
 30
0.0
  0
VERTEX
  5
8C
330
88
100
AcDbEntity
  8
LAYER_1
 62
     7
100
AcDbVertex
100
AcDb2dVertex
 10
87.93916299999999
 20
161.245627
 30
0.0
  0
SEQEND
  5
8D
330
88
100
AcDbEntity
  8
LAYER_1
 62
     7
  0
POLYLINE
  5
82
330
A
100
AcDbEntity
  8
LAYER_1
 62
     7
100
AcDb2dPolyline
 66
     1
 10
0.0
 20
0.0
 30
0.0
  0
VERTEX
  5
83
330
82
100
AcDbEntity
  8
LAYER_1
 62
     7
100
AcDbVertex
100
AcDb2dVertex
 10
87.44306899999999
 20
159.97232
 30
0.0
  0
VERTEX
  5
84
330
82
100
AcDbEntity
  8
LAYER_1
 62
     7
100
AcDbVertex
100
AcDb2dVertex
 10
87.69456099999999
 20
159.034909
 30
0.0
  0
VERTEX
  5
85
330
82
100
AcDbEntity
  8
LAYER_1
 62
     7
100
AcDbVertex
100
AcDb2dVertex
 10
87.945364
 20
159.97232
 30
0.0
  0
VERTEX
  5
86
330
82
100
AcDbEntity
  8
LAYER_1
 62
     7
100
AcDbVertex
100
AcDb2dVertex
 10
87.44306899999999
 20
159.97232
 30
0.0
  0
SEQEND
  5
87
330
82
100
AcDbEntity
  8
LAYER_1
 62
     7
  0
LINE
  5
81
330
A
100
AcDbEntity
  8
LAYER_1
 62
     7
100
AcDbLine
 10
87.691116
 20
159.409736
 30
0.0
 11
87.691116
 21
161.952216
 31
0.0
  0
MTEXT
  5
80
330
A
100
AcDbEntity
  8
LAYER_1
 62
     7
100
AcDbMText
 10
134.106543
 20
161.658809
 30
0.0
 40
1.837383999999999
 41
0.0
 71
     1
 72
     2
  1
\fGill Sans|b0|i0;18
  7
STD
 73
     1
 44
1.0
1001
ACAD
1000
MTEXTBEGIN
1070
    73
1070
     1
1070
    44
1040
1.0
1070
    74
1070
     0
1000
MTEXTEND
  0
POLYLINE
  5
7A
330
A
100
AcDbEntity
  8
LAYER_1
 62
     7
100
AcDb2dPolyline
 66
     1
 10
0.0
 20
0.0
 30
0.0
  0
VERTEX
  5
7B
330
7A
100
AcDbEntity
  8
LAYER_1
 62
     7
100
AcDbVertex
100
AcDb2dVertex
 10
135.457365
 20
158.063392
 30
0.0
  0
VERTEX
  5
7C
330
7A
100
AcDbEntity
  8
LAYER_1
 62
     7
100
AcDbVertex
100
AcDb2dVertex
 10
135.205873
 20
159.000803
 30
0.0
  0
VERTEX
  5
7D
330
7A
100
AcDbEntity
  8
LAYER_1
 62
     7
100
AcDbVertex
100
AcDb2dVertex
 10
134.95507
 20
158.063392
 30
0.0
  0
VERTEX
  5
7E
330
7A
100
AcDbEntity
  8
LAYER_1
 62
     7
100
AcDbVertex
100
AcDb2dVertex
 10
135.457365
 20
158.063392
 30
0.0
  0
SEQEND
  5
7F
330
7A
100
AcDbEntity
  8
LAYER_1
 62
     7
  0
LINE
  5
79
330
A
100
AcDbEntity
  8
LAYER_1
 62
     7
100
AcDbLine
 10
135.209318
 20
156.269014
 30
0.0
 11
135.209318
 21
158.770154
 31
0.0
  0
POLYLINE
  5
73
330
A
100
AcDbEntity
  8
LAYER_1
 62
     7
100
AcDb2dPolyline
 66
     1
 10
0.0
 20
0.0
 30
0.0
  0
VERTEX
  5
74
330
73
100
AcDbEntity
  8
LAYER_1
 62
     7
100
AcDbVertex
100
AcDb2dVertex
 10
134.95507
 20
162.949399
 30
0.0
  0
VERTEX
  5
75
330
73
100
AcDbEntity
  8
LAYER_1
 62
     7
100
AcDbVertex
100
AcDb2dVertex
 10
135.205873
 20
162.012333
 30
0.0
  0
VERTEX
  5
76
330
73
100
AcDbEntity
  8
LAYER_1
 62
     7
100
AcDbVertex
100
AcDb2dVertex
 10
135.457709
 20
162.949399
 30
0.0
  0
VERTEX
  5
77
330
73
100
AcDbEntity
  8
LAYER_1
 62
     7
100
AcDbVertex
100
AcDb2dVertex
 10
134.95507
 20
162.949399
 30
0.0
  0
SEQEND
  5
78
330
73
100
AcDbEntity
  8
LAYER_1
 62
     7
  0
LINE
  5
72
330
A
100
AcDbEntity
  8
LAYER_1
 62
     7
100
AcDbLine
 10
135.203117
 20
164.743949
 30
0.0
 11
135.203117
 21
162.24281
 31
0.0
  0
POLYLINE
  5
6C
330
A
100
AcDbEntity
  8
LAYER_1
 62
     7
100
AcDb2dPolyline
 66
     1
 10
0.0
 20
0.0
 30
0.0
  0
VERTEX
  5
6D
330
6C
100
AcDbEntity
  8
LAYER_1
 62
     7
100
AcDbVertex
100
AcDb2dVertex
 10
121.097173
 20
157.735247
 30
0.0
  0
VERTEX
  5
6E
330
6C
100
AcDbEntity
  8
LAYER_1
 62
     7
100
AcDbVertex
100
AcDb2dVertex
 10
120.499105
 20
158.499197
 30
0.0
  0
VERTEX
  5
6F
330
6C
100
AcDbEntity
  8
LAYER_1
 62
     7
100
AcDbVertex
100
AcDb2dVertex
 10
120.635186
 20
157.538188
 30
0.0
  0
VERTEX
  5
70
330
6C
100
AcDbEntity
  8
LAYER_1
 62
     7
100
AcDbVertex
100
AcDb2dVertex
 10
121.097173
 20
157.735247
 30
0.0
  0
SEQEND
  5
71
330
6C
100
AcDbEntity
  8
LAYER_1
 62
     7
  0
POLYLINE
  5
67
330
A
100
AcDbEntity
  8
LAYER_1
 62
     7
100
AcDb2dPolyline
 66
     1
 10
0.0
 20
0.0
 30
0.0
  0
VERTEX
  5
68
330
67
100
AcDbEntity
  8
LAYER_1
 62
     7
100
AcDbVertex
100
AcDb2dVertex
 10
120.592122
 20
158.2880129999999
 30
0.0
  0
VERTEX
  5
69
330
67
100
AcDbEntity
  8
LAYER_1
 62
     7
100
AcDbVertex
100
AcDb2dVertex
 10
121.572597
 20
155.987206
 30
0.0
  0
VERTEX
  5
6A
330
67
100
AcDbEntity
  8
LAYER_1
 62
     7
100
AcDbVertex
100
AcDb2dVertex
 10
121.572597
 20
152.327998
 30
0.0
  0
SEQEND
  5
6B
330
67
100
AcDbEntity
  8
LAYER_1
 62
     7
  0
MTEXT
  5
66
330
A
100
AcDbEntity
  8
LAYER_1
  6
AI9-LTYPE1
 62
     7
100
AcDbMText
 10
117.197325
 20
151.702119
 30
0.0
 40
1.222069999999999
 41
0.0
 71
     1
 72
     2
  1
\fGill Sans|b0|i0; 
  7
STD
 73
     1
 44
1.0
1001
ACAD
1000
MTEXTBEGIN
1070
    73
1070
     1
1070
    44
1040
1.0
1070
    74
1070
     0
1000
MTEXTEND
  0
MTEXT
  5
65
330
A
100
AcDbEntity
  8
LAYER_1
  6
AI9-LTYPE1
 62
     7
100
AcDbMText
 10
116.612348
 20
151.617045
 30
0.0
 40
1.837383999999999
 41
0.0
 71
     1
 72
     2
  1
\fGill Sans|b0|i0;(a) Tapped M5
  7
STD
 73
     1
 44
1.0
1001
ACAD
1000
MTEXTBEGIN
1070
    73
1070
     1
1070
    44
1040
1.0
1070
    74
1070
     0
1000
MTEXTEND
  0
INSERT
  5
56
330
A
100
AcDbEntity
  8
LAYER_1
 62
     7
100
AcDbBlockReference
  2
AI9-BLK3
 10
95.94255
 20
160.585288
 30
0.0
  0
INSERT
  5
50
330
A
100
AcDbEntity
  8
LAYER_1
 62
     7
100
AcDbBlockReference
  2
AI9-BLK2
 10
97.76491999999999
 20
160.562206
 30
0.0
  0
MTEXT
  5
4E
330
A
100
AcDbEntity
  8
LAYER_1
 62
     7
100
AcDbMText
 10
91.29089599999998
 20
168.197256
 30
0.0
 40
1.837383999999999
 41
0.0
 71
     1
 72
     2
  1
\fGill Sans|b0|i0;\M+100D810
  7
STD
 73
     1
 44
1.0
1001
ACAD
1000
MTEXTBEGIN
1070
    73
1070
     1
1070
    44
1040
1.0
1070
    74
1070
     0
1000
MTEXTEND
  0
POLYLINE
  5
48
330
A
100
AcDbEntity
  8
LAYER_1
 62
     7
100
AcDb2dPolyline
 66
     1
 10
0.0
 20
0.0
 30
0.0
  0
VERTEX
  5
49
330
48
100
AcDbEntity
  8
LAYER_1
 62
     7
100
AcDbVertex
100
AcDb2dVertex
 10
93.21153699999999
 20
162.525997
 30
0.0
  0
VERTEX
  5
4A
330
48
100
AcDbEntity
  8
LAYER_1
 62
     7
100
AcDbVertex
100
AcDb2dVertex
 10
93.46302900000001
 20
161.588931
 30
0.0
  0
VERTEX
  5
4B
330
48
100
AcDbEntity
  8
LAYER_1
 62
     7
100
AcDbVertex
100
AcDb2dVertex
 10
93.713832
 20
162.525997
 30
0.0
  0
VERTEX
  5
4C
330
48
100
AcDbEntity
  8
LAYER_1
 62
     7
100
AcDbVertex
100
AcDb2dVertex
 10
93.21153699999999
 20
162.525997
 30
0.0
  0
SEQEND
  5
4D
330
48
100
AcDbEntity
  8
LAYER_1
 62
     7
  0
LINE
  5
47
330
A
100
AcDbEntity
  8
LAYER_1
 62
     7
100
AcDbLine
 10
93.45958399999998
 20
161.963585
 30
0.0
 11
93.45958399999998
 21
165.831911
 31
0.0
  0
INSERT
  5
42
330
A
100
AcDbEntity
  8
LAYER_1
 62
     7
100
AcDbBlockReference
  2
AI9-BLK1
 10
95.916884
 20
156.3243939999999
 30
0.0
  0
POLYLINE
  5
3B
330
A
100
AcDbEntity
  8
LAYER_1
 62
     7
100
AcDb2dPolyline
 66
     1
 10
0.0
 20
0.0
 30
0.0
  0
VERTEX
  5
3C
330
3B
100
AcDbEntity
  8
LAYER_1
 62
     7
100
AcDbVertex
100
AcDb2dVertex
 10
99.26078000000002
 20
155.286129
 30
0.0
  0
VERTEX
  5
3D
330
3B
100
AcDbEntity
  8
LAYER_1
 62
     7
100
AcDbVertex
100
AcDb2dVertex
 10
100.198191
 20
155.537276
 30
0.0
  0
VERTEX
  5
3E
330
3B
100
AcDbEntity
  8
LAYER_1
 62
     7
100
AcDbVertex
100
AcDb2dVertex
 10
99.26078000000002
 20
155.788251
 30
0.0
  0
VERTEX
  5
3F
330
3B
100
AcDbEntity
  8
LAYER_1
 62
     7
100
AcDbVertex
100
AcDb2dVertex
 10
99.26078000000002
 20
155.286129
 30
0.0
  0
SEQEND
  5
40
330
3B
100
AcDbEntity
  8
LAYER_1
 62
     7
  0
POLYLINE
  5
35
330
A
100
AcDbEntity
  8
LAYER_1
 62
     7
100
AcDb2dPolyline
 66
     1
 10
0.0
 20
0.0
 30
0.0
  0
VERTEX
  5
36
330
35
100
AcDbEntity
  8
LAYER_1
 62
     7
100
AcDbVertex
100
AcDb2dVertex
 10
92.631727
 20
155.782222
 30
0.0
  0
VERTEX
  5
37
330
35
100
AcDbEntity
  8
LAYER_1
 62
     7
100
AcDbVertex
100
AcDb2dVertex
 10
91.69466099999999
 20
155.530903
 30
0.0
  0
VERTEX
  5
38
330
35
100
AcDbEntity
  8
LAYER_1
 62
     7
100
AcDbVertex
100
AcDb2dVertex
 10
92.631727
 20
155.279755
 30
0.0
  0
VERTEX
  5
39
330
35
100
AcDbEntity
  8
LAYER_1
 62
     7
100
AcDbVertex
100
AcDb2dVertex
 10
92.631727
 20
155.782222
 30
0.0
  0
SEQEND
  5
3A
330
35
100
AcDbEntity
  8
LAYER_1
 62
     7
  0
LINE
  5
34
330
A
100
AcDbEntity
  8
LAYER_1
 62
     7
100
AcDbLine
 10
92.06948800000001
 20
155.534176
 30
0.0
 11
99.967714
 21
155.534176
 31
0.0
  0
MTEXT
  5
33
330
A
100
AcDbEntity
  8
LAYER_1
 62
     7
100
AcDbMText
 10
94.769754
 20
158.200278
 30
0.0
 40
1.837383999999999
 41
0.0
 71
     1
 72
     2
  1
\fGill Sans|b0|i0;50
  7
STD
 73
     1
 44
1.0
1001
ACAD
1000
MTEXTBEGIN
1070
    73
1070
     1
1070
    44
1040
1.0
1070
    74
1070
     0
1000
MTEXTEND
  0
POLYLINE
  5
2D
330
A
100
AcDbEntity
  8
LAYER_1
 62
     7
100
AcDb2dPolyline
 66
     1
 10
0.0
 20
0.0
 30
0.0
  0
VERTEX
  5
2E
330
2D
100
AcDbEntity
  8
LAYER_1
 62
     7
100
AcDbVertex
100
AcDb2dVertex
 10
102.053719
 20
157.811211
 30
0.0
  0
VERTEX
  5
2F
330
2D
100
AcDbEntity
  8
LAYER_1
 62
     7
100
AcDbVertex
100
AcDb2dVertex
 10
101.802916
 20
158.748622
 30
0.0
  0
VERTEX
  5
30
330
2D
100
AcDbEntity
  8
LAYER_1
 62
     7
100
AcDbVertex
100
AcDb2dVertex
 10
101.551424
 20
157.811211
 30
0.0
  0
VERTEX
  5
31
330
2D
100
AcDbEntity
  8
LAYER_1
 62
     7
100
AcDbVertex
100
AcDb2dVertex
 10
102.053719
 20
157.811211
 30
0.0
  0
SEQEND
  5
32
330
2D
100
AcDbEntity
  8
LAYER_1
 62
     7
  0
LINE
  5
2C
330
A
100
AcDbEntity
  8
LAYER_1
 62
     7
100
AcDbLine
 10
101.805672
 20
156.017006
 30
0.0
 11
101.805672
 21
158.517973
 31
0.0
  0
POLYLINE
  5
26
330
A
100
AcDbEntity
  8
LAYER_1
 62
     7
100
AcDb2dPolyline
 66
     1
 10
0.0
 20
0.0
 30
0.0
  0
VERTEX
  5
27
330
26
100
AcDbEntity
  8
LAYER_1
 62
     7
100
AcDbVertex
100
AcDb2dVertex
 10
101.551424
 20
163.176431
 30
0.0
  0
VERTEX
  5
28
330
26
100
AcDbEntity
  8
LAYER_1
 62
     7
100
AcDbVertex
100
AcDb2dVertex
 10
101.802916
 20
162.239193
 30
0.0
  0
VERTEX
  5
29
330
26
100
AcDbEntity
  8
LAYER_1
 62
     7
100
AcDbVertex
100
AcDb2dVertex
 10
102.054064
 20
163.176431
 30
0.0
  0
VERTEX
  5
2A
330
26
100
AcDbEntity
  8
LAYER_1
 62
     7
100
AcDbVertex
100
AcDb2dVertex
 10
101.551424
 20
163.176431
 30
0.0
  0
SEQEND
  5
2B
330
26
100
AcDbEntity
  8
LAYER_1
 62
     7
  0
LINE
  5
25
330
A
100
AcDbEntity
  8
LAYER_1
 62
     7
100
AcDbLine
 10
101.799471
 20
164.970637
 30
0.0
 11
101.799471
 21
162.469497
 31
0.0
  0
MTEXT
  5
24
330
A
100
AcDbEntity
  8
LAYER_1
 62
     7
100
AcDbMText
 10
100.515484
 20
167.471374
 30
0.0
 40
1.837383999999999
 41
0.0
 71
     1
 72
     2
  1
\fGill Sans|b0|i0;20
  7
STD
 73
     1
 44
1.0
1001
ACAD
1000
MTEXTBEGIN
1070
    73
1070
     1
1070
    44
1040
1.0
1070
    74
1070
     0
1000
MTEXTEND
  0
MTEXT
  5
23
330
A
100
AcDbEntity
  8
LAYER_1
 62
     7
100
AcDbMText
 10
95.91679799999999
 20
117.238273
 30
0.0
 40
3.149802
 41
0.0
 71
     1
 72
     2
  1
\fGill Sans|b0|i0;mm (in)
  7
STD
 73
     1
 44
1.0
1001
ACAD
1000
MTEXTBEGIN
1070
    73
1070
     1
1070
    44
1040
1.0
1070
    74
1070
     0
1000
MTEXTEND
  0
MTEXT
  5
22
330
A
100
AcDbEntity
  8
LAYER_1
 62
     7
100
AcDbMText
 10
84.834271
 20
120.624802
 30
0.0
 40
3.149802
 41
0.0
 71
     1
 72
     2
  1
\fGill Sans|b0|i0;Sliding Bolt Actuator
  7
STD
 73
     1
 44
1.0
1001
ACAD
1000
MTEXTBEGIN
1070
    73
1070
     1
1070
    44
1040
1.0
1070
    74
1070
     0
1000
MTEXTEND
  0
ENDSEC
  0
SECTION
  2
OBJECTS
  0
DICTIONARY
  5
19
330
0
100
AcDbDictionary
281
     1
  3
ACAD_COLOR
350
1F7
  3
ACAD_GROUP
350
1A
  3
ACAD_LAYOUT
350
1FA
  3
ACAD_MATERIAL
350
1F6
  3
ACAD_MLINESTYLE
350
1B
  3
ACAD_PLOTSETTINGS
350
1FB
  3
ACAD_PLOTSTYLENAME
350
1F4
  3
ACAD_TABLESTYLE
350
1F8
  3
ACDBHEADERROUNDTRIPXREC
350
2BF
  3
AcDbVariableDictionary
350
2BA
  3
AcmDictionary
350
25B
  3
AMG
350
201
  3
AMGSNAPSETTINGS
350
2AF
  3
ASE_INDEX_DICTIONARY
350
2B7
  0
DICTIONARY
  5
1F7
102
{ACAD_REACTORS
330
19
102
}
330
19
100
AcDbDictionary
281
     1
  0
DICTIONARY
  5
1A
102
{ACAD_REACTORS
330
19
102
}
330
19
100
AcDbDictionary
281
     1
  0
DICTIONARY
  5
1FA
102
{ACAD_REACTORS
330
19
102
}
330
19
100
AcDbDictionary
281
     1
  3
Layout1
350
1FD
  3
Model
350
1FC
  0
DICTIONARY
  5
1F6
102
{ACAD_REACTORS
330
19
102
}
330
19
100
AcDbDictionary
281
     1
  0
DICTIONARY
  5
1B
102
{ACAD_REACTORS
330
19
102
}
330
19
100
AcDbDictionary
281
     1
  3
STANDARD
350
1C
  0
DICTIONARY
  5
1FB
102
{ACAD_REACTORS
330
19
102
}
330
19
100
AcDbDictionary
281
     1
  0
ACDBDICTIONARYWDFLT
  5
1F4
102
{ACAD_REACTORS
330
19
102
}
330
19
100
AcDbDictionary
281
     1
  3
Normal
350
1F5
100
AcDbDictionaryWithDefault
340
1F5
  0
DICTIONARY
  5
1F8
102
{ACAD_REACTORS
330
19
102
}
330
19
100
AcDbDictionary
281
     1
  3
Standard
350
1F9
  0
DICTIONARY
  5
2BF
102
{ACAD_REACTORS
330
19
102
}
330
19
100
AcDbDictionary
281
     1
  0
DICTIONARY
  5
2BA
102
{ACAD_REACTORS
330
19
102
}
330
19
100
AcDbDictionary
281
     1
  3
CTABLESTYLE
350
2BB
  3
DIMASSOC
350
2BC
  3
PROJECTNAME
350
2BD
  0
DICTIONARY
  5
25B
102
{ACAD_REACTORS
330
19
102
}
330
19
100
AcDbDictionary
281
     1
  3
AcmStdDictionary
350
266
  3
AMDTSECTSYM_ARROWCOLOR
350
285
  0
DICTIONARY
  5
201
102
{ACAD_REACTORS
330
19
102
}
330
19
100
AcDbDictionary
281
     1
  0
DICTIONARY
  5
2AF
102
{ACAD_REACTORS
330
19
102
}
330
19
100
AcDbDictionary
281
     1
  0
DICTIONARY
  5
2B7
102
{ACAD_REACTORS
330
19
102
}
330
19
100
AcDbDictionary
281
     1
  3
ASEBlockHierarchyIndexRecord
350
2B9
1001
DCO15
1040
1733131077.064
  0
LAYOUT
  5
1FD
102
{ACAD_XDICTIONARY
360
2C2
102
}
102
{ACAD_REACTORS
330
1FA
102
}
330
1FA
100
AcDbPlotSettings
  1

  2
\\USMKEVPRNT001\USMKEPD0431
  4

  6

 40
0.0
 41
0.0
 42
0.0
 43
0.0
 44
0.0
 45
0.0
 46
0.0
 47
0.0
 48
0.0
 49
0.0
140
0.0
141
0.0
142
1.0
143
1.0
 70
   688
 72
     0
 73
     0
 74
     5
  7

 75
    16
147
1.0
148
0.0
149
0.0
100
AcDbLayout
  1
Layout1
 70
     0
 71
     1
 10
0.0
 20
0.0
 11
12.0
 21
9.0
 12
0.0
 22
0.0
 32
0.0
 14
1.000000000000000E+20
 24
1.000000000000000E+20
 34
1.000000000000000E+20
 15
-1.000000000000000E+20
 25
-1.000000000000000E+20
 35
-1.000000000000000E+20
146
0.0
 13
0.0
 23
0.0
 33
0.0
 16
1.0
 26
0.0
 36
0.0
 17
0.0
 27
1.0
 37
0.0
 76
     0
330
B
  0
LAYOUT
  5
1FC
102
{ACAD_XDICTIONARY
360
2C0
102
}
102
{ACAD_REACTORS
330
1FA
102
}
330
1FA
100
AcDbPlotSettings
  1

  2
\\USMKEVPRNT001\USMKEPD0431
  4

  6

 40
0.0
 41
0.0
 42
0.0
 43
0.0
 44
0.0
 45
0.0
 46
0.0
 47
0.0
 48
0.0
 49
0.0
140
0.0
141
0.0
142
1.0
143
1.0
 70
  1712
 72
     0
 73
     0
 74
     0
  7

 75
     0
147
1.0
148
0.0
149
0.0
100
AcDbLayout
  1
Model
 70
     1
 71
     0
 10
0.0
 20
0.0
 11
12.0
 21
9.0
 12
0.0
 22
0.0
 32
0.0
 14
0.0
 24
0.0
 34
0.0
 15
0.0
 25
0.0
 35
0.0
146
0.0
 13
0.0
 23
0.0
 33
0.0
 16
1.0
 26
0.0
 36
0.0
 17
0.0
 27
1.0
 37
0.0
 76
     0
330
A
  0
MLINESTYLE
  5
1C
102
{ACAD_REACTORS
330
1B
102
}
330
1B
100
AcDbMlineStyle
  2
STANDARD
 70
     0
  3

 62
     0
 51
90.0
 52
90.0
 71
     2
 49
0.5
 62
   256
  6
BYLAYER
 49
-0.5
 62
   256
  6
BYLAYER
  0
ACDBPLACEHOLDER
  5
1F5
102
{ACAD_REACTORS
330
1F4
102
}
330
1F4
  0
TABLESTYLE
  5
1F9
102
{ACAD_REACTORS
330
1F8
102
}
330
1F8
100
AcDbTableStyle
  3
Standard
 70
     0
 71
     0
 40
0.06
 41
0.06
280
     0
281
     0
  7
STANDARD
140
0.18
170
     2
 62
     0
 63
     7
283
     0
274
    -2
284
     1
 64
     0
275
    -2
285
     1
 65
     0
276
    -2
286
     1
 66
     0
277
    -2
287
     1
 67
     0
278
    -2
288
     1
 68
     0
279
    -2
289
     1
 69
     0
  7
STANDARD
140
0.25
170
     5
 62
     0
 63
     7
283
     0
274
    -2
284
     1
 64
     0
275
    -2
285
     1
 65
     0
276
    -2
286
     1
 66
     0
277
    -2
287
     1
 67
     0
278
    -2
288
     1
 68
     0
279
    -2
289
     1
 69
     0
  7
STANDARD
140
0.18
170
     5
 62
     0
 63
     7
283
     0
274
    -2
284
     1
 64
     0
275
    -2
285
     1
 65
     0
276
    -2
286
     1
 66
     0
277
    -2
287
     1
 67
     0
278
    -2
288
     1
 68
     0
279
    -2
289
     1
 69
     0
  0
DICTIONARYVAR
  5
2BB
102
{ACAD_REACTORS
330
2BA
102
}
330
2BA
100
DictionaryVariables
280
     0
  1
STANDARD
  0
DICTIONARYVAR
  5
2BC
102
{ACAD_REACTORS
330
2BA
102
}
330
2BA
100
DictionaryVariables
280
     0
  1
1
  0
DICTIONARYVAR
  5
2BD
102
{ACAD_REACTORS
330
2BA
102
}
330
2BA
100
DictionaryVariables
280
     0
  1

  0
DICTIONARY
  5
266
102
{ACAD_REACTORS
330
25B
102
}
330
25B
100
AcDbDictionary
281
     1
  0
XRECORD
  5
285
102
{ACAD_REACTORS
330
25B
102
}
330
25B
100
AcDbXrecord
280
     1
 90
-1023410169
  0
XRECORD
  5
2B9
102
{ACAD_REACTORS
330
2B7
102
}
330
2B7
100
AcDbXrecord
280
     1
330
1D8
330
42
330
50
330
56
330
14A
330
154
330
167
330
16D
330
17D
330
187
330
197
330
1BC
  0
DICTIONARY
  5
2C2
330
1FD
100
AcDbDictionary
280
     1
281
     1
  3
ACAD_XREC_ROUNDTRIP
360
2C3
  0
DICTIONARY
  5
2C0
330
1FC
100
AcDbDictionary
280
     1
281
     1
  3
ACAD_XREC_ROUNDTRIP
360
2C1
  0
XRECORD
  5
2C3
102
{ACAD_REACTORS
330
2C2
102
}
330
2C2
100
AcDbXrecord
280
     1
102
SHADEPLOT
 70
     0
102
SHADEPLOTRESLEVEL
 70
     2
102
SHADEPLOTCUSTOMDPI
 70
   300
  0
XRECORD
  5
2C1
102
{ACAD_REACTORS
330
2C0
102
}
330
2C0
100
AcDbXrecord
280
     1
102
SHADEPLOT
 70
     0
102
SHADEPLOTRESLEVEL
 70
     2
102
SHADEPLOTCUSTOMDPI
 70
   300
  0
ENDSEC
  0
EOF
