  0
SECTION
  2
HEADER
  9
$ACADVER
  1
AC1015
  9
$ACADMAINTVER
 70
    20
  9
$DWGCODEPAGE
  3
ANSI_1252
  9
$INSBASE
 10
0.0
 20
0.0
 30
0.0
  9
$EXTMIN
 10
1.655196
 20
-46.01738628571428
 30
0.0
  9
$EXTMAX
 10
48.97978338095238
 20
2.625809180063888
 30
0.0
  9
$LIMMIN
 10
1.655195999999999
 20
-45.425823
  9
$LIMMAX
 10
47.12081
 20
2.628951999999999
  9
$ORTHOMODE
 70
     0
  9
$REGENMODE
 70
     1
  9
$FILLMODE
 70
     1
  9
$QTEXTMODE
 70
     0
  9
$MIRRTEXT
 70
     1
  9
$LTSCALE
 40
1.0
  9
$ATTMODE
 70
     1
  9
$TEXTSIZE
 40
0.0
  9
$TRACEWID
 40
0.05
  9
$TEXTSTYLE
  7
STANDARD
  9
$CLAYER
  8
0
  9
$CELTYPE
  6
CONTINUOUS
  9
$CECOLOR
 62
   256
  9
$CELTSCALE
 40
1.0
  9
$DISPSILH
 70
     0
  9
$DIMSCALE
 40
1.0
  9
$DIMASZ
 40
0.18
  9
$DIMEXO
 40
0.0625
  9
$DIMDLI
 40
0.38
  9
$DIMRND
 40
0.0
  9
$DIMDLE
 40
0.0
  9
$DIMEXE
 40
0.18
  9
$DIMTP
 40
0.0
  9
$DIMTM
 40
0.0
  9
$DIMTXT
 40
0.18
  9
$DIMCEN
 40
0.09
  9
$DIMTSZ
 40
0.0
  9
$DIMTOL
 70
     0
  9
$DIMLIM
 70
     0
  9
$DIMTIH
 70
     1
  9
$DIMTOH
 70
     1
  9
$DIMSE1
 70
     0
  9
$DIMSE2
 70
     0
  9
$DIMTAD
 70
     0
  9
$DIMZIN
 70
     0
  9
$DIMBLK
  1

  9
$DIMASO
 70
     1
  9
$DIMSHO
 70
     1
  9
$DIMPOST
  1

  9
$DIMAPOST
  1

  9
$DIMALT
 70
     0
  9
$DIMALTD
 70
     2
  9
$DIMALTF
 40
25.4
  9
$DIMLFAC
 40
1.0
  9
$DIMTOFL
 70
     0
  9
$DIMTVP
 40
0.0
  9
$DIMTIX
 70
     0
  9
$DIMSOXD
 70
     0
  9
$DIMSAH
 70
     0
  9
$DIMBLK1
  1

  9
$DIMBLK2
  1

  9
$DIMSTYLE
  2
STANDARD
  9
$DIMCLRD
 70
     0
  9
$DIMCLRE
 70
     0
  9
$DIMCLRT
 70
     0
  9
$DIMTFAC
 40
1.0
  9
$DIMGAP
 40
0.09
  9
$DIMJUST
 70
     0
  9
$DIMSD1
 70
     0
  9
$DIMSD2
 70
     0
  9
$DIMTOLJ
 70
     1
  9
$DIMTZIN
 70
     0
  9
$DIMALTZ
 70
     0
  9
$DIMALTTZ
 70
     0
  9
$DIMUPT
 70
     0
  9
$DIMDEC
 70
     4
  9
$DIMTDEC
 70
     4
  9
$DIMALTU
 70
     2
  9
$DIMALTTD
 70
     2
  9
$DIMTXSTY
  7
STANDARD
  9
$DIMAUNIT
 70
     0
  9
$DIMADEC
 70
     0
  9
$DIMALTRND
 40
0.0
  9
$DIMAZIN
 70
     0
  9
$DIMDSEP
 70
    46
  9
$DIMATFIT
 70
     3
  9
$DIMFRAC
 70
     0
  9
$DIMLDRBLK
  1

  9
$DIMLUNIT
 70
     2
  9
$DIMLWD
 70
    -2
  9
$DIMLWE
 70
    -2
  9
$DIMTMOVE
 70
     0
  9
$LUNITS
 70
     2
  9
$LUPREC
 70
     4
  9
$SKETCHINC
 40
0.1
  9
$FILLETRAD
 40
0.0
  9
$AUNITS
 70
     0
  9
$AUPREC
 70
     0
  9
$MENU
  1
acad
  9
$ELEVATION
 40
0.0
  9
$PELEVATION
 40
0.0
  9
$THICKNESS
 40
0.0
  9
$LIMCHECK
 70
     0
  9
$CHAMFERA
 40
0.0
  9
$CHAMFERB
 40
0.0
  9
$CHAMFERC
 40
0.0
  9
$CHAMFERD
 40
0.0
  9
$SKPOLY
 70
     0
  9
$TDCREATE
 40
2305814.042176054
  9
$TDUCREATE
 40
2305814.250509387
  9
$TDUPDATE
 40
2455862.601682245
  9
$TDUUPDATE
 40
2455862.810015579
  9
$TDINDWG
 40
0.0002893519
  9
$TDUSRTIMER
 40
0.0002891782
  9
$USRTIMER
 70
     1
  9
$ANGBASE
 50
0.0
  9
$ANGDIR
 70
     0
  9
$PDMODE
 70
     0
  9
$PDSIZE
 40
0.0
  9
$PLINEWID
 40
0.0
  9
$SPLFRAME
 70
     0
  9
$SPLINETYPE
 70
     6
  9
$SPLINESEGS
 70
     8
  9
$HANDSEED
  5
3C4
  9
$SURFTAB1
 70
     6
  9
$SURFTAB2
 70
     6
  9
$SURFTYPE
 70
     6
  9
$SURFU
 70
     6
  9
$SURFV
 70
     6
  9
$UCSBASE
  2

  9
$UCSNAME
  2

  9
$UCSORG
 10
0.0
 20
0.0
 30
0.0
  9
$UCSXDIR
 10
1.0
 20
0.0
 30
0.0
  9
$UCSYDIR
 10
0.0
 20
1.0
 30
0.0
  9
$UCSORTHOREF
  2

  9
$UCSORTHOVIEW
 70
     0
  9
$UCSORGTOP
 10
0.0
 20
0.0
 30
0.0
  9
$UCSORGBOTTOM
 10
0.0
 20
0.0
 30
0.0
  9
$UCSORGLEFT
 10
0.0
 20
0.0
 30
0.0
  9
$UCSORGRIGHT
 10
0.0
 20
0.0
 30
0.0
  9
$UCSORGFRONT
 10
0.0
 20
0.0
 30
0.0
  9
$UCSORGBACK
 10
0.0
 20
0.0
 30
0.0
  9
$PUCSBASE
  2

  9
$PUCSNAME
  2

  9
$PUCSORG
 10
0.0
 20
0.0
 30
0.0
  9
$PUCSXDIR
 10
1.0
 20
0.0
 30
0.0
  9
$PUCSYDIR
 10
0.0
 20
1.0
 30
0.0
  9
$PUCSORTHOREF
  2

  9
$PUCSORTHOVIEW
 70
     0
  9
$PUCSORGTOP
 10
0.0
 20
0.0
 30
0.0
  9
$PUCSORGBOTTOM
 10
0.0
 20
0.0
 30
0.0
  9
$PUCSORGLEFT
 10
0.0
 20
0.0
 30
0.0
  9
$PUCSORGRIGHT
 10
0.0
 20
0.0
 30
0.0
  9
$PUCSORGFRONT
 10
0.0
 20
0.0
 30
0.0
  9
$PUCSORGBACK
 10
0.0
 20
0.0
 30
0.0
  9
$USERI1
 70
     0
  9
$USERI2
 70
     0
  9
$USERI3
 70
     0
  9
$USERI4
 70
     0
  9
$USERI5
 70
     0
  9
$USERR1
 40
0.0
  9
$USERR2
 40
0.0
  9
$USERR3
 40
0.0
  9
$USERR4
 40
0.0
  9
$USERR5
 40
0.0
  9
$WORLDVIEW
 70
     1
  9
$SHADEDGE
 70
     3
  9
$SHADEDIF
 70
    70
  9
$TILEMODE
 70
     1
  9
$MAXACTVP
 70
    16
  9
$PINSBASE
 10
0.0
 20
0.0
 30
0.0
  9
$PLIMCHECK
 70
     0
  9
$PEXTMIN
 10
1.000000000000000E+20
 20
1.000000000000000E+20
 30
1.000000000000000E+20
  9
$PEXTMAX
 10
-1.000000000000000E+20
 20
-1.000000000000000E+20
 30
-1.000000000000000E+20
  9
$PLIMMIN
 10
0.0
 20
0.0
  9
$PLIMMAX
 10
12.0
 20
9.0
  9
$UNITMODE
 70
     0
  9
$VISRETAIN
 70
     0
  9
$PLINEGEN
 70
     1
  9
$PSLTSCALE
 70
     0
  9
$TREEDEPTH
 70
  3020
  9
$CMLSTYLE
  2
STANDARD
  9
$CMLJUST
 70
     0
  9
$CMLSCALE
 40
1.0
  9
$PROXYGRAPHICS
 70
     1
  9
$MEASUREMENT
 70
     0
  9
$CELWEIGHT
370
    -1
  9
$ENDCAPS
280
     0
  9
$JOINSTYLE
280
     0
  9
$LWDISPLAY
290
     0
  9
$INSUNITS
 70
     0
  9
$HYPERLINKBASE
  1

  9
$STYLESHEET
  1

  9
$XEDIT
290
     1
  9
$CEPSNTYPE
380
     0
  9
$PSTYLEMODE
290
     1
  9
$FINGERPRINTGUID
  2
{FC6612CE-B647-4693-8011-C448A1386F29}
  9
$VERSIONGUID
  2
{FA107510-1178-4390-9C22-13C24A24DBD5}
  9
$EXTNAMES
290
     1
  9
$PSVPSCALE
 40
0.0
  9
$OLESTARTUP
290
     0
  0
ENDSEC
  0
SECTION
  2
CLASSES
  0
CLASS
  1
IMAGE
  2
AcDbRasterImage
  3
ISM
 90
    32895
280
     0
281
     1
  0
CLASS
  1
DICTIONARYVAR
  2
AcDbDictionaryVar
  3
ObjectDBX Classes
 90
        0
280
     0
281
     0
  0
CLASS
  1
RASTERVARIABLES
  2
AcDbRasterVariables
  3
ISM
 90
    32768
280
     0
281
     0
  0
CLASS
  1
IMAGEDEF
  2
AcDbRasterImageDef
  3
ISM
 90
    32768
280
     0
281
     0
  0
CLASS
  1
IMAGEDEF_REACTOR
  2
AcDbRasterImageDefReactor
  3
ISM
 90
    32769
280
     0
281
     0
  0
CLASS
  1
IDBUFFER
  2
AcDbIdBuffer
  3
ObjectDBX Classes
 90
    32768
280
     0
281
     0
  0
CLASS
  1
SPATIAL_FILTER
  2
AcDbSpatialFilter
  3
ObjectDBX Classes
 90
    32768
280
     0
281
     0
  0
CLASS
  1
SORTENTSTABLE
  2
AcDbSortentsTable
  3
ObjectDBX Classes
 90
    32768
280
     0
281
     0
  0
CLASS
  1
LAYER_INDEX
  2
AcDbLayerIndex
  3
ObjectDBX Classes
 90
    32768
280
     0
281
     0
  0
CLASS
  1
SPATIAL_INDEX
  2
AcDbSpatialIndex
  3
ObjectDBX Classes
 90
    32768
280
     0
281
     0
  0
CLASS
  1
OBJECT_PTR
  2
CAseDLPNTableRecord
  3
ASE-LPNTableRecord
 90
    32769
280
     0
281
     0
  0
CLASS
  1
LAYOUT
  2
AcDbLayout
  3
ObjectDBX Classes
 90
        0
280
     0
281
     0
  0
CLASS
  1
PLOTSETTINGS
  2
AcDbPlotSettings
  3
ObjectDBX Classes
 90
    32768
280
     0
281
     0
  0
CLASS
  1
ACDBDICTIONARYWDFLT
  2
AcDbDictionaryWithDefault
  3
ObjectDBX Classes
 90
        0
280
     0
281
     0
  0
CLASS
  1
ACDBPLACEHOLDER
  2
AcDbPlaceHolder
  3
ObjectDBX Classes
 90
        0
280
     0
281
     0
  0
CLASS
  1
VBA_PROJECT
  2
AcDbVbaProject
  3
acad
 90
    32768
280
     0
281
     0
  0
CLASS
  1
WIPEOUT
  2
AcDbWipeout
  3
"WipeOut|Product Desc: Object Enabler for WipeOut entity^I^I^I^I^I^I|Company: Autodesk, Inc.^I^I^I^I^I^I|WEB Address: www.autodesk.com"
 90
    32895
280
     0
281
     1
  0
CLASS
  1
WIPEOUTVARIABLES
  2
AcDbWipeoutVariables
  3
"WipeOut|Product Desc:     WipeOut Dbx Application|Company:          Autodesk, Inc.|WEB Address:      www.autodesk.com"
 90
    32768
280
     0
281
     0
  0
CLASS
  1
RTEXT
  2
RText
  3
RText|AutoCAD Express Tool|expresstools@autodesk.com
 90
    32768
280
     0
281
     1
  0
CLASS
  1
ARCALIGNEDTEXT
  2
AcDbArcAlignedText
  3
ATEXT|AutoCAD Express Tool|expresstools@autodesk.com
 90
    32768
280
     0
281
     1
  0
CLASS
  1
TABLESTYLE
  2
AcDbTableStyle
  3
ObjectDBX Classes
 90
     2047
280
     0
281
     0
  0
CLASS
  1
AMGSETTINGSOBJ
  2
AmgSettingsObj
  3
"AcadM|Product Description: AutoCAD Mechanical 2000|Company: Autodesk"
 90
        0
280
     0
281
     0
  0
CLASS
  1
ACME_DOCUMENT
  2
AcMeDbDoc
  3
AcMeServices
 90
        0
280
     0
281
     0
  0
CLASS
  1
ACMESCOPE
  2
AcMeScope
  3
AcMeServices
 90
        0
280
     0
281
     0
  0
CLASS
  1
ACMECOMMANDHISTORY
  2
AcMeCommandHistory
  3
AcMeServices
 90
        0
280
     0
281
     0
  0
CLASS
  1
ACIMSYSVARMAN
  2
AcImSysVarManager
  3
AcMeServices
 90
        0
280
     0
281
     0
  0
CLASS
  1
ACIMINTSYSVAR
  2
AcImIntSysVar
  3
AcMeServices
 90
        0
280
     0
281
     0
  0
CLASS
  1
ACMEDRAWINGMAN
  2
AcMeDrawingMan
  3
AcMeServices
 90
        0
280
     0
281
     0
  0
CLASS
  1
ACMEVIEW
  2
AcMeView
  3
AcMeServices
 90
        0
280
     0
281
     0
  0
CLASS
  1
ACDBENTITYCACHE
  2
AcMeEntityCache
  3
AcMeServices
 90
        0
280
     0
281
     0
  0
CLASS
  1
GSMANAGER
  2
AcMeGSManager
  3
AcMeServices
 90
        0
280
     0
281
     0
  0
CLASS
  1
AMDTINTERNALREACTOR
  2
AmdtInternalReactor
  3
AcMeServices
 90
        0
280
     0
281
     0
  0
CLASS
  1
ACMESTATEMGR
  2
AcMeStateMgr
  3
AcMeServices
 90
        0
280
     0
281
     0
  0
CLASS
  1
ACGREFMASTER
  2
AcGrefMaster
  3
AcAttribServices
 90
        0
280
     0
281
     0
  0
CLASS
  1
AM_DRAWING_MGR
  2
AcDmDwgMgr
  3
AcMechDwgViewMgmt
 90
        0
280
     0
281
     0
  0
CLASS
  1
AM_DWG_DOCUMENT
  2
AcDmDwgDocument
  3
AcMechDwgViewMgmt
 90
        0
280
     0
281
     0
  0
CLASS
  1
AM_DWG_SHEET
  2
AcDmSheet
  3
AcMechDwgViewMgmt
 90
        0
280
     0
281
     0
  0
CLASS
  1
AM_VIEWDIMPARMAP
  2
AcDmViewDimParMap
  3
AcMechDwgViewMgmt
 90
        0
280
     0
281
     0
  0
CLASS
  1
ACIMREALSYSVAR
  2
AcImRealSysVar
  3
AcMeServices
 90
        0
280
     0
281
     0
  0
CLASS
  1
AM_DWGMGR_NAME
  2
AcDmDwgMgrName
  3
AcMechDwgViewMgmt
 90
        0
280
     0
281
     0
  0
CLASS
  1
ACME_DATABASE
  2
AcMeDbDatabase
  3
AcMeServices
 90
        0
280
     0
281
     0
  0
CLASS
  1
ACRFINSADJUSTERMGR
  2
AcRfInsAdjusterMgr
  3
AcMeServices
 90
        0
280
     0
281
     0
  0
CLASS
  1
ACGREFACADMASTER
  2
AcGrefacadMaster
  3
AcGrefServices
 90
        0
280
     0
281
     0
  0
CLASS
  1
AMDTMENUSTATEMGR
  2
AmdtMenuStateMgr
  3
McadcomServices
 90
        0
280
     0
281
     0
  0
CLASS
  1
AMDTMCOMMENUSTATE
  2
AmdtMcomMenuState
  3
McadcomServices
 90
        0
280
     0
281
     0
  0
CLASS
  1
AMIMASTER
  2
AmiMaster
  3
AmiServices
 90
        0
280
     0
281
     0
  0
CLASS
  1
MAPIAMMOUDLE
  2
MApiAmModule
  3
MApiAmServices
 90
        0
280
     0
281
     0
  0
CLASS
  1
ACIMSTRSYSVAR
  2
AcImStrSysVar
  3
AcMeServices
 90
        0
280
     0
281
     0
  0
CLASS
  1
AMDTADMENUSTATE
  2
AmdtAdMenuState
  3
DesignerServices
 90
        0
280
     0
281
     0
  0
CLASS
  1
ADAPPL
  2
AcAdAppl
  3
DesignerServices
 90
        0
280
     0
281
     0
  0
CLASS
  1
DEPMGR
  2
AcAdDepMgr
  3
DesignerServices
 90
        0
280
     0
281
     0
  0
CLASS
  1
PARAMMGR
  2
AcAdParamMgr
  3
DesignerServices
 90
        0
280
     0
281
     0
  0
CLASS
  1
PARAMSCOPE
  2
AcAdParamScope
  3
DesignerServices
 90
        0
280
     0
281
     0
  0
CLASS
  1
NAMEDAPPL
  2
AcAdNamedAppl
  3
DesignerServices
 90
        0
280
     0
281
     0
  0
CLASS
  1
AMDTDMMENUSTATE
  2
AmdtDmMenuState
  3
AcMechDwgViewMgmt
 90
        0
280
     0
281
     0
  0
CLASS
  1
AMDTAMMENUSTATE
  2
AmdtAmMenuState
  3
DesignerAssemblies
 90
        0
280
     0
281
     0
  0
CLASS
  1
ACAMPROJECT
  2
AcAmProject
  3
DesignerAssemblies
 90
        0
280
     0
281
     0
  0
CLASS
  1
ACAMGRCOMPDEF
  2
AcAmGrCompDef
  3
DesignerAssemblies
 90
        0
280
     0
281
     0
  0
CLASS
  1
ACCMCONTEXT
  2
AcCmContext
  3
DesignerAssemblies
 90
        0
280
     0
281
     0
  0
CLASS
  1
ACAMCOMPDEF
  2
AcAmCompDef
  3
DesignerAssemblies
 90
        0
280
     0
281
     0
  0
CLASS
  1
ACAMCOMPDEFMGR
  2
AcAmCompDefMgr
  3
DesignerAssemblies
 90
        0
280
     0
281
     0
  0
CLASS
  1
AMCONTEXTMGR
  2
AcAmContextMgr
  3
DesignerAssemblies
 90
        0
280
     0
281
     0
  0
CLASS
  1
ACAMCONTEXTMODELER
  2
AcAmContextModeler
  3
DesignerAssemblies
 90
        0
280
     0
281
     0
  0
CLASS
  1
ACMDATADICTIONARY
  2
AcmDataDictionary
  3
"AcmSymBB|Product Description: AutoCAD Mechanical 2004 DX|Company: Autodesk"
 90
        0
280
     0
281
     0
  0
CLASS
  1
CATALOGSTATE
  2
AcAmCatalogState
  3
DesignerAssemblies
 90
        0
280
     0
281
     0
  0
CLASS
  1
ACAMGRCOMPDEFSET
  2
AcAmGrCompDefSet
  3
DesignerAssemblies
 90
        0
280
     0
281
     0
  0
CLASS
  1
AMDTBROWSERDBTAB
  2
AmdtBrowserDbTab
  3
McadcomServices
 90
        0
280
     0
281
     0
  0
CLASS
  1
CBROWSERAPPOBJECT
  2
CBrowserAppObject
  3
McadcomServices
 90
        0
280
     0
281
     0
  0
CLASS
  1
DM_PLACEHOLDER
  2
AcDmSelsetPlaceholder
  3
AcMechDwgViewMgmt
 90
        0
280
     0
281
     0
  0
CLASS
  1
ACMSTANDARDANSI
  2
AcmStandardANSI
  3
"Amdt_StdImp|Product Description: AutoCAD Mechanical 2004 DX|Company: Autodesk"
 90
        0
280
     0
281
     0
  0
CLASS
  1
AMGOBJPROPCFG
  2
AmgObjPropCfg
  3
"AmgLay|Product Description: AutoCAD Mechanical 2000|Company: Autodesk"
 90
        1
280
     0
281
     0
  0
CLASS
  1
ACMSURFSTANDARDANSI
  2
AcmSurfTextStdANSI
  3
"Amdt_StdImp|Product Description: AutoCAD Mechanical 2004 DX|Company: Autodesk"
 90
        0
280
     0
281
     0
  0
CLASS
  1
ACMFCFSTANDARDANSI
  2
AcmFCFStdANSI
  3
"Amdt_StdImp|Product Description: AutoCAD Mechanical 2004 DX|Company: Autodesk"
 90
        0
280
     0
281
     0
  0
CLASS
  1
ACMWELDSTANDARDANSI
  2
AcmWeldingStdANSI
  3
"Amdt_StdImp|Product Description: AutoCAD Mechanical 2004 DX|Company: Autodesk"
 90
        0
280
     0
281
     0
  0
CLASS
  1
ACMIDSTANDARDANSI
  2
AcmIdStdANSI
  3
"Amdt_StdImp|Product Description: AutoCAD Mechanical 2004 DX|Company: Autodesk"
 90
        0
280
     0
281
     0
  0
CLASS
  1
ACMDATUMSTANDARDANSI
  2
AcmDatumStdANSI
  3
"Amdt_StdImp|Product Description: AutoCAD Mechanical 2004 DX|Company: Autodesk"
 90
        0
280
     0
281
     0
  0
CLASS
  1
ACMBOMSTANDARDANSI
  2
AcmBOMStdANSI
  3
"Amdt_StdImp|Product Description: AutoCAD Mechanical 2004 DX|Company: Autodesk"
 90
        0
280
     0
281
     0
  0
CLASS
  1
ACMDETAILSTANDARDANSI
  2
AmdtDetailSymStdANSI
  3
"Amdt_StdImp|Product Description: AutoCAD Mechanical 2004 DX|Company: Autodesk"
 90
        0
280
     0
281
     0
  0
CLASS
  1
ACMSECTIONSTANDARDANSI
  2
AmdtSectionSymStdANSI
  3
"Amdt_StdImp|Product Description: AutoCAD Mechanical 2004 DX|Company: Autodesk"
 90
        0
280
     0
281
     0
  0
CLASS
  1
ACMCENTERLINESTANDARDANSI
  2
AmdtCenterLineStdANSI
  3
"Amdt_StdImp|Product Description: AutoCAD Mechanical 2004 DX|Company: Autodesk"
 90
        0
280
     0
281
     0
  0
CLASS
  1
ACMTHREADLINESTANDARDANSI
  2
AmdtThreadLineStdANSI
  3
"Amdt_StdImp|Product Description: AutoCAD Mechanical 2004 DX|Company: Autodesk"
 90
        0
280
     0
281
     0
  0
CLASS
  1
ACMNOTESTANDARDANSI
  2
AmdtNoteStdANSI
  3
"Amdt_StdImp|Product Description: AutoCAD Mechanical 2004 DX|Company: Autodesk"
 90
        0
280
     0
281
     0
  0
CLASS
  1
AMDTNOTETEMPLATEDB
  2
AmdtNoteTemplateDB
  3
AMDT_STDIMP_MODULE_NAME
 90
        0
280
     0
281
     0
  0
CLASS
  1
ACAMGLAYSTD
  2
AcAmgLayStd
  3
"AcAmgLayStd|Product Description: AutoCAD Mechanical 2000|Company: Autodesk"
 90
        0
280
     0
281
     0
  0
CLASS
  1
ACAMGDIMSTD
  2
AcAmgDimStd
  3
"AcAmgDimStd|Product Description: AutoCAD Mechanical 2000|Company: Autodesk"
 90
        0
280
     0
281
     0
  0
CLASS
  1
ACAMGHOLECHARTSTDANSI
  2
AcAmgHoleChartStdANSI
  3
ACMSYMBB_MODULE_NAME
 90
        0
280
     0
281
     0
  0
CLASS
  1
ACAMGTITLESTD
  2
AcAmgTitleStd
  3
"TITLEAPP"
 90
        0
280
     0
281
     0
  0
CLASS
  1
ACAMGFILTERDAT
  2
AcAmgFilterDat
  3
"AcadM|Product Description: AutoCAD Mechanical 2000|Company: Autodesk"
 90
        0
280
     0
281
     0
  0
ENDSEC
  0
SECTION
  2
TABLES
  0
TABLE
  2
VPORT
  5
7
330
0
100
AcDbSymbolTable
 70
     3
  0
VPORT
  5
3BE
330
7
100
AcDbSymbolTableRecord
100
AcDbViewportTableRecord
  2
*Active
 70
     0
 10
0.0
 20
0.0
 11
1.0
 21
1.0
 12
28.11784308429071
 22
-23.50373624933295
 13
0.0
 23
0.0
 14
1.0
 24
1.0
 15
0.0
 25
0.0
 16
0.0
 26
0.0
 36
1.0
 17
0.0
 27
0.0
 37
0.0
 40
67.15875630843811
 41
1.181318681318681
 42
50.0
 43
0.0
 44
0.0
 50
0.0
 51
0.0
 71
     0
 72
   100
 73
     1
 74
     1
 75
     0
 76
     0
 77
     0
 78
     0
281
     0
 65
     0
110
0.0
120
0.0
130
0.0
111
1.0
121
0.0
131
0.0
112
0.0
122
1.0
132
0.0
 79
     0
146
0.0
  0
ENDTAB
  0
TABLE
  2
LTYPE
  5
4
330
0
100
AcDbSymbolTable
 70
    17
  0
LTYPE
  5
11
330
4
100
AcDbSymbolTableRecord
100
AcDbLinetypeTableRecord
  2
BYBLOCK
 70
     0
  3

 72
    65
 73
     0
 40
0.0
  0
LTYPE
  5
12
330
4
100
AcDbSymbolTableRecord
100
AcDbLinetypeTableRecord
  2
BYLAYER
 70
     0
  3

 72
    65
 73
     0
 40
0.0
  0
LTYPE
  5
13
330
4
100
AcDbSymbolTableRecord
100
AcDbLinetypeTableRecord
  2
CONTINUOUS
 70
     0
  3
Solid line
 72
    65
 73
     0
 40
0.0
  0
LTYPE
  5
243
330
4
100
AcDbSymbolTableRecord
100
AcDbLinetypeTableRecord
  2
AI9-LTYPE1
 70
     0
  3
Illustrator Dash Style No.1
 72
    65
 73
     1
 40
0.3457219999999999
 49
0.3457219999999999
 74
     0
  0
LTYPE
  5
333
330
4
100
AcDbSymbolTableRecord
100
AcDbLinetypeTableRecord
  2
HIDDEN
 70
     0
  3
Hidden __ __ __ __ __ __ __ __ __ __ __ __ __ _
 72
    65
 73
     2
 40
0.375
 49
0.25
 74
     0
 49
-0.125
 74
     0
  0
LTYPE
  5
334
330
4
100
AcDbSymbolTableRecord
100
AcDbLinetypeTableRecord
  2
PHANTOM2
 70
     0
  3
Phantom (.5x) ___ _ _ ___ _ _ ___ _ _ ___ _ _
 72
    65
 73
     6
 40
1.25
 49
0.625
 74
     0
 49
-0.125
 74
     0
 49
0.125
 74
     0
 49
-0.125
 74
     0
 49
0.125
 74
     0
 49
-0.125
 74
     0
  0
LTYPE
  5
335
330
4
100
AcDbSymbolTableRecord
100
AcDbLinetypeTableRecord
  2
CENTER
 70
     0
  3
Center ____ _ ____ _ ____ _ ____ _ ____ _ ____
 72
    65
 73
     4
 40
2.0
 49
1.25
 74
     0
 49
-0.25
 74
     0
 49
0.25
 74
     0
 49
-0.25
 74
     0
  0
LTYPE
  5
369
330
4
100
AcDbSymbolTableRecord
100
AcDbLinetypeTableRecord
  2
AM_ISO02W050
 70
     0
  3
__ __ __ __ __ __ __ __ __ __ __ __ __ __ __
 72
    65
 73
     2
 40
7.5
 49
6.0
 74
     0
 49
-1.5
 74
     0
  0
LTYPE
  5
36A
330
4
100
AcDbSymbolTableRecord
100
AcDbLinetypeTableRecord
  2
AM_ISO08W050
 70
     0
  3
____ . ____ . ____ . ____ . ____ . ____ . ____
 72
    65
 73
     4
 40
18.0
 49
12.0
 74
     0
 49
-1.5
 74
     0
 49
3.0
 74
     0
 49
-1.5
 74
     0
  0
LTYPE
  5
36B
330
4
100
AcDbSymbolTableRecord
100
AcDbLinetypeTableRecord
  2
AM_ISO09W050
 70
     0
  3
_____ . . _____ . . _____ . . ____ .. ____
 72
    65
 73
     6
 40
22.5
 49
12.0
 74
     0
 49
-1.5
 74
     0
 49
3.0
 74
     0
 49
-1.5
 74
     0
 49
3.0
 74
     0
 49
-1.5
 74
     0
  0
LTYPE
  5
36C
330
4
100
AcDbSymbolTableRecord
100
AcDbLinetypeTableRecord
  2
Amconstr
 70
     0
  3
_______________________
 72
    65
 73
     2
 40
9999.0
 49
9999.0
 74
     0
 49
0.0
 74
     0
  0
LTYPE
  5
36D
330
4
100
AcDbSymbolTableRecord
100
AcDbLinetypeTableRecord
  2
AM_ISO08W050x2
 70
     0
  3
__ . __ . __ . __ . __ . __
 72
    65
 73
     4
 40
9.0
 49
6.0
 74
     0
 49
-0.75
 74
     0
 49
1.5
 74
     0
 49
-0.75
 74
     0
  0
LTYPE
  5
36E
330
4
100
AcDbSymbolTableRecord
100
AcDbLinetypeTableRecord
  2
AM_ISO02W050x2
 70
     0
  3
 _ _ _ _ _ _ _ _ _ _ _ _
 72
    65
 73
     2
 40
3.75
 49
3.0
 74
     0
 49
-0.75
 74
     0
  0
LTYPE
  5
371
330
4
100
AcDbSymbolTableRecord
100
AcDbLinetypeTableRecord
  2
Amzigzag
 70
     0
  3
/\/-/\/-/\/-/\/-/\/-/\/
 72
    65
 73
     2
 40
11.0001
 49
0.0001
 74
     4
 75
   136
340
370
 46
0.04
 50
0.0
 44
0.0
 45
0.0
 49
-11.0
 74
     0
  0
LTYPE
  5
372
330
4
100
AcDbSymbolTableRecord
100
AcDbLinetypeTableRecord
  2
CENTER2
 70
     0
  3
Center (.5x) ___ _ ___ _ ___ _ ___ _ ___ _ ___
 72
    65
 73
     4
 40
1.125
 49
0.75
 74
     0
 49
-0.125
 74
     0
 49
0.125
 74
     0
 49
-0.125
 74
     0
  0
LTYPE
  5
373
330
4
100
AcDbSymbolTableRecord
100
AcDbLinetypeTableRecord
  2
HIDDEN2
 70
     0
  3
Hidden (.5x) _ _ _ _ _ _ _ _ _ _ _ _ _ _ _ _ _
 72
    65
 73
     2
 40
0.1875
 49
0.125
 74
     0
 49
-0.0625
 74
     0
  0
LTYPE
  5
374
330
4
100
AcDbSymbolTableRecord
100
AcDbLinetypeTableRecord
  2
Amzigzag2
 70
     0
  3
/\/-/\/-/\/-/\/-/\/-/\/
 72
    65
 73
     2
 40
0.4401
 49
0.0001
 74
     4
 75
   136
340
370
 46
0.0016
 50
0.0
 44
0.0
 45
0.0
 49
-0.4400000000000001
 74
     0
  0
LTYPE
  5
382
330
4
100
AcDbSymbolTableRecord
100
AcDbLinetypeTableRecord
  2
ACANSTGB
 70
     0
  3
__ . . __ . .
 72
    65
 73
     6
 40
0.35433070866
 49
0.15748031496
 74
     0
 49
-0.03937007874
 74
     0
 49
0.03937007874
 74
     0
 49
-0.03937007874
 74
     0
 49
0.03937007874
 74
     0
 49
-0.03937007874
 74
     0
  0
LTYPE
  5
383
330
4
100
AcDbSymbolTableRecord
100
AcDbLinetypeTableRecord
  2
ACANSTGL
 70
     0
  3
_ _ _ _ _
 72
    65
 73
     2
 40
0.11811023622
 49
0.07874015748
 74
     0
 49
-0.03937007874
 74
     0
  0
ENDTAB
  0
TABLE
  2
LAYER
  5
2
330
0
100
AcDbSymbolTable
 70
     2
  0
LAYER
  5
14
330
2
100
AcDbSymbolTableRecord
100
AcDbLayerTableRecord
  2
0
 70
     0
 62
     7
  6
CONTINUOUS
370
    -3
390
2F5
  0
LAYER
  5
21
330
2
100
AcDbSymbolTableRecord
100
AcDbLayerTableRecord
  2
LAYER_1
 70
     0
 62
     5
  6
CONTINUOUS
370
    -3
390
2F5
  0
ENDTAB
  0
TABLE
  2
STYLE
  5
3
330
0
100
AcDbSymbolTable
 70
     8
  0
STYLE
  5
17
330
3
100
AcDbSymbolTableRecord
100
AcDbTextStyleTableRecord
  2
STANDARD
 70
     0
 40
0.0
 41
1.0
 50
0.0
 71
     0
 42
0.0
  3
txt
  4

  0
STYLE
  5
1D
330
3
100
AcDbSymbolTableRecord
100
AcDbTextStyleTableRecord
  2
STD
 70
     0
 40
0.0
 41
1.0
 50
0.0
 71
     0
 42
0.0
  3
txt
  4

  0
STYLE
  5
1E
330
3
100
AcDbSymbolTableRecord
100
AcDbTextStyleTableRecord
  2
TATESTD
 70
     4
 40
0.0
 41
1.0
 50
0.0
 71
     0
 42
0.0
  3
txt
  4

  0
STYLE
  5
1F
330
3
100
AcDbSymbolTableRecord
100
AcDbTextStyleTableRecord
  2
KANJISTD
 70
     0
 40
0.0
 41
1.0
 50
0.0
 71
     0
 42
0.0
  3
txt
  4
extfont
  0
STYLE
  5
20
330
3
100
AcDbSymbolTableRecord
100
AcDbTextStyleTableRecord
  2
KANJITATE
 70
     4
 40
0.0
 41
1.0
 50
0.0
 71
     0
 42
0.0
  3
txt
  4
extfont
  0
STYLE
  5
370
330
3
100
AcDbSymbolTableRecord
100
AcDbTextStyleTableRecord
  2

 70
     1
 40
0.0
 41
1.0
 50
0.0
 71
     0
 42
0.2
  3
genltshp.shx
  4

  0
STYLE
  5
375
330
3
100
AcDbSymbolTableRecord
100
AcDbTextStyleTableRecord
  2
ACANSTS
 70
     0
 40
1.0
 41
1.0
 50
0.0
 71
     0
 42
0.2
  3
romans.shx
  4

  0
STYLE
  5
381
330
3
100
AcDbSymbolTableRecord
100
AcDbTextStyleTableRecord
  2
ACANSGDT
 70
     0
 40
0.0
 41
1.0
 50
0.0
 71
     0
 42
0.2
  3
AMGDT
  4

  0
ENDTAB
  0
TABLE
  2
VIEW
  5
5
330
0
100
AcDbSymbolTable
 70
     0
  0
ENDTAB
  0
TABLE
  2
UCS
  5
6
330
0
100
AcDbSymbolTable
 70
     0
  0
ENDTAB
  0
TABLE
  2
APPID
  5
8
330
0
100
AcDbSymbolTable
 70
    11
  0
APPID
  5
16
330
8
100
AcDbSymbolTableRecord
100
AcDbRegAppTableRecord
  2
ACAD
 70
     0
  0
APPID
  5
306
330
8
100
AcDbSymbolTableRecord
100
AcDbRegAppTableRecord
  2
MCAD_NO_VIS
 70
     0
  0
APPID
  5
307
330
8
100
AcDbSymbolTableRecord
100
AcDbRegAppTableRecord
  2
ACAD_TEMP_GRAPHIC
 70
     0
  0
APPID
  5
337
330
8
100
AcDbSymbolTableRecord
100
AcDbRegAppTableRecord
  2
AD_DRAW
 70
     0
  0
APPID
  5
33A
330
8
100
AcDbSymbolTableRecord
100
AcDbRegAppTableRecord
  2
ACATTRIBSERVICES
 70
     0
  0
APPID
  5
35A
330
8
100
AcDbSymbolTableRecord
100
AcDbRegAppTableRecord
  2
DESIGNERASSEMBLIES
 70
     0
  0
APPID
  5
360
330
8
100
AcDbSymbolTableRecord
100
AcDbRegAppTableRecord
  2
ACADM_DIM_EDIT
 70
     0
  0
APPID
  5
361
330
8
100
AcDbSymbolTableRecord
100
AcDbRegAppTableRecord
  2
AMDT_DM_ADJ
 70
     0
  0
APPID
  5
38F
330
8
100
AcDbSymbolTableRecord
100
AcDbRegAppTableRecord
  2
ACAD_DSTYLE_DIMARC_LENGTH_SYMBOL
 70
     0
  0
APPID
  5
390
330
8
100
AcDbSymbolTableRecord
100
AcDbRegAppTableRecord
  2
ACAD_DSTYLE_DIMJOGGED_JOGANGLE_SYMBOL
 70
     0
  0
APPID
  5
3B8
330
8
100
AcDbSymbolTableRecord
100
AcDbRegAppTableRecord
  2
DCO15
 70
     0
  0
ENDTAB
  0
TABLE
  2
DIMSTYLE
  5
9
330
0
100
AcDbSymbolTable
 70
     7
100
AcDbDimStyleTable
 71
     0
  0
DIMSTYLE
105
18
330
9
100
AcDbSymbolTableRecord
100
AcDbDimStyleTableRecord
  2
STANDARD
 70
     0
340
17
  0
DIMSTYLE
105
38E
330
9
100
AcDbSymbolTableRecord
100
AcDbDimStyleTableRecord
  2
AM_ANSI
 70
     0
  4
mm
 41
0.1
 42
0.05
 43
0.5
 44
0.1
 47
0.1
 48
0.1
 78
     7
 79
     2
140
0.12
141
0.0
146
0.71
147
0.06
176
   256
177
   256
178
     2
274
     4
284
     7
340
17
371
    -1
372
    -1
1001
ACAD_DSTYLE_DIMARC_LENGTH_SYMBOL
1070
   379
1070
     1
1001
ACAD_DSTYLE_DIMJOGGED_JOGANGLE_SYMBOL
1070
   384
1040
0.7853981633974483
  0
DIMSTYLE
105
397
330
9
100
AcDbSymbolTableRecord
100
AcDbDimStyleTableRecord
  2
AM_ANSI$3
 70
     0
  4
mm
 41
0.1
 42
0.05
 43
0.5
 44
0.1
 47
0.1
 48
0.1
 78
     7
 79
     2
140
0.12
141
0.0
146
0.71
147
0.06
176
   256
177
   256
178
     2
274
     4
284
     7
288
     1
289
     0
340
17
371
    -1
372
    -1
1001
ACAD_DSTYLE_DIMARC_LENGTH_SYMBOL
1070
   379
1070
     1
1001
ACAD_DSTYLE_DIMJOGGED_JOGANGLE_SYMBOL
1070
   384
1040
0.7853981633974483
  0
DIMSTYLE
105
39A
330
9
100
AcDbSymbolTableRecord
100
AcDbDimStyleTableRecord
  2
AM_ANSI$4
 70
     0
  4
mm
 41
0.1
 42
0.05
 43
0.5
 44
0.1
 47
0.1
 48
0.1
 78
     7
 79
     2
140
0.12
141
0.0
146
0.71
147
0.06
176
   256
177
   256
178
     2
274
     4
284
     7
288
     1
289
     0
340
17
371
    -1
372
    -1
1001
ACAD_DSTYLE_DIMARC_LENGTH_SYMBOL
1070
   379
1070
     1
1001
ACAD_DSTYLE_DIMJOGGED_JOGANGLE_SYMBOL
1070
   384
1040
0.7853981633974483
  0
DIMSTYLE
105
39F
330
9
100
AcDbSymbolTableRecord
100
AcDbDimStyleTableRecord
  2
AM_ANSI$7
 70
     0
  4
mm
 41
0.1
 42
0.05
 43
0.5
 44
0.1
 47
0.1
 48
0.1
 78
     7
 79
     2
140
0.24
141
0.0
146
0.71
147
0.06
176
   256
177
   256
178
     2
274
     4
284
     7
340
17
371
    -1
372
    -1
1001
ACAD_DSTYLE_DIMARC_LENGTH_SYMBOL
1070
   379
1070
     1
1001
ACAD_DSTYLE_DIMJOGGED_JOGANGLE_SYMBOL
1070
   384
1040
0.7853981633974483
  0
DIMSTYLE
105
3A2
330
9
100
AcDbSymbolTableRecord
100
AcDbDimStyleTableRecord
  2
AM_ANSI$SF
 70
     0
  4
mm
 41
0.1
 42
0.05
 43
0.5
 44
0.1
 47
0.1
 48
0.1
 75
     1
 76
     1
 78
     7
 79
     2
140
0.12
141
0.0
146
0.71
147
0.06
176
   256
177
   256
178
     2
274
     4
284
     7
340
17
371
    -1
372
    -1
1001
ACAD_DSTYLE_DIMARC_LENGTH_SYMBOL
1070
   379
1070
     1
1001
ACAD_DSTYLE_DIMJOGGED_JOGANGLE_SYMBOL
1070
   384
1040
0.7853981633974483
  0
DIMSTYLE
105
3A9
330
9
100
AcDbSymbolTableRecord
100
AcDbDimStyleTableRecord
  2
AM_ANSI$SH
 70
     0
  4
mm
 41
0.1
 42
0.05
 43
0.5
 44
0.1
 47
0.1
 48
0.1
 75
     1
 76
     1
 78
     7
 79
     2
140
0.12
141
0.0
146
0.71
147
0.06
173
     1
176
   256
177
   256
178
     2
274
     4
284
     7
340
17
343
3A3
371
    -1
372
    -1
1001
ACAD_DSTYLE_DIMARC_LENGTH_SYMBOL
1070
   379
1070
     1
1001
ACAD_DSTYLE_DIMJOGGED_JOGANGLE_SYMBOL
1070
   384
1040
0.7853981633974483
  0
ENDTAB
  0
TABLE
  2
BLOCK_RECORD
  5
1
330
0
100
AcDbSymbolTable
 70
    31
  0
BLOCK_RECORD
  5
A
330
1
100
AcDbSymbolTableRecord
100
AcDbBlockTableRecord
  2
*MODEL_SPACE
340
2FC
  0
BLOCK_RECORD
  5
B
330
1
100
AcDbSymbolTableRecord
100
AcDbBlockTableRecord
  2
*PAPER_SPACE
340
2FD
  0
BLOCK_RECORD
  5
29
330
1
100
AcDbSymbolTableRecord
100
AcDbBlockTableRecord
  2
AI9-BLK1
340
0
102
{BLKREFS
331
2A
102
}
  0
BLOCK_RECORD
  5
2C
330
1
100
AcDbSymbolTableRecord
100
AcDbBlockTableRecord
  2
AI9-BLK2
340
0
102
{BLKREFS
331
2D
102
}
  0
BLOCK_RECORD
  5
33
330
1
100
AcDbSymbolTableRecord
100
AcDbBlockTableRecord
  2
AI9-BLK3
340
0
102
{BLKREFS
331
34
102
}
  0
BLOCK_RECORD
  5
3C
330
1
100
AcDbSymbolTableRecord
100
AcDbBlockTableRecord
  2
AI9-BLK4
340
0
102
{BLKREFS
331
3D
102
}
  0
BLOCK_RECORD
  5
3F
330
1
100
AcDbSymbolTableRecord
100
AcDbBlockTableRecord
  2
AI9-BLK5
340
0
102
{BLKREFS
331
40
102
}
  0
BLOCK_RECORD
  5
46
330
1
100
AcDbSymbolTableRecord
100
AcDbBlockTableRecord
  2
AI9-BLK6
340
0
102
{BLKREFS
331
47
102
}
  0
BLOCK_RECORD
  5
4F
330
1
100
AcDbSymbolTableRecord
100
AcDbBlockTableRecord
  2
AI9-BLK7
340
0
102
{BLKREFS
331
50
102
}
  0
BLOCK_RECORD
  5
52
330
1
100
AcDbSymbolTableRecord
100
AcDbBlockTableRecord
  2
AI9-BLK8
340
0
102
{BLKREFS
331
53
102
}
  0
BLOCK_RECORD
  5
59
330
1
100
AcDbSymbolTableRecord
100
AcDbBlockTableRecord
  2
AI9-BLK9
340
0
102
{BLKREFS
331
5A
102
}
  0
BLOCK_RECORD
  5
61
330
1
100
AcDbSymbolTableRecord
100
AcDbBlockTableRecord
  2
AI9-BLK10
340
0
102
{BLKREFS
331
62
102
}
  0
BLOCK_RECORD
  5
64
330
1
100
AcDbSymbolTableRecord
100
AcDbBlockTableRecord
  2
AI9-BLK11
340
0
102
{BLKREFS
331
65
102
}
  0
BLOCK_RECORD
  5
6B
330
1
100
AcDbSymbolTableRecord
100
AcDbBlockTableRecord
  2
AI9-BLK12
340
0
102
{BLKREFS
331
6C
102
}
  0
BLOCK_RECORD
  5
74
330
1
100
AcDbSymbolTableRecord
100
AcDbBlockTableRecord
  2
AI9-BLK13
340
0
102
{BLKREFS
331
75
102
}
  0
BLOCK_RECORD
  5
77
330
1
100
AcDbSymbolTableRecord
100
AcDbBlockTableRecord
  2
AI9-BLK14
340
0
102
{BLKREFS
331
78
102
}
  0
BLOCK_RECORD
  5
7E
330
1
100
AcDbSymbolTableRecord
100
AcDbBlockTableRecord
  2
AI9-BLK15
340
0
102
{BLKREFS
331
7F
102
}
  0
BLOCK_RECORD
  5
87
330
1
100
AcDbSymbolTableRecord
100
AcDbBlockTableRecord
  2
AI9-BLK16
340
0
102
{BLKREFS
331
88
102
}
  0
BLOCK_RECORD
  5
8A
330
1
100
AcDbSymbolTableRecord
100
AcDbBlockTableRecord
  2
AI9-BLK17
340
0
102
{BLKREFS
331
8B
102
}
  0
BLOCK_RECORD
  5
91
330
1
100
AcDbSymbolTableRecord
100
AcDbBlockTableRecord
  2
AI9-BLK18
340
0
102
{BLKREFS
331
92
102
}
  0
BLOCK_RECORD
  5
9A
330
1
100
AcDbSymbolTableRecord
100
AcDbBlockTableRecord
  2
AI9-BLK19
340
0
102
{BLKREFS
331
9B
102
}
  0
BLOCK_RECORD
  5
9D
330
1
100
AcDbSymbolTableRecord
100
AcDbBlockTableRecord
  2
AI9-BLK20
340
0
102
{BLKREFS
331
9E
102
}
  0
BLOCK_RECORD
  5
A4
330
1
100
AcDbSymbolTableRecord
100
AcDbBlockTableRecord
  2
AI9-BLK21
340
0
102
{BLKREFS
331
A5
102
}
  0
BLOCK_RECORD
  5
AE
330
1
100
AcDbSymbolTableRecord
100
AcDbBlockTableRecord
  2
AI9-BLK22
340
0
102
{BLKREFS
331
AF
102
}
  0
BLOCK_RECORD
  5
BE
330
1
100
AcDbSymbolTableRecord
100
AcDbBlockTableRecord
  2
AI9-BLK23
340
0
102
{BLKREFS
331
BF
102
}
  0
BLOCK_RECORD
  5
13A
330
1
100
AcDbSymbolTableRecord
100
AcDbBlockTableRecord
  2
AI9-BLK24
340
0
102
{BLKREFS
331
13B
102
}
  0
BLOCK_RECORD
  5
1B1
330
1
100
AcDbSymbolTableRecord
100
AcDbBlockTableRecord
  2
AI9-BLK25
340
0
102
{BLKREFS
331
1B2
102
}
  0
BLOCK_RECORD
  5
233
330
1
100
AcDbSymbolTableRecord
100
AcDbBlockTableRecord
  2
AI9-BLK26
340
0
102
{BLKREFS
331
234
102
}
  0
BLOCK_RECORD
  5
240
330
1
100
AcDbSymbolTableRecord
100
AcDbBlockTableRecord
  2
AI9-BLK27
340
0
102
{BLKREFS
331
241
102
}
  0
BLOCK_RECORD
  5
249
330
1
100
AcDbSymbolTableRecord
100
AcDbBlockTableRecord
  2
AI9-BLK28
340
0
102
{BLKREFS
331
24A
102
}
  0
BLOCK_RECORD
  5
2A5
330
1
100
AcDbSymbolTableRecord
100
AcDbBlockTableRecord
  2
AI9-BLK29
340
0
102
{BLKREFS
331
2A6
102
}
  0
BLOCK_RECORD
  5
3A3
330
1
100
AcDbSymbolTableRecord
100
AcDbBlockTableRecord
  2
GENAXEH
340
0
  0
ENDTAB
  0
ENDSEC
  0
SECTION
  2
BLOCKS
  0
BLOCK
  5
D
330
A
100
AcDbEntity
  8
0
100
AcDbBlockBegin
  2
*MODEL_SPACE
 70
     0
 10
0.0
 20
0.0
 30
0.0
  3
*MODEL_SPACE
  1

  0
ENDBLK
  5
E
330
A
100
AcDbEntity
  8
0
100
AcDbBlockEnd
  0
BLOCK
  5
F
330
B
100
AcDbEntity
 67
     1
  8
0
100
AcDbBlockBegin
  2
*PAPER_SPACE
 70
     0
 10
0.0
 20
0.0
 30
0.0
  3
*PAPER_SPACE
  1

  0
ENDBLK
  5
10
330
B
100
AcDbEntity
 67
     1
  8
0
100
AcDbBlockEnd
  0
BLOCK
  5
2B
330
29
100
AcDbEntity
  8
0
 62
     7
100
AcDbBlockBegin
  2
AI9-BLK1
 70
     0
 10
0.0
 20
0.0
 30
0.0
  3
AI9-BLK1
  1

  0
INSERT
  5
34
330
29
100
AcDbEntity
  8
LAYER_1
 62
     7
100
AcDbBlockReference
  2
AI9-BLK3
 10
0.0
 20
0.0
 30
0.0
  0
INSERT
  5
2D
330
29
100
AcDbEntity
  8
LAYER_1
 62
     7
100
AcDbBlockReference
  2
AI9-BLK2
 10
0.0
 20
-0.000086
 30
0.0
  0
ENDBLK
  5
39
330
29
100
AcDbEntity
  8
0
100
AcDbBlockEnd
  0
BLOCK
  5
2E
330
2C
100
AcDbEntity
  8
0
 62
     7
100
AcDbBlockBegin
  2
AI9-BLK2
 70
     0
 10
0.0
 20
0.0
 30
0.0
  3
AI9-BLK2
  1

  0
LINE
  5
31
330
2C
100
AcDbEntity
  8
LAYER_1
 62
     7
100
AcDbLine
 10
-3.845157
 20
-0.000086
 30
0.0
 11
3.845157
 21
-0.000086
 31
0.0
  0
SPLINE
  5
30
330
2C
100
AcDbEntity
  8
LAYER_1
 62
     7
100
AcDbSpline
210
0.0
220
0.0
230
1.0
 70
     9
 71
     3
 72
    20
 73
    16
 74
     0
 42
0.0000000001
 43
0.0000000001
 40
0.0
 40
0.0
 40
0.0
 40
0.0
 40
1.0
 40
1.0
 40
1.0
 40
2.0
 40
2.0
 40
2.0
 40
3.0
 40
3.0
 40
3.0
 40
4.0
 40
4.0
 40
4.0
 40
5.0
 40
5.0
 40
5.0
 40
5.0
 10
3.997085910373264
 20
0.065887451171875
 30
0.0
 10
3.890804714626736
 20
0.0979268391927083
 30
0.0
 10
3.821558295355902
 20
0.1275546603732639
 30
0.0
 10
3.736464436848958
 20
0.1616611056857639
 30
0.0
 10
3.736464436848958
 20
0.1616611056857639
 30
0.0
 10
3.736464436848958
 20
-0.1625223795572917
 30
0.0
 10
3.736464436848958
 20
-0.1625223795572917
 30
0.0
 10
3.766781277126736
 20
-0.148052978515625
 30
0.0
 10
3.890804714626736
 20
-0.0986158582899306
 30
0.0
 10
3.997085910373264
 20
-0.0665764702690972
 30
0.0
 10
4.110774061414929
 20
-0.0322977701822917
 30
0.0
 10
4.213782416449652
 20
-0.0086988661024306
 30
0.0
 10
4.280789523654513
 20
-0.0004306369357639
 30
0.0
 10
4.213782416449652
 20
0.0080098470052083
 30
0.0
 10
4.110774061414929
 20
0.0314364963107639
 30
0.0
 10
3.997085910373264
 20
0.065887451171875
 30
0.0
  0
SPLINE
  5
2F
330
2C
100
AcDbEntity
  8
LAYER_1
 62
     7
100
AcDbSpline
210
0.0
220
0.0
230
1.0
 70
     9
 71
     3
 72
    20
 73
    16
 74
     0
 42
0.0000000001
 43
0.0000000001
 40
0.0
 40
0.0
 40
0.0
 40
0.0
 40
1.0
 40
1.0
 40
1.0
 40
2.0
 40
2.0
 40
2.0
 40
3.0
 40
3.0
 40
3.0
 40
4.0
 40
4.0
 40
4.0
 40
5.0
 40
5.0
 40
5.0
 40
5.0
 10
-3.997085910373264
 20
-0.065887451171875
 30
0.0
 10
-3.89063245985243
 20
-0.0979268391927083
 30
0.0
 10
-3.821730550130208
 20
-0.1275546603732639
 30
0.0
 10
-3.736292182074652
 20
-0.1616611056857639
 30
0.0
 10
-3.736292182074652
 20
-0.1616611056857639
 30
0.0
 10
-3.736292182074652
 20
0.1625223795572917
 30
0.0
 10
-3.736292182074652
 20
0.1625223795572917
 30
0.0
 10
-3.766781277126736
 20
0.148052978515625
 30
0.0
 10
-3.89063245985243
 20
0.0986158582899306
 30
0.0
 10
-3.997085910373264
 20
0.0667487250434028
 30
0.0
 10
-4.110774061414929
 20
0.0322977701822917
 30
0.0
 10
-4.213954671223958
 20
0.0088711208767361
 30
0.0
 10
-4.280789523654513
 20
0.0004306369357639
 30
0.0
 10
-4.213954671223958
 20
-0.0080098470052083
 30
0.0
 10
-4.110774061414929
 20
-0.0316087510850694
 30
0.0
 10
-3.997085910373264
 20
-0.065887451171875
 30
0.0
  0
ENDBLK
  5
32
330
2C
100
AcDbEntity
  8
0
100
AcDbBlockEnd
  0
BLOCK
  5
35
330
33
100
AcDbEntity
  8
0
 62
     7
100
AcDbBlockBegin
  2
AI9-BLK3
 70
     0
 10
0.0
 20
0.0
 30
0.0
  3
AI9-BLK3
  1

  0
SPLINE
  5
37
330
33
100
AcDbEntity
  8
LAYER_1
 62
     7
100
AcDbSpline
210
0.0
220
0.0
230
1.0
 70
     9
 71
     3
 72
    20
 73
    16
 74
     0
 42
0.0000000001
 43
0.0000000001
 40
0.0
 40
0.0
 40
0.0
 40
0.0
 40
1.0
 40
1.0
 40
1.0
 40
2.0
 40
2.0
 40
2.0
 40
3.0
 40
3.0
 40
3.0
 40
4.0
 40
4.0
 40
4.0
 40
5.0
 40
5.0
 40
5.0
 40
5.0
 10
4.452699788411457
 20
0.2635498046875
 30
0.0
 10
4.02740275065104
 20
0.3920518663194444
 30
0.0
 10
3.75110609266493
 20
0.5102186414930556
 30
0.0
 10
3.409869384765624
 20
0.6471611870659722
 30
0.0
 10
3.409869384765624
 20
0.6471611870659722
 30
0.0
 10
3.409869384765624
 20
-0.6500895182291666
 30
0.0
 10
3.409869384765624
 20
-0.6500895182291666
 30
0.0
 10
3.531998019748264
 20
-0.5922119140625
 30
0.0
 10
4.02740275065104
 20
-0.3948079427083333
 30
0.0
 10
4.452699788411457
 20
-0.2664781358506944
 30
0.0
 10
4.907796902126736
 20
-0.1290188259548611
 30
0.0
 10
5.320347086588541
 20
-0.0349677191840278
 30
0.0
 10
5.588031005859374
 20
-0.0013780381944444
 30
0.0
 10
5.320347086588541
 20
0.0320393880208333
 30
0.0
 10
4.907796902126736
 20
0.1260904947916667
 30
0.0
 10
4.452699788411457
 20
0.2635498046875
 30
0.0
  0
SPLINE
  5
36
330
33
100
AcDbEntity
  8
LAYER_1
 62
     7
100
AcDbSpline
210
0.0
220
0.0
230
1.0
 70
     9
 71
     3
 72
    20
 73
    16
 74
     0
 42
0.0000000001
 43
0.0000000001
 40
0.0
 40
0.0
 40
0.0
 40
0.0
 40
1.0
 40
1.0
 40
1.0
 40
2.0
 40
2.0
 40
2.0
 40
3.0
 40
3.0
 40
3.0
 40
4.0
 40
4.0
 40
4.0
 40
5.0
 40
5.0
 40
5.0
 40
5.0
 10
-4.452527533637152
 20
-0.2637220594618056
 30
0.0
 10
-4.02740275065104
 20
-0.3920518663194444
 30
0.0
 10
-3.75110609266493
 20
-0.5103908962673611
 30
0.0
 10
-3.409869384765624
 20
-0.6473334418402778
 30
0.0
 10
-3.409869384765624
 20
-0.6473334418402778
 30
0.0
 10
-3.409869384765624
 20
0.6500895182291666
 30
0.0
 10
-3.409869384765624
 20
0.6500895182291666
 30
0.0
 10
-3.531998019748264
 20
0.5920396592881944
 30
0.0
 10
-4.02740275065104
 20
0.3948079427083333
 30
0.0
 10
-4.452527533637152
 20
0.2663058810763889
 30
0.0
 10
-4.907624647352431
 20
0.1288465711805555
 30
0.0
 10
-5.320347086588541
 20
0.0347954644097222
 30
0.0
 10
-5.588031005859374
 20
0.0013780381944444
 30
0.0
 10
-5.320347086588541
 20
-0.0322116427951389
 30
0.0
 10
-4.907624647352431
 20
-0.1262627495659722
 30
0.0
 10
-4.452527533637152
 20
-0.2637220594618056
 30
0.0
  0
ENDBLK
  5
38
330
33
100
AcDbEntity
  8
0
100
AcDbBlockEnd
  0
BLOCK
  5
3E
330
3C
100
AcDbEntity
  8
0
 62
     7
100
AcDbBlockBegin
  2
AI9-BLK4
 70
     0
 10
0.0
 20
0.0
 30
0.0
  3
AI9-BLK4
  1

  0
INSERT
  5
47
330
3C
100
AcDbEntity
  8
LAYER_1
 62
     7
100
AcDbBlockReference
  2
AI9-BLK6
 10
0.0
 20
0.0
 30
0.0
  0
INSERT
  5
40
330
3C
100
AcDbEntity
  8
LAYER_1
 62
     7
100
AcDbBlockReference
  2
AI9-BLK5
 10
0.0
 20
-0.000086
 30
0.0
  0
ENDBLK
  5
4C
330
3C
100
AcDbEntity
  8
0
100
AcDbBlockEnd
  0
BLOCK
  5
41
330
3F
100
AcDbEntity
  8
0
 62
     7
100
AcDbBlockBegin
  2
AI9-BLK5
 70
     0
 10
0.0
 20
0.0
 30
0.0
  3
AI9-BLK5
  1

  0
LINE
  5
44
330
3F
100
AcDbEntity
  8
LAYER_1
 62
     7
100
AcDbLine
 10
-2.165243
 20
0.000086
 30
0.0
 11
2.165415
 21
0.000086
 31
0.0
  0
SPLINE
  5
43
330
3F
100
AcDbEntity
  8
LAYER_1
 62
     7
100
AcDbSpline
210
0.0
220
0.0
230
1.0
 70
     9
 71
     3
 72
    20
 73
    16
 74
     0
 42
0.0000000001
 43
0.0000000001
 40
0.0
 40
0.0
 40
0.0
 40
0.0
 40
1.0
 40
1.0
 40
1.0
 40
2.0
 40
2.0
 40
2.0
 40
3.0
 40
3.0
 40
3.0
 40
4.0
 40
4.0
 40
4.0
 40
5.0
 40
5.0
 40
5.0
 40
5.0
 10
2.317343478732638
 20
0.065887451171875
 30
0.0
 10
2.211062282986111
 20
0.0979268391927083
 30
0.0
 10
2.141815863715277
 20
0.1275546603732639
 30
0.0
 10
2.056722005208333
 20
0.1618333604600694
 30
0.0
 10
2.056722005208333
 20
0.1618333604600694
 30
0.0
 10
2.056722005208333
 20
-0.1625223795572917
 30
0.0
 10
2.056722005208333
 20
-0.1625223795572917
 30
0.0
 10
2.087038845486111
 20
-0.148052978515625
 30
0.0
 10
2.211062282986111
 20
-0.0986158582899306
 30
0.0
 10
2.317343478732638
 20
-0.0665764702690972
 30
0.0
 10
2.431031629774305
 20
-0.0322977701822917
 30
0.0
 10
2.534039984809028
 20
-0.0086988661024306
 30
0.0
 10
2.601047092013888
 20
-0.0002583821614583
 30
0.0
 10
2.534039984809028
 20
0.0080098470052083
 30
0.0
 10
2.431031629774305
 20
0.0316087510850694
 30
0.0
 10
2.317343478732638
 20
0.065887451171875
 30
0.0
  0
SPLINE
  5
42
330
3F
100
AcDbEntity
  8
LAYER_1
 62
     7
100
AcDbSpline
210
0.0
220
0.0
230
1.0
 70
     9
 71
     3
 72
    20
 73
    16
 74
     0
 42
0.0000000001
 43
0.0000000001
 40
0.0
 40
0.0
 40
0.0
 40
0.0
 40
1.0
 40
1.0
 40
1.0
 40
2.0
 40
2.0
 40
2.0
 40
3.0
 40
3.0
 40
3.0
 40
4.0
 40
4.0
 40
4.0
 40
5.0
 40
5.0
 40
5.0
 40
5.0
 10
-2.317171223958333
 20
-0.065887451171875
 30
0.0
 10
-2.211062282986111
 20
-0.0979268391927083
 30
0.0
 10
-2.141643608940972
 20
-0.1275546603732639
 30
0.0
 10
-2.056549750434028
 20
-0.1616611056857639
 30
0.0
 10
-2.056549750434028
 20
-0.1616611056857639
 30
0.0
 10
-2.056549750434028
 20
0.1625223795572917
 30
0.0
 10
-2.056549750434028
 20
0.1625223795572917
 30
0.0
 10
-2.086866590711805
 20
0.148052978515625
 30
0.0
 10
-2.211062282986111
 20
0.0987881130642361
 30
0.0
 10
-2.317171223958333
 20
0.0667487250434028
 30
0.0
 10
-2.431031629774305
 20
0.0322977701822917
 30
0.0
 10
-2.534039984809028
 20
0.0088711208767361
 30
0.0
 10
-2.601047092013888
 20
0.0004306369357639
 30
0.0
 10
-2.534039984809028
 20
-0.0080098470052083
 30
0.0
 10
-2.431031629774305
 20
-0.0314364963107639
 30
0.0
 10
-2.317171223958333
 20
-0.065887451171875
 30
0.0
  0
ENDBLK
  5
45
330
3F
100
AcDbEntity
  8
0
100
AcDbBlockEnd
  0
BLOCK
  5
48
330
46
100
AcDbEntity
  8
0
 62
     7
100
AcDbBlockBegin
  2
AI9-BLK6
 70
     0
 10
0.0
 20
0.0
 30
0.0
  3
AI9-BLK6
  1

  0
SPLINE
  5
4A
330
46
100
AcDbEntity
  8
LAYER_1
 62
     7
100
AcDbSpline
210
0.0
220
0.0
230
1.0
 70
     9
 71
     3
 72
    20
 73
    16
 74
     0
 42
0.0000000001
 43
0.0000000001
 40
0.0
 40
0.0
 40
0.0
 40
0.0
 40
1.0
 40
1.0
 40
1.0
 40
2.0
 40
2.0
 40
2.0
 40
3.0
 40
3.0
 40
3.0
 40
4.0
 40
4.0
 40
4.0
 40
5.0
 40
5.0
 40
5.0
 40
5.0
 10
2.772957356770832
 20
0.2635498046875
 30
0.0
 10
2.347660319010416
 20
0.3920518663194444
 30
0.0
 10
2.071535915798611
 20
0.5102186414930556
 30
0.0
 10
1.730126953125
 20
0.6471611870659722
 30
0.0
 10
1.730126953125
 20
0.6471611870659722
 30
0.0
 10
1.730126953125
 20
-0.6500895182291666
 30
0.0
 10
1.730126953125
 20
-0.6500895182291666
 30
0.0
 10
1.852255588107638
 20
-0.5922119140625
 30
0.0
 10
2.347660319010416
 20
-0.3948079427083333
 30
0.0
 10
2.772957356770832
 20
-0.2664781358506944
 30
0.0
 10
3.22805447048611
 20
-0.1290188259548611
 30
0.0
 10
3.640604654947916
 20
-0.0349677191840278
 30
0.0
 10
3.908288574218749
 20
-0.0013780381944444
 30
0.0
 10
3.640604654947916
 20
0.0320393880208333
 30
0.0
 10
3.22805447048611
 20
0.1260904947916667
 30
0.0
 10
2.772957356770832
 20
0.2635498046875
 30
0.0
  0
SPLINE
  5
49
330
46
100
AcDbEntity
  8
LAYER_1
 62
     7
100
AcDbSpline
210
0.0
220
0.0
230
1.0
 70
     9
 71
     3
 72
    20
 73
    16
 74
     0
 42
0.0000000001
 43
0.0000000001
 40
0.0
 40
0.0
 40
0.0
 40
0.0
 40
1.0
 40
1.0
 40
1.0
 40
2.0
 40
2.0
 40
2.0
 40
3.0
 40
3.0
 40
3.0
 40
4.0
 40
4.0
 40
4.0
 40
5.0
 40
5.0
 40
5.0
 40
5.0
 10
-2.772785101996527
 20
-0.2637220594618056
 30
0.0
 10
-2.347660319010416
 20
-0.3920518663194444
 30
0.0
 10
-2.071363661024305
 20
-0.5103908962673611
 30
0.0
 10
-1.730126953125
 20
-0.6473334418402778
 30
0.0
 10
-1.730126953125
 20
-0.6473334418402778
 30
0.0
 10
-1.730126953125
 20
0.6500895182291666
 30
0.0
 10
-1.730126953125
 20
0.6500895182291666
 30
0.0
 10
-1.852083333333332
 20
0.5920396592881944
 30
0.0
 10
-2.347660319010416
 20
0.3946356879340278
 30
0.0
 10
-2.772785101996527
 20
0.2664781358506944
 30
0.0
 10
-3.227882215711805
 20
0.1288465711805555
 30
0.0
 10
-3.64043240017361
 20
0.0347954644097222
 30
0.0
 10
-3.908288574218749
 20
0.0013780381944444
 30
0.0
 10
-3.64043240017361
 20
-0.0322116427951389
 30
0.0
 10
-3.227882215711805
 20
-0.1262627495659722
 30
0.0
 10
-2.772785101996527
 20
-0.2637220594618056
 30
0.0
  0
ENDBLK
  5
4B
330
46
100
AcDbEntity
  8
0
100
AcDbBlockEnd
  0
BLOCK
  5
51
330
4F
100
AcDbEntity
  8
0
 62
     7
100
AcDbBlockBegin
  2
AI9-BLK7
 70
     0
 10
0.0
 20
0.0
 30
0.0
  3
AI9-BLK7
  1

  0
INSERT
  5
5A
330
4F
100
AcDbEntity
  8
LAYER_1
 62
     7
100
AcDbBlockReference
  2
AI9-BLK9
 10
0.0
 20
0.0
 30
0.0
  0
INSERT
  5
53
330
4F
100
AcDbEntity
  8
LAYER_1
 62
     7
100
AcDbBlockReference
  2
AI9-BLK8
 10
0.000086
 20
-0.000086
 30
0.0
  0
ENDBLK
  5
5F
330
4F
100
AcDbEntity
  8
0
100
AcDbBlockEnd
  0
BLOCK
  5
54
330
52
100
AcDbEntity
  8
0
 62
     7
100
AcDbBlockBegin
  2
AI9-BLK8
 70
     0
 10
0.0
 20
0.0
 30
0.0
  3
AI9-BLK8
  1

  0
LINE
  5
57
330
52
100
AcDbEntity
  8
LAYER_1
 62
     7
100
AcDbLine
 10
-3.769881999999999
 20
0.000086
 30
0.0
 11
3.769881999999999
 21
0.000086
 31
0.0
  0
SPLINE
  5
56
330
52
100
AcDbEntity
  8
LAYER_1
 62
     7
100
AcDbSpline
210
0.0
220
0.0
230
1.0
 70
     9
 71
     3
 72
    20
 73
    16
 74
     0
 42
0.0000000001
 43
0.0000000001
 40
0.0
 40
0.0
 40
0.0
 40
0.0
 40
1.0
 40
1.0
 40
1.0
 40
2.0
 40
2.0
 40
2.0
 40
3.0
 40
3.0
 40
3.0
 40
4.0
 40
4.0
 40
4.0
 40
5.0
 40
5.0
 40
5.0
 40
5.0
 10
3.921810574001736
 20
0.065887451171875
 30
0.0
 10
3.815529378255208
 20
0.0979268391927083
 30
0.0
 10
3.746282958984375
 20
0.1275546603732639
 30
0.0
 10
3.66118910047743
 20
0.1616611056857639
 30
0.0
 10
3.66118910047743
 20
0.1616611056857639
 30
0.0
 10
3.66118910047743
 20
-0.1625223795572917
 30
0.0
 10
3.66118910047743
 20
-0.1625223795572917
 30
0.0
 10
3.691505940755208
 20
-0.1478807237413194
 30
0.0
 10
3.815529378255208
 20
-0.0986158582899306
 30
0.0
 10
3.921810574001736
 20
-0.0665764702690972
 30
0.0
 10
4.035498725043402
 20
-0.0321255154079861
 30
0.0
 10
4.138507080078124
 20
-0.0086988661024306
 30
0.0
 10
4.205686442057291
 20
-0.0002583821614583
 30
0.0
 10
4.138507080078124
 20
0.0080098470052083
 30
0.0
 10
4.035498725043402
 20
0.0316087510850694
 30
0.0
 10
3.921810574001736
 20
0.065887451171875
 30
0.0
  0
SPLINE
  5
55
330
52
100
AcDbEntity
  8
LAYER_1
 62
     7
100
AcDbSpline
210
0.0
220
0.0
230
1.0
 70
     9
 71
     3
 72
    20
 73
    16
 74
     0
 42
0.0000000001
 43
0.0000000001
 40
0.0
 40
0.0
 40
0.0
 40
0.0
 40
1.0
 40
1.0
 40
1.0
 40
2.0
 40
2.0
 40
2.0
 40
3.0
 40
3.0
 40
3.0
 40
4.0
 40
4.0
 40
4.0
 40
5.0
 40
5.0
 40
5.0
 40
5.0
 10
-3.921810574001736
 20
-0.065887451171875
 30
0.0
 10
-3.815701633029513
 20
-0.0979268391927083
 30
0.0
 10
-3.746282958984375
 20
-0.1275546603732639
 30
0.0
 10
-3.66118910047743
 20
-0.1616611056857639
 30
0.0
 10
-3.66118910047743
 20
-0.1616611056857639
 30
0.0
 10
-3.66118910047743
 20
0.1625223795572917
 30
0.0
 10
-3.66118910047743
 20
0.1625223795572917
 30
0.0
 10
-3.691505940755208
 20
0.1478807237413194
 30
0.0
 10
-3.815701633029513
 20
0.0987881130642361
 30
0.0
 10
-3.921810574001736
 20
0.0665764702690972
 30
0.0
 10
-4.035670979817708
 20
0.0321255154079861
 30
0.0
 10
-4.138507080078124
 20
0.0088711208767361
 30
0.0
 10
-4.205686442057291
 20
0.0002583821614583
 30
0.0
 10
-4.138507080078124
 20
-0.0080098470052083
 30
0.0
 10
-4.035670979817708
 20
-0.0316087510850694
 30
0.0
 10
-3.921810574001736
 20
-0.065887451171875
 30
0.0
  0
ENDBLK
  5
58
330
52
100
AcDbEntity
  8
0
100
AcDbBlockEnd
  0
BLOCK
  5
5B
330
59
100
AcDbEntity
  8
0
 62
     7
100
AcDbBlockBegin
  2
AI9-BLK9
 70
     0
 10
0.0
 20
0.0
 30
0.0
  3
AI9-BLK9
  1

  0
SPLINE
  5
5D
330
59
100
AcDbEntity
  8
LAYER_1
 62
     7
100
AcDbSpline
210
0.0
220
0.0
230
1.0
 70
     9
 71
     3
 72
    20
 73
    16
 74
     0
 42
0.0000000001
 43
0.0000000001
 40
0.0
 40
0.0
 40
0.0
 40
0.0
 40
1.0
 40
1.0
 40
1.0
 40
2.0
 40
2.0
 40
2.0
 40
3.0
 40
3.0
 40
3.0
 40
4.0
 40
4.0
 40
4.0
 40
5.0
 40
5.0
 40
5.0
 40
5.0
 10
4.377510579427083
 20
0.2635498046875
 30
0.0
 10
3.952213541666665
 20
0.3918796115451388
 30
0.0
 10
3.67608913845486
 20
0.5102186414930556
 30
0.0
 10
3.334680175781249
 20
0.6471611870659722
 30
0.0
 10
3.334680175781249
 20
0.6471611870659722
 30
0.0
 10
3.334680175781249
 20
-0.6500895182291666
 30
0.0
 10
3.334680175781249
 20
-0.6500895182291666
 30
0.0
 10
3.456808810763889
 20
-0.5922119140625
 30
0.0
 10
3.952213541666665
 20
-0.3948079427083333
 30
0.0
 10
4.377510579427083
 20
-0.266650390625
 30
0.0
 10
4.83260769314236
 20
-0.1291910807291667
 30
0.0
 10
5.245157877604166
 20
-0.0349677191840278
 30
0.0
 10
5.512841796874999
 20
-0.00155029296875
 30
0.0
 10
5.245157877604166
 20
0.0320393880208333
 30
0.0
 10
4.83260769314236
 20
0.1259182400173611
 30
0.0
 10
4.377510579427083
 20
0.2635498046875
 30
0.0
  0
SPLINE
  5
5C
330
59
100
AcDbEntity
  8
LAYER_1
 62
     7
100
AcDbSpline
210
0.0
220
0.0
230
1.0
 70
     9
 71
     3
 72
    20
 73
    16
 74
     0
 42
0.0000000001
 43
0.0000000001
 40
0.0
 40
0.0
 40
0.0
 40
0.0
 40
1.0
 40
1.0
 40
1.0
 40
2.0
 40
2.0
 40
2.0
 40
3.0
 40
3.0
 40
3.0
 40
4.0
 40
4.0
 40
4.0
 40
5.0
 40
5.0
 40
5.0
 40
5.0
 10
-4.377338324652777
 20
-0.2635498046875
 30
0.0
 10
-3.952213541666665
 20
-0.3920518663194444
 30
0.0
 10
-3.675916883680555
 20
-0.5103908962673611
 30
0.0
 10
-3.334680175781249
 20
-0.6473334418402778
 30
0.0
 10
-3.334680175781249
 20
-0.6473334418402778
 30
0.0
 10
-3.334680175781249
 20
0.6500895182291666
 30
0.0
 10
-3.334680175781249
 20
0.6500895182291666
 30
0.0
 10
-3.456636555989582
 20
0.5920396592881944
 30
0.0
 10
-3.952213541666665
 20
0.3946356879340278
 30
0.0
 10
-4.377338324652777
 20
0.2663058810763889
 30
0.0
 10
-4.832435438368055
 20
0.1290188259548611
 30
0.0
 10
-5.24498562282986
 20
0.0347954644097222
 30
0.0
 10
-5.512841796874999
 20
0.0013780381944444
 30
0.0
 10
-5.24498562282986
 20
-0.0322116427951389
 30
0.0
 10
-4.832435438368055
 20
-0.1260904947916667
 30
0.0
 10
-4.377338324652777
 20
-0.2635498046875
 30
0.0
  0
ENDBLK
  5
5E
330
59
100
AcDbEntity
  8
0
100
AcDbBlockEnd
  0
BLOCK
  5
63
330
61
100
AcDbEntity
  8
0
 62
     7
100
AcDbBlockBegin
  2
AI9-BLK10
 70
     0
 10
0.0
 20
0.0
 30
0.0
  3
AI9-BLK10
  1

  0
INSERT
  5
6C
330
61
100
AcDbEntity
  8
LAYER_1
 62
     7
100
AcDbBlockReference
  2
AI9-BLK12
 10
0.0
 20
0.0
 30
0.0
  0
INSERT
  5
65
330
61
100
AcDbEntity
  8
LAYER_1
 62
     7
100
AcDbBlockReference
  2
AI9-BLK11
 10
0.000086
 20
0.0
 30
0.0
  0
ENDBLK
  5
71
330
61
100
AcDbEntity
  8
0
100
AcDbBlockEnd
  0
BLOCK
  5
66
330
64
100
AcDbEntity
  8
0
 62
     7
100
AcDbBlockBegin
  2
AI9-BLK11
 70
     0
 10
0.0
 20
0.0
 30
0.0
  3
AI9-BLK11
  1

  0
LINE
  5
69
330
64
100
AcDbEntity
  8
LAYER_1
 62
     7
100
AcDbLine
 10
-2.141815999999999
 20
0.000086
 30
0.0
 11
2.141815999999999
 21
0.000086
 31
0.0
  0
SPLINE
  5
68
330
64
100
AcDbEntity
  8
LAYER_1
 62
     7
100
AcDbSpline
210
0.0
220
0.0
230
1.0
 70
     9
 71
     3
 72
    20
 73
    16
 74
     0
 42
0.0000000001
 43
0.0000000001
 40
0.0
 40
0.0
 40
0.0
 40
0.0
 40
1.0
 40
1.0
 40
1.0
 40
2.0
 40
2.0
 40
2.0
 40
3.0
 40
3.0
 40
3.0
 40
4.0
 40
4.0
 40
4.0
 40
5.0
 40
5.0
 40
5.0
 40
5.0
 10
2.293744574652777
 20
0.0657151963975694
 30
0.0
 10
2.187635633680555
 20
0.0979268391927083
 30
0.0
 10
2.118216959635416
 20
0.1275546603732639
 30
0.0
 10
2.033123101128472
 20
0.1616611056857639
 30
0.0
 10
2.033123101128472
 20
0.1616611056857639
 30
0.0
 10
2.033123101128472
 20
-0.1625223795572917
 30
0.0
 10
2.033123101128472
 20
-0.1625223795572917
 30
0.0
 10
2.063439941406249
 20
-0.1478807237413194
 30
0.0
 10
2.187635633680555
 20
-0.0986158582899306
 30
0.0
 10
2.293744574652777
 20
-0.0665764702690972
 30
0.0
 10
2.407604980468749
 20
-0.0321255154079861
 30
0.0
 10
2.510441080729166
 20
-0.0088711208767361
 30
0.0
 10
2.577620442708332
 20
-0.0002583821614583
 30
0.0
 10
2.510441080729166
 20
0.0080098470052083
 30
0.0
 10
2.407604980468749
 20
0.0316087510850694
 30
0.0
 10
2.293744574652777
 20
0.0657151963975694
 30
0.0
  0
SPLINE
  5
67
330
64
100
AcDbEntity
  8
LAYER_1
 62
     7
100
AcDbSpline
210
0.0
220
0.0
230
1.0
 70
     9
 71
     3
 72
    20
 73
    16
 74
     0
 42
0.0000000001
 43
0.0000000001
 40
0.0
 40
0.0
 40
0.0
 40
0.0
 40
1.0
 40
1.0
 40
1.0
 40
2.0
 40
2.0
 40
2.0
 40
3.0
 40
3.0
 40
3.0
 40
4.0
 40
4.0
 40
4.0
 40
5.0
 40
5.0
 40
5.0
 40
5.0
 10
-2.293916829427083
 20
-0.065887451171875
 30
0.0
 10
-2.187291124131944
 20
-0.0979268391927083
 30
0.0
 10
-2.118561469184028
 20
-0.1275546603732639
 30
0.0
 10
-2.033123101128472
 20
-0.1616611056857639
 30
0.0
 10
-2.033123101128472
 20
-0.1616611056857639
 30
0.0
 10
-2.033123101128472
 20
0.1625223795572917
 30
0.0
 10
-2.033123101128472
 20
0.1625223795572917
 30
0.0
 10
-2.063612196180555
 20
0.1478807237413194
 30
0.0
 10
-2.187291124131944
 20
0.0987881130642361
 30
0.0
 10
-2.293916829427083
 20
0.0665764702690972
 30
0.0
 10
-2.407604980468749
 20
0.0321255154079861
 30
0.0
 10
-2.510785590277777
 20
0.0088711208767361
 30
0.0
 10
-2.577620442708332
 20
0.0002583821614583
 30
0.0
 10
-2.510785590277777
 20
-0.0080098470052083
 30
0.0
 10
-2.407604980468749
 20
-0.0316087510850694
 30
0.0
 10
-2.293916829427083
 20
-0.065887451171875
 30
0.0
  0
ENDBLK
  5
6A
330
64
100
AcDbEntity
  8
0
100
AcDbBlockEnd
  0
BLOCK
  5
6D
330
6B
100
AcDbEntity
  8
0
 62
     7
100
AcDbBlockBegin
  2
AI9-BLK12
 70
     0
 10
0.0
 20
0.0
 30
0.0
  3
AI9-BLK12
  1

  0
SPLINE
  5
6F
330
6B
100
AcDbEntity
  8
LAYER_1
 62
     7
100
AcDbSpline
210
0.0
220
0.0
230
1.0
 70
     9
 71
     3
 72
    20
 73
    16
 74
     0
 42
0.0000000001
 43
0.0000000001
 40
0.0
 40
0.0
 40
0.0
 40
0.0
 40
1.0
 40
1.0
 40
1.0
 40
2.0
 40
2.0
 40
2.0
 40
3.0
 40
3.0
 40
3.0
 40
4.0
 40
4.0
 40
4.0
 40
5.0
 40
5.0
 40
5.0
 40
5.0
 10
2.749444580078124
 20
0.2634636773003472
 30
0.0
 10
2.324319797092013
 20
0.3919657389322916
 30
0.0
 10
2.048023139105902
 20
0.5103047688802083
 30
0.0
 10
1.706614176432291
 20
0.647247314453125
 30
0.0
 10
1.706614176432291
 20
0.647247314453125
 30
0.0
 10
1.706614176432291
 20
-0.6501756456163194
 30
0.0
 10
1.706614176432291
 20
-0.6501756456163194
 30
0.0
 10
1.82874281141493
 20
-0.5919535319010416
 30
0.0
 10
2.324319797092013
 20
-0.3948940700954861
 30
0.0
 10
2.749444580078124
 20
-0.2663920084635417
 30
0.0
 10
3.204541693793402
 20
-0.1287604437934028
 30
0.0
 10
3.617091878255207
 20
-0.034881591796875
 30
0.0
 10
3.884775797526041
 20
-0.0012919108072917
 30
0.0
 10
3.617091878255207
 20
0.0321255154079861
 30
0.0
 10
3.204541693793402
 20
0.126348876953125
 30
0.0
 10
2.749444580078124
 20
0.2634636773003472
 30
0.0
  0
SPLINE
  5
6E
330
6B
100
AcDbEntity
  8
LAYER_1
 62
     7
100
AcDbSpline
210
0.0
220
0.0
230
1.0
 70
     9
 71
     3
 72
    20
 73
    16
 74
     0
 42
0.0000000001
 43
0.0000000001
 40
0.0
 40
0.0
 40
0.0
 40
0.0
 40
1.0
 40
1.0
 40
1.0
 40
2.0
 40
2.0
 40
2.0
 40
3.0
 40
3.0
 40
3.0
 40
4.0
 40
4.0
 40
4.0
 40
5.0
 40
5.0
 40
5.0
 40
5.0
 10
-2.749272325303819
 20
-0.2634636773003472
 30
0.0
 10
-2.324147542317708
 20
-0.3919657389322916
 30
0.0
 10
-2.047850884331596
 20
-0.5103047688802083
 30
0.0
 10
-1.706614176432291
 20
-0.647247314453125
 30
0.0
 10
-1.706614176432291
 20
-0.647247314453125
 30
0.0
 10
-1.706614176432291
 20
0.6501756456163194
 30
0.0
 10
-1.706614176432291
 20
0.6501756456163194
 30
0.0
 10
-1.828570556640624
 20
0.5921257866753473
 30
0.0
 10
-2.324147542317708
 20
0.3947218153211805
 30
0.0
 10
-2.749272325303819
 20
0.2663920084635417
 30
0.0
 10
-3.204369439019096
 20
0.1291049533420139
 30
0.0
 10
-3.616919623480902
 20
0.034881591796875
 30
0.0
 10
-3.884775797526041
 20
0.0014641655815972
 30
0.0
 10
-3.616919623480902
 20
-0.0321255154079861
 30
0.0
 10
-3.204369439019096
 20
-0.1260043674045139
 30
0.0
 10
-2.749272325303819
 20
-0.2634636773003472
 30
0.0
  0
ENDBLK
  5
70
330
6B
100
AcDbEntity
  8
0
100
AcDbBlockEnd
  0
BLOCK
  5
76
330
74
100
AcDbEntity
  8
0
 62
     7
100
AcDbBlockBegin
  2
AI9-BLK13
 70
     0
 10
0.0
 20
0.0
 30
0.0
  3
AI9-BLK13
  1

  0
INSERT
  5
7F
330
74
100
AcDbEntity
  8
LAYER_1
 62
     7
100
AcDbBlockReference
  2
AI9-BLK15
 10
0.0
 20
0.0
 30
0.0
  0
INSERT
  5
78
330
74
100
AcDbEntity
  8
LAYER_1
 62
     7
100
AcDbBlockReference
  2
AI9-BLK14
 10
0.000086
 20
0.000086
 30
0.0
  0
ENDBLK
  5
84
330
74
100
AcDbEntity
  8
0
100
AcDbBlockEnd
  0
BLOCK
  5
79
330
77
100
AcDbEntity
  8
0
 62
     7
100
AcDbBlockBegin
  2
AI9-BLK14
 70
     0
 10
0.0
 20
0.0
 30
0.0
  3
AI9-BLK14
  1

  0
LINE
  5
7C
330
77
100
AcDbEntity
  8
LAYER_1
 62
     7
100
AcDbLine
 10
-0.000086
 20
-3.34269
 30
0.0
 11
-0.000086
 21
3.342518
 31
0.0
  0
SPLINE
  5
7B
330
77
100
AcDbEntity
  8
LAYER_1
 62
     7
100
AcDbSpline
210
0.0
220
0.0
230
1.0
 70
     9
 71
     3
 72
    20
 73
    16
 74
     0
 42
0.0000000001
 43
0.0000000001
 40
0.0
 40
0.0
 40
0.0
 40
0.0
 40
1.0
 40
1.0
 40
1.0
 40
2.0
 40
2.0
 40
2.0
 40
3.0
 40
3.0
 40
3.0
 40
4.0
 40
4.0
 40
4.0
 40
5.0
 40
5.0
 40
5.0
 40
5.0
 10
-0.0657151963975694
 20
3.494274224175347
 30
0.0
 10
-0.0979268391927083
 20
3.388165283203124
 30
0.0
 10
-0.1275546603732639
 20
3.319091118706596
 30
0.0
 10
-0.1616611056857639
 20
3.233652750651041
 30
0.0
 10
-0.1616611056857639
 20
3.233652750651041
 30
0.0
 10
0.1625223795572917
 20
3.233652750651041
 30
0.0
 10
0.1625223795572917
 20
3.233652750651041
 30
0.0
 10
0.1478807237413194
 20
3.264141845703124
 30
0.0
 10
0.0986158582899306
 20
3.388165283203124
 30
0.0
 10
0.0665764702690972
 20
3.494274224175347
 30
0.0
 10
0.0321255154079861
 20
3.608134629991319
 30
0.0
 10
0.0088711208767361
 20
3.711315239800347
 30
0.0
 10
0.0002583821614583
 20
3.778322347005207
 30
0.0
 10
-0.0080098470052083
 20
3.711315239800347
 30
0.0
 10
-0.0316087510850694
 20
3.608134629991319
 30
0.0
 10
-0.0657151963975694
 20
3.494274224175347
 30
0.0
  0
SPLINE
  5
7A
330
77
100
AcDbEntity
  8
LAYER_1
 62
     7
100
AcDbSpline
210
0.0
220
0.0
230
1.0
 70
     9
 71
     3
 72
    20
 73
    16
 74
     0
 42
0.0000000001
 43
0.0000000001
 40
0.0
 40
0.0
 40
0.0
 40
0.0
 40
1.0
 40
1.0
 40
1.0
 40
2.0
 40
2.0
 40
2.0
 40
3.0
 40
3.0
 40
3.0
 40
4.0
 40
4.0
 40
4.0
 40
5.0
 40
5.0
 40
5.0
 40
5.0
 10
0.065887451171875
 20
-3.494618733723958
 30
0.0
 10
0.0979268391927083
 20
-3.388165283203124
 30
0.0
 10
0.1275546603732639
 20
-3.319091118706596
 30
0.0
 10
0.1616611056857639
 20
-3.233825005425346
 30
0.0
 10
0.1616611056857639
 20
-3.233825005425346
 30
0.0
 10
-0.1625223795572917
 20
-3.233825005425346
 30
0.0
 10
-0.1625223795572917
 20
-3.233825005425346
 30
0.0
 10
-0.1478807237413194
 20
-3.26431410047743
 30
0.0
 10
-0.0986158582899306
 20
-3.388165283203124
 30
0.0
 10
-0.0665764702690972
 20
-3.494618733723958
 30
0.0
 10
-0.0321255154079861
 20
-3.608306884765625
 30
0.0
 10
-0.0088711208767361
 20
-3.711487494574651
 30
0.0
 10
-0.0002583821614583
 20
-3.778322347005207
 30
0.0
 10
0.0080098470052083
 20
-3.711487494574651
 30
0.0
 10
0.0316087510850694
 20
-3.608306884765625
 30
0.0
 10
0.065887451171875
 20
-3.494618733723958
 30
0.0
  0
ENDBLK
  5
7D
330
77
100
AcDbEntity
  8
0
100
AcDbBlockEnd
  0
BLOCK
  5
80
330
7E
100
AcDbEntity
  8
0
 62
     7
100
AcDbBlockBegin
  2
AI9-BLK15
 70
     0
 10
0.0
 20
0.0
 30
0.0
  3
AI9-BLK15
  1

  0
SPLINE
  5
82
330
7E
100
AcDbEntity
  8
LAYER_1
 62
     7
100
AcDbSpline
210
0.0
220
0.0
230
1.0
 70
     9
 71
     3
 72
    20
 73
    16
 74
     0
 42
0.0000000001
 43
0.0000000001
 40
0.0
 40
0.0
 40
0.0
 40
0.0
 40
1.0
 40
1.0
 40
1.0
 40
2.0
 40
2.0
 40
2.0
 40
3.0
 40
3.0
 40
3.0
 40
4.0
 40
4.0
 40
4.0
 40
5.0
 40
5.0
 40
5.0
 40
5.0
 10
-0.2635498046875
 20
3.950146484374999
 30
0.0
 10
-0.3918796115451388
 20
3.525021701388888
 30
0.0
 10
-0.5102186414930556
 20
3.248725043402777
 30
0.0
 10
-0.6471611870659722
 20
2.907488335503471
 30
0.0
 10
-0.6471611870659722
 20
2.907488335503471
 30
0.0
 10
0.6500895182291666
 20
2.907488335503471
 30
0.0
 10
0.6500895182291666
 20
2.907488335503471
 30
0.0
 10
0.5920396592881944
 20
3.029444715711804
 30
0.0
 10
0.3949801974826389
 20
3.525021701388888
 30
0.0
 10
0.2664781358506944
 20
3.950146484374999
 30
0.0
 10
0.1290188259548611
 20
4.405243598090276
 30
0.0
 10
0.0349677191840278
 20
4.817793782552082
 30
0.0
 10
0.0013780381944444
 20
5.085477701822916
 30
0.0
 10
-0.0320393880208333
 20
4.817793782552082
 30
0.0
 10
-0.1262627495659722
 20
4.405243598090276
 30
0.0
 10
-0.2635498046875
 20
3.950146484374999
 30
0.0
  0
SPLINE
  5
81
330
7E
100
AcDbEntity
  8
LAYER_1
 62
     7
100
AcDbSpline
210
0.0
220
0.0
230
1.0
 70
     9
 71
     3
 72
    20
 73
    16
 74
     0
 42
0.0000000001
 43
0.0000000001
 40
0.0
 40
0.0
 40
0.0
 40
0.0
 40
1.0
 40
1.0
 40
1.0
 40
2.0
 40
2.0
 40
2.0
 40
3.0
 40
3.0
 40
3.0
 40
4.0
 40
4.0
 40
4.0
 40
5.0
 40
5.0
 40
5.0
 40
5.0
 10
0.2635498046875
 20
-3.949974229600694
 30
0.0
 10
0.3920518663194444
 20
-3.524849446614583
 30
0.0
 10
0.5103908962673611
 20
-3.248552788628471
 30
0.0
 10
0.6473334418402778
 20
-2.907316080729166
 30
0.0
 10
0.6473334418402778
 20
-2.907316080729166
 30
0.0
 10
-0.6500895182291666
 20
-2.907316080729166
 30
0.0
 10
-0.6500895182291666
 20
-2.907316080729166
 30
0.0
 10
-0.5920396592881944
 20
-3.029444715711804
 30
0.0
 10
-0.3946356879340278
 20
-3.524849446614583
 30
0.0
 10
-0.2663058810763889
 20
-3.949974229600694
 30
0.0
 10
-0.1290188259548611
 20
-4.405071343315971
 30
0.0
 10
-0.0347954644097222
 20
-4.817793782552082
 30
0.0
 10
-0.0013780381944444
 20
-5.085477701822916
 30
0.0
 10
0.0322116427951389
 20
-4.817793782552082
 30
0.0
 10
0.1260904947916667
 20
-4.405071343315971
 30
0.0
 10
0.2635498046875
 20
-3.949974229600694
 30
0.0
  0
ENDBLK
  5
83
330
7E
100
AcDbEntity
  8
0
100
AcDbBlockEnd
  0
BLOCK
  5
89
330
87
100
AcDbEntity
  8
0
 62
     7
100
AcDbBlockBegin
  2
AI9-BLK16
 70
     0
 10
0.0
 20
0.0
 30
0.0
  3
AI9-BLK16
  1

  0
INSERT
  5
92
330
87
100
AcDbEntity
  8
LAYER_1
 62
     7
100
AcDbBlockReference
  2
AI9-BLK18
 10
0.0
 20
0.0
 30
0.0
  0
INSERT
  5
8B
330
87
100
AcDbEntity
  8
LAYER_1
 62
     7
100
AcDbBlockReference
  2
AI9-BLK17
 10
0.000086
 20
0.000086
 30
0.0
  0
ENDBLK
  5
97
330
87
100
AcDbEntity
  8
0
100
AcDbBlockEnd
  0
BLOCK
  5
8C
330
8A
100
AcDbEntity
  8
0
 62
     7
100
AcDbBlockBegin
  2
AI9-BLK17
 70
     0
 10
0.0
 20
0.0
 30
0.0
  3
AI9-BLK17
  1

  0
LINE
  5
8F
330
8A
100
AcDbEntity
  8
LAYER_1
 62
     7
100
AcDbLine
 10
0.000086
 20
-4.195954
 30
0.0
 11
0.000086
 21
4.195782
 31
0.0
  0
SPLINE
  5
8E
330
8A
100
AcDbEntity
  8
LAYER_1
 62
     7
100
AcDbSpline
210
0.0
220
0.0
230
1.0
 70
     9
 71
     3
 72
    20
 73
    16
 74
     0
 42
0.0000000001
 43
0.0000000001
 40
0.0
 40
0.0
 40
0.0
 40
0.0
 40
1.0
 40
1.0
 40
1.0
 40
2.0
 40
2.0
 40
2.0
 40
3.0
 40
3.0
 40
3.0
 40
4.0
 40
4.0
 40
4.0
 40
5.0
 40
5.0
 40
5.0
 40
5.0
 10
-0.0657151963975694
 20
4.34771050347222
 30
0.0
 10
-0.0979268391927083
 20
4.241429307725693
 30
0.0
 10
-0.1275546603732639
 20
4.172355143229165
 30
0.0
 10
-0.1616611056857639
 20
4.087089029947915
 30
0.0
 10
-0.1616611056857639
 20
4.087089029947915
 30
0.0
 10
0.1625223795572917
 20
4.087089029947915
 30
0.0
 10
0.1625223795572917
 20
4.087089029947915
 30
0.0
 10
0.1478807237413194
 20
4.117405870225693
 30
0.0
 10
0.0987881130642361
 20
4.241429307725693
 30
0.0
 10
0.0665764702690972
 20
4.34771050347222
 30
0.0
 10
0.0321255154079861
 20
4.461570909288193
 30
0.0
 10
0.0088711208767361
 20
4.564579264322916
 30
0.0
 10
0.0002583821614583
 20
4.631586371527776
 30
0.0
 10
-0.0080098470052083
 20
4.564579264322916
 30
0.0
 10
-0.0316087510850694
 20
4.461570909288193
 30
0.0
 10
-0.0657151963975694
 20
4.34771050347222
 30
0.0
  0
SPLINE
  5
8D
330
8A
100
AcDbEntity
  8
LAYER_1
 62
     7
100
AcDbSpline
210
0.0
220
0.0
230
1.0
 70
     9
 71
     3
 72
    20
 73
    16
 74
     0
 42
0.0000000001
 43
0.0000000001
 40
0.0
 40
0.0
 40
0.0
 40
0.0
 40
1.0
 40
1.0
 40
1.0
 40
2.0
 40
2.0
 40
2.0
 40
3.0
 40
3.0
 40
3.0
 40
4.0
 40
4.0
 40
4.0
 40
5.0
 40
5.0
 40
5.0
 40
5.0
 10
0.065887451171875
 20
-4.347882758246527
 30
0.0
 10
0.0979268391927083
 20
-4.241429307725693
 30
0.0
 10
0.1275546603732639
 20
-4.172355143229165
 30
0.0
 10
0.1618333604600694
 20
-4.087089029947915
 30
0.0
 10
0.1618333604600694
 20
-4.087089029947915
 30
0.0
 10
-0.1625223795572917
 20
-4.087089029947915
 30
0.0
 10
-0.1625223795572917
 20
-4.087089029947915
 30
0.0
 10
-0.1478807237413194
 20
-4.117578124999999
 30
0.0
 10
-0.0986158582899306
 20
-4.241429307725693
 30
0.0
 10
-0.0665764702690972
 20
-4.347882758246527
 30
0.0
 10
-0.0321255154079861
 20
-4.461570909288193
 30
0.0
 10
-0.0086988661024306
 20
-4.56475151909722
 30
0.0
 10
-0.0002583821614583
 20
-4.631586371527776
 30
0.0
 10
0.0080098470052083
 20
-4.56475151909722
 30
0.0
 10
0.0316087510850694
 20
-4.461570909288193
 30
0.0
 10
0.065887451171875
 20
-4.347882758246527
 30
0.0
  0
ENDBLK
  5
90
330
8A
100
AcDbEntity
  8
0
100
AcDbBlockEnd
  0
BLOCK
  5
93
330
91
100
AcDbEntity
  8
0
 62
     7
100
AcDbBlockBegin
  2
AI9-BLK18
 70
     0
 10
0.0
 20
0.0
 30
0.0
  3
AI9-BLK18
  1

  0
SPLINE
  5
95
330
91
100
AcDbEntity
  8
LAYER_1
 62
     7
100
AcDbSpline
210
0.0
220
0.0
230
1.0
 70
     9
 71
     3
 72
    20
 73
    16
 74
     0
 42
0.0000000001
 43
0.0000000001
 40
0.0
 40
0.0
 40
0.0
 40
0.0
 40
1.0
 40
1.0
 40
1.0
 40
2.0
 40
2.0
 40
2.0
 40
3.0
 40
3.0
 40
3.0
 40
4.0
 40
4.0
 40
4.0
 40
5.0
 40
5.0
 40
5.0
 40
5.0
 10
-0.2635498046875
 20
4.803410508897568
 30
0.0
 10
-0.3918796115451388
 20
4.378285725911458
 30
0.0
 10
-0.5102186414930556
 20
4.101989067925346
 30
0.0
 10
-0.6471611870659722
 20
3.760580105251735
 30
0.0
 10
-0.6471611870659722
 20
3.760580105251735
 30
0.0
 10
0.6500895182291666
 20
3.760580105251735
 30
0.0
 10
0.6500895182291666
 20
3.760580105251735
 30
0.0
 10
0.5920396592881944
 20
3.882708740234375
 30
0.0
 10
0.3949801974826389
 20
4.378285725911458
 30
0.0
 10
0.266650390625
 20
4.803410508897568
 30
0.0
 10
0.1290188259548611
 20
5.258507622612846
 30
0.0
 10
0.0349677191840278
 20
5.671057807074652
 30
0.0
 10
0.0013780381944444
 20
5.938741726345484
 30
0.0
 10
-0.0320393880208333
 20
5.671057807074652
 30
0.0
 10
-0.1262627495659722
 20
5.258507622612846
 30
0.0
 10
-0.2635498046875
 20
4.803410508897568
 30
0.0
  0
SPLINE
  5
94
330
91
100
AcDbEntity
  8
LAYER_1
 62
     7
100
AcDbSpline
210
0.0
220
0.0
230
1.0
 70
     9
 71
     3
 72
    20
 73
    16
 74
     0
 42
0.0000000001
 43
0.0000000001
 40
0.0
 40
0.0
 40
0.0
 40
0.0
 40
1.0
 40
1.0
 40
1.0
 40
2.0
 40
2.0
 40
2.0
 40
3.0
 40
3.0
 40
3.0
 40
4.0
 40
4.0
 40
4.0
 40
5.0
 40
5.0
 40
5.0
 40
5.0
 10
0.2635498046875
 20
-4.803238254123263
 30
0.0
 10
0.39222412109375
 20
-4.378113471137152
 30
0.0
 10
0.5103908962673611
 20
-4.101816813151041
 30
0.0
 10
0.6473334418402778
 20
-3.760580105251735
 30
0.0
 10
0.6473334418402778
 20
-3.760580105251735
 30
0.0
 10
-0.6500895182291666
 20
-3.760580105251735
 30
0.0
 10
-0.6500895182291666
 20
-3.760580105251735
 30
0.0
 10
-0.5920396592881944
 20
-3.882708740234375
 30
0.0
 10
-0.3946356879340278
 20
-4.378113471137152
 30
0.0
 10
-0.2663058810763889
 20
-4.803238254123263
 30
0.0
 10
-0.1290188259548611
 20
-5.258335367838541
 30
0.0
 10
-0.0347954644097222
 20
-5.671057807074652
 30
0.0
 10
-0.0013780381944444
 20
-5.938741726345484
 30
0.0
 10
0.0322116427951389
 20
-5.671057807074652
 30
0.0
 10
0.1262627495659722
 20
-5.258335367838541
 30
0.0
 10
0.2635498046875
 20
-4.803238254123263
 30
0.0
  0
ENDBLK
  5
96
330
91
100
AcDbEntity
  8
0
100
AcDbBlockEnd
  0
BLOCK
  5
9C
330
9A
100
AcDbEntity
  8
0
 62
     7
100
AcDbBlockBegin
  2
AI9-BLK19
 70
     0
 10
0.0
 20
0.0
 30
0.0
  3
AI9-BLK19
  1

  0
INSERT
  5
A5
330
9A
100
AcDbEntity
  8
LAYER_1
 62
     7
100
AcDbBlockReference
  2
AI9-BLK21
 10
0.0
 20
0.0
 30
0.0
  0
INSERT
  5
9E
330
9A
100
AcDbEntity
  8
LAYER_1
 62
     7
100
AcDbBlockReference
  2
AI9-BLK20
 10
0.0
 20
0.000086
 30
0.0
  0
ENDBLK
  5
AA
330
9A
100
AcDbEntity
  8
0
100
AcDbBlockEnd
  0
BLOCK
  5
9F
330
9D
100
AcDbEntity
  8
0
 62
     7
100
AcDbBlockBegin
  2
AI9-BLK20
 70
     0
 10
0.0
 20
0.0
 30
0.0
  3
AI9-BLK20
  1

  0
LINE
  5
A2
330
9D
100
AcDbEntity
  8
LAYER_1
 62
     7
100
AcDbLine
 10
-6.546457
 20
-0.000086
 30
0.0
 11
6.546629
 21
-0.000086
 31
0.0
  0
SPLINE
  5
A1
330
9D
100
AcDbEntity
  8
LAYER_1
 62
     7
100
AcDbSpline
210
0.0
220
0.0
230
1.0
 70
     9
 71
     3
 72
    20
 73
    16
 74
     0
 42
0.0000000001
 43
0.0000000001
 40
0.0
 40
0.0
 40
0.0
 40
0.0
 40
1.0
 40
1.0
 40
1.0
 40
2.0
 40
2.0
 40
2.0
 40
3.0
 40
3.0
 40
3.0
 40
4.0
 40
4.0
 40
4.0
 40
5.0
 40
5.0
 40
5.0
 40
5.0
 10
6.698557535807291
 20
0.065887451171875
 30
0.0
 10
6.592276340060763
 20
0.0979268391927083
 30
0.0
 10
6.523029920789929
 20
0.1275546603732639
 30
0.0
 10
6.437763807508679
 20
0.1616611056857639
 30
0.0
 10
6.437763807508679
 20
0.1616611056857639
 30
0.0
 10
6.437763807508679
 20
-0.1625223795572917
 30
0.0
 10
6.437763807508679
 20
-0.1625223795572917
 30
0.0
 10
6.468252902560763
 20
-0.148052978515625
 30
0.0
 10
6.592276340060763
 20
-0.0987881130642361
 30
0.0
 10
6.698557535807291
 20
-0.0665764702690972
 30
0.0
 10
6.812245686848957
 20
-0.0322977701822917
 30
0.0
 10
6.915254041883679
 20
-0.0088711208767361
 30
0.0
 10
6.98226114908854
 20
-0.0004306369357639
 30
0.0
 10
6.915254041883679
 20
0.0080098470052083
 30
0.0
 10
6.812245686848957
 20
0.0314364963107639
 30
0.0
 10
6.698557535807291
 20
0.065887451171875
 30
0.0
  0
SPLINE
  5
A0
330
9D
100
AcDbEntity
  8
LAYER_1
 62
     7
100
AcDbSpline
210
0.0
220
0.0
230
1.0
 70
     9
 71
     3
 72
    20
 73
    16
 74
     0
 42
0.0000000001
 43
0.0000000001
 40
0.0
 40
0.0
 40
0.0
 40
0.0
 40
1.0
 40
1.0
 40
1.0
 40
2.0
 40
2.0
 40
2.0
 40
3.0
 40
3.0
 40
3.0
 40
4.0
 40
4.0
 40
4.0
 40
5.0
 40
5.0
 40
5.0
 40
5.0
 10
-6.698385281032985
 20
-0.065887451171875
 30
0.0
 10
-6.592276340060763
 20
-0.0979268391927083
 30
0.0
 10
-6.522857666015624
 20
-0.1275546603732639
 30
0.0
 10
-6.437763807508679
 20
-0.1618333604600694
 30
0.0
 10
-6.437763807508679
 20
-0.1618333604600694
 30
0.0
 10
-6.437763807508679
 20
0.1625223795572917
 30
0.0
 10
-6.437763807508679
 20
0.1625223795572917
 30
0.0
 10
-6.468080647786457
 20
0.148052978515625
 30
0.0
 10
-6.592276340060763
 20
0.0986158582899306
 30
0.0
 10
-6.698385281032985
 20
0.0665764702690972
 30
0.0
 10
-6.812245686848957
 20
0.0322977701822917
 30
0.0
 10
-6.915081787109373
 20
0.0086988661024306
 30
0.0
 10
-6.98226114908854
 20
0.0002583821614583
 30
0.0
 10
-6.915081787109373
 20
-0.0080098470052083
 30
0.0
 10
-6.812245686848957
 20
-0.0316087510850694
 30
0.0
 10
-6.698385281032985
 20
-0.065887451171875
 30
0.0
  0
ENDBLK
  5
A3
330
9D
100
AcDbEntity
  8
0
100
AcDbBlockEnd
  0
BLOCK
  5
A6
330
A4
100
AcDbEntity
  8
0
 62
     7
100
AcDbBlockBegin
  2
AI9-BLK21
 70
     0
 10
0.0
 20
0.0
 30
0.0
  3
AI9-BLK21
  1

  0
SPLINE
  5
A8
330
A4
100
AcDbEntity
  8
LAYER_1
 62
     7
100
AcDbSpline
210
0.0
220
0.0
230
1.0
 70
     9
 71
     3
 72
    20
 73
    16
 74
     0
 42
0.0000000001
 43
0.0000000001
 40
0.0
 40
0.0
 40
0.0
 40
0.0
 40
1.0
 40
1.0
 40
1.0
 40
2.0
 40
2.0
 40
2.0
 40
3.0
 40
3.0
 40
3.0
 40
4.0
 40
4.0
 40
4.0
 40
5.0
 40
5.0
 40
5.0
 40
5.0
 10
7.154171413845485
 20
0.2635498046875
 30
0.0
 10
6.728874376085069
 20
0.3920518663194444
 30
0.0
 10
6.452577718098957
 20
0.5103908962673611
 30
0.0
 10
6.111341010199652
 20
0.6471611870659722
 30
0.0
 10
6.111341010199652
 20
0.6471611870659722
 30
0.0
 10
6.111341010199652
 20
-0.6500895182291666
 30
0.0
 10
6.111341010199652
 20
-0.6500895182291666
 30
0.0
 10
6.233469645182291
 20
-0.5920396592881944
 30
0.0
 10
6.728874376085069
 20
-0.3948079427083333
 30
0.0
 10
7.154171413845485
 20
-0.2664781358506944
 30
0.0
 10
7.609096272786457
 20
-0.1288465711805555
 30
0.0
 10
8.021818712022568
 20
-0.0347954644097222
 30
0.0
 10
8.289502631293402
 20
-0.0013780381944444
 30
0.0
 10
8.021818712022568
 20
0.0322116427951389
 30
0.0
 10
7.609096272786457
 20
0.1262627495659722
 30
0.0
 10
7.154171413845485
 20
0.2635498046875
 30
0.0
  0
SPLINE
  5
A7
330
A4
100
AcDbEntity
  8
LAYER_1
 62
     7
100
AcDbSpline
210
0.0
220
0.0
230
1.0
 70
     9
 71
     3
 72
    20
 73
    16
 74
     0
 42
0.0000000001
 43
0.0000000001
 40
0.0
 40
0.0
 40
0.0
 40
0.0
 40
1.0
 40
1.0
 40
1.0
 40
2.0
 40
2.0
 40
2.0
 40
3.0
 40
3.0
 40
3.0
 40
4.0
 40
4.0
 40
4.0
 40
5.0
 40
5.0
 40
5.0
 40
5.0
 10
-7.15399915907118
 20
-0.2635498046875
 30
0.0
 10
-6.728874376085069
 20
-0.3920518663194444
 30
0.0
 10
-6.452577718098957
 20
-0.5102186414930556
 30
0.0
 10
-6.111168755425345
 20
-0.6471611870659722
 30
0.0
 10
-6.111168755425345
 20
-0.6471611870659722
 30
0.0
 10
-6.111168755425345
 20
0.6500895182291666
 30
0.0
 10
-6.111168755425345
 20
0.6500895182291666
 30
0.0
 10
-6.233297390407985
 20
0.5922119140625
 30
0.0
 10
-6.728874376085069
 20
0.3948079427083333
 30
0.0
 10
-7.15399915907118
 20
0.2664781358506944
 30
0.0
 10
-7.609096272786457
 20
0.1290188259548611
 30
0.0
 10
-8.021646457248264
 20
0.0349677191840278
 30
0.0
 10
-8.289502631293402
 20
0.0013780381944444
 30
0.0
 10
-8.021646457248264
 20
-0.0320393880208333
 30
0.0
 10
-7.609096272786457
 20
-0.1260904947916667
 30
0.0
 10
-7.15399915907118
 20
-0.2635498046875
 30
0.0
  0
ENDBLK
  5
A9
330
A4
100
AcDbEntity
  8
0
100
AcDbBlockEnd
  0
BLOCK
  5
B0
330
AE
100
AcDbEntity
  8
0
 62
     7
100
AcDbBlockBegin
  2
AI9-BLK22
 70
     0
 10
0.0
 20
0.0
 30
0.0
  3
AI9-BLK22
  1

  0
LINE
  5
BC
330
AE
100
AcDbEntity
  8
LAYER_1
 62
     7
100
AcDbLine
 10
-3.038056999999999
 20
0.363802
 30
0.0
 11
-4.437282999999999
 21
1.762683
 31
0.0
  0
LINE
  5
BB
330
AE
100
AcDbEntity
  8
LAYER_1
 62
     7
100
AcDbLine
 10
2.757282
 20
0.363802
 30
0.0
 11
4.156334999999999
 21
1.762683
 31
0.0
  0
POLYLINE
  5
B2
330
AE
100
AcDbEntity
  8
LAYER_1
 62
     7
100
AcDb2dPolyline
 66
     1
 10
0.0
 20
0.0
 30
0.0
  0
VERTEX
  5
B3
330
B2
100
AcDbEntity
  8
LAYER_1
 62
     7
100
AcDbVertex
100
AcDb2dVertex
 10
4.437282999999999
 20
1.762683
 30
0.0
  0
VERTEX
  5
B4
330
B2
100
AcDbEntity
  8
LAYER_1
 62
     7
100
AcDbVertex
100
AcDb2dVertex
 10
4.427808999999999
 20
1.834685999999999
 30
0.0
  0
VERTEX
  5
B5
330
B2
100
AcDbEntity
  8
LAYER_1
 62
     7
100
AcDbVertex
100
AcDb2dVertex
 10
4.399214999999999
 20
1.903070999999999
 30
0.0
  0
VERTEX
  5
B6
330
B2
100
AcDbEntity
  8
LAYER_1
 62
     7
100
AcDbVertex
100
AcDb2dVertex
 10
4.355462
 20
1.961981999999999
 30
0.0
  0
VERTEX
  5
B7
330
B2
100
AcDbEntity
  8
LAYER_1
 62
     7
100
AcDbVertex
100
AcDb2dVertex
 10
4.296895
 20
2.005735
 30
0.0
  0
VERTEX
  5
B8
330
B2
100
AcDbEntity
  8
LAYER_1
 62
     7
100
AcDbVertex
100
AcDb2dVertex
 10
4.228682
 20
2.034156999999999
 30
0.0
  0
VERTEX
  5
B9
330
B2
100
AcDbEntity
  8
LAYER_1
 62
     7
100
AcDbVertex
100
AcDb2dVertex
 10
4.156334999999999
 20
2.043458
 30
0.0
  0
SEQEND
  5
BA
330
B2
100
AcDbEntity
  8
LAYER_1
 62
     7
  0
LINE
  5
B1
330
AE
100
AcDbEntity
  8
LAYER_1
 62
     7
100
AcDbLine
 10
-3.038056999999999
 20
-1.092439999999999
 30
0.0
 11
-3.989248
 21
-2.043458
 31
0.0
  0
ENDBLK
  5
BD
330
AE
100
AcDbEntity
  8
0
100
AcDbBlockEnd
  0
BLOCK
  5
C0
330
BE
100
AcDbEntity
  8
0
 62
     7
100
AcDbBlockBegin
  2
AI9-BLK23
 70
     0
 10
0.0
 20
0.0
 30
0.0
  3
AI9-BLK23
  1

  0
LINE
  5
138
330
BE
100
AcDbEntity
  8
LAYER_1
 62
     7
100
AcDbLine
 10
-4.577412
 20
-7.245207999999999
 30
0.0
 11
-4.577412
 21
-6.825767999999999
 31
0.0
  0
POLYLINE
  5
12F
330
BE
100
AcDbEntity
  8
LAYER_1
 62
     7
100
AcDb2dPolyline
 66
     1
 10
0.0
 20
0.0
 30
0.0
  0
VERTEX
  5
130
330
12F
100
AcDbEntity
  8
LAYER_1
 62
     7
100
AcDbVertex
100
AcDb2dVertex
 10
-4.298531999999999
 20
-6.546714999999999
 30
0.0
  0
VERTEX
  5
131
330
12F
100
AcDbEntity
  8
LAYER_1
 62
     7
100
AcDbVertex
100
AcDb2dVertex
 10
-4.370707
 20
-6.556188999999999
 30
0.0
  0
VERTEX
  5
132
330
12F
100
AcDbEntity
  8
LAYER_1
 62
     7
100
AcDbVertex
100
AcDb2dVertex
 10
-4.437197
 20
-6.582544
 30
0.0
  0
VERTEX
  5
133
330
12F
100
AcDbEntity
  8
LAYER_1
 62
     7
100
AcDbVertex
100
AcDb2dVertex
 10
-4.495936
 20
-6.628019
 30
0.0
  0
VERTEX
  5
134
330
12F
100
AcDbEntity
  8
LAYER_1
 62
     7
100
AcDbVertex
100
AcDb2dVertex
 10
-4.539516
 20
-6.685036
 30
0.0
  0
VERTEX
  5
135
330
12F
100
AcDbEntity
  8
LAYER_1
 62
     7
100
AcDbVertex
100
AcDb2dVertex
 10
-4.568283
 20
-6.753421
 30
0.0
  0
VERTEX
  5
136
330
12F
100
AcDbEntity
  8
LAYER_1
 62
     7
100
AcDbVertex
100
AcDb2dVertex
 10
-4.577412
 20
-6.825767999999999
 30
0.0
  0
SEQEND
  5
137
330
12F
100
AcDbEntity
  8
LAYER_1
 62
     7
  0
LINE
  5
12E
330
BE
100
AcDbEntity
  8
LAYER_1
 62
     7
100
AcDbLine
 10
-4.298531999999999
 20
-6.546714999999999
 30
0.0
 11
4.297153999999999
 21
-6.546714999999999
 31
0.0
  0
POLYLINE
  5
125
330
BE
100
AcDbEntity
  8
LAYER_1
 62
     7
100
AcDb2dPolyline
 66
     1
 10
0.0
 20
0.0
 30
0.0
  0
VERTEX
  5
126
330
125
100
AcDbEntity
  8
LAYER_1
 62
     7
100
AcDbVertex
100
AcDb2dVertex
 10
4.577929
 20
-6.825767999999999
 30
0.0
  0
VERTEX
  5
127
330
125
100
AcDbEntity
  8
LAYER_1
 62
     7
100
AcDbVertex
100
AcDb2dVertex
 10
4.568626999999999
 20
-6.753421
 30
0.0
  0
VERTEX
  5
128
330
125
100
AcDbEntity
  8
LAYER_1
 62
     7
100
AcDbVertex
100
AcDb2dVertex
 10
4.540033
 20
-6.685036
 30
0.0
  0
VERTEX
  5
129
330
125
100
AcDbEntity
  8
LAYER_1
 62
     7
100
AcDbVertex
100
AcDb2dVertex
 10
4.494558
 20
-6.628019
 30
0.0
  0
VERTEX
  5
12A
330
125
100
AcDbEntity
  8
LAYER_1
 62
     7
100
AcDbVertex
100
AcDb2dVertex
 10
4.437713999999999
 20
-6.582544
 30
0.0
  0
VERTEX
  5
12B
330
125
100
AcDbEntity
  8
LAYER_1
 62
     7
100
AcDbVertex
100
AcDb2dVertex
 10
4.369155999999999
 20
-6.556188999999999
 30
0.0
  0
VERTEX
  5
12C
330
125
100
AcDbEntity
  8
LAYER_1
 62
     7
100
AcDbVertex
100
AcDb2dVertex
 10
4.297153999999999
 20
-6.546714999999999
 30
0.0
  0
SEQEND
  5
12D
330
125
100
AcDbEntity
  8
LAYER_1
 62
     7
  0
POLYLINE
  5
11B
330
BE
100
AcDbEntity
  8
LAYER_1
 62
     7
100
AcDb2dPolyline
 66
     1
 10
0.0
 20
0.0
 30
0.0
  0
VERTEX
  5
11C
330
11B
100
AcDbEntity
  8
LAYER_1
 62
     7
100
AcDbVertex
100
AcDb2dVertex
 10
4.577929
 20
-6.825767999999999
 30
0.0
  0
VERTEX
  5
11D
330
11B
100
AcDbEntity
  8
LAYER_1
 62
     7
100
AcDbVertex
100
AcDb2dVertex
 10
4.577929
 20
-7.245207999999999
 30
0.0
  0
VERTEX
  5
11E
330
11B
100
AcDbEntity
  8
LAYER_1
 62
     7
100
AcDbVertex
100
AcDb2dVertex
 10
4.587403
 20
-7.317383
 30
0.0
  0
VERTEX
  5
11F
330
11B
100
AcDbEntity
  8
LAYER_1
 62
     7
100
AcDbVertex
100
AcDb2dVertex
 10
4.614103
 20
-7.385422999999999
 30
0.0
  0
VERTEX
  5
120
330
11B
100
AcDbEntity
  8
LAYER_1
 62
     7
100
AcDbVertex
100
AcDb2dVertex
 10
4.659749999999999
 20
-7.444507
 30
0.0
  0
VERTEX
  5
121
330
11B
100
AcDbEntity
  8
LAYER_1
 62
     7
100
AcDbVertex
100
AcDb2dVertex
 10
4.716594
 20
-7.48826
 30
0.0
  0
VERTEX
  5
122
330
11B
100
AcDbEntity
  8
LAYER_1
 62
     7
100
AcDbVertex
100
AcDb2dVertex
 10
4.784806999999999
 20
-7.516508999999999
 30
0.0
  0
VERTEX
  5
123
330
11B
100
AcDbEntity
  8
LAYER_1
 62
     7
100
AcDbVertex
100
AcDb2dVertex
 10
4.857154
 20
-7.526155999999999
 30
0.0
  0
SEQEND
  5
124
330
11B
100
AcDbEntity
  8
LAYER_1
 62
     7
  0
LINE
  5
11A
330
BE
100
AcDbEntity
  8
LAYER_1
 62
     7
100
AcDbLine
 10
-6.719056
 20
-7.526155999999999
 30
0.0
 11
6.719056
 21
-7.526155999999999
 31
0.0
  0
POLYLINE
  5
111
330
BE
100
AcDbEntity
  8
LAYER_1
 62
     7
100
AcDb2dPolyline
 66
     1
 10
0.0
 20
0.0
 30
0.0
  0
VERTEX
  5
112
330
111
100
AcDbEntity
  8
LAYER_1
 62
     7
100
AcDbVertex
100
AcDb2dVertex
 10
4.577929
 20
-7.805208
 30
0.0
  0
VERTEX
  5
113
330
111
100
AcDbEntity
  8
LAYER_1
 62
     7
100
AcDbVertex
100
AcDb2dVertex
 10
4.568626999999999
 20
-7.733033999999999
 30
0.0
  0
VERTEX
  5
114
330
111
100
AcDbEntity
  8
LAYER_1
 62
     7
100
AcDbVertex
100
AcDb2dVertex
 10
4.540033
 20
-7.664475999999999
 30
0.0
  0
VERTEX
  5
115
330
111
100
AcDbEntity
  8
LAYER_1
 62
     7
100
AcDbVertex
100
AcDb2dVertex
 10
4.494558
 20
-7.607803999999999
 30
0.0
  0
VERTEX
  5
116
330
111
100
AcDbEntity
  8
LAYER_1
 62
     7
100
AcDbVertex
100
AcDb2dVertex
 10
4.437713999999999
 20
-7.564052
 30
0.0
  0
VERTEX
  5
117
330
111
100
AcDbEntity
  8
LAYER_1
 62
     7
100
AcDbVertex
100
AcDb2dVertex
 10
4.369155999999999
 20
-7.53563
 30
0.0
  0
VERTEX
  5
118
330
111
100
AcDbEntity
  8
LAYER_1
 62
     7
100
AcDbVertex
100
AcDb2dVertex
 10
4.297153999999999
 20
-7.526155999999999
 30
0.0
  0
SEQEND
  5
119
330
111
100
AcDbEntity
  8
LAYER_1
 62
     7
  0
LINE
  5
110
330
BE
100
AcDbEntity
  8
LAYER_1
 62
     7
100
AcDbLine
 10
-6.719056
 20
-8.224649000000001
 30
0.0
 11
6.719056
 21
-8.224649000000001
 31
0.0
  0
POLYLINE
  5
107
330
BE
100
AcDbEntity
  8
LAYER_1
 62
     7
100
AcDb2dPolyline
 66
     1
 10
0.0
 20
0.0
 30
0.0
  0
VERTEX
  5
108
330
107
100
AcDbEntity
  8
LAYER_1
 62
     7
100
AcDbVertex
100
AcDb2dVertex
 10
4.577929
 20
-8.365209
 30
0.0
  0
VERTEX
  5
109
330
107
100
AcDbEntity
  8
LAYER_1
 62
     7
100
AcDbVertex
100
AcDb2dVertex
 10
4.568626999999999
 20
-8.293205999999999
 30
0.0
  0
VERTEX
  5
10A
330
107
100
AcDbEntity
  8
LAYER_1
 62
     7
100
AcDbVertex
100
AcDb2dVertex
 10
4.540033
 20
-8.224649000000001
 30
0.0
  0
VERTEX
  5
10B
330
107
100
AcDbEntity
  8
LAYER_1
 62
     7
100
AcDbVertex
100
AcDb2dVertex
 10
4.494558
 20
-8.167632000000001
 30
0.0
  0
VERTEX
  5
10C
330
107
100
AcDbEntity
  8
LAYER_1
 62
     7
100
AcDbVertex
100
AcDb2dVertex
 10
4.437713999999999
 20
-8.122157000000001
 30
0.0
  0
VERTEX
  5
10D
330
107
100
AcDbEntity
  8
LAYER_1
 62
     7
100
AcDbVertex
100
AcDb2dVertex
 10
4.369155999999999
 20
-8.095458
 30
0.0
  0
VERTEX
  5
10E
330
107
100
AcDbEntity
  8
LAYER_1
 62
     7
100
AcDbVertex
100
AcDb2dVertex
 10
4.297153999999999
 20
-8.085983999999999
 30
0.0
  0
SEQEND
  5
10F
330
107
100
AcDbEntity
  8
LAYER_1
 62
     7
  0
LINE
  5
106
330
BE
100
AcDbEntity
  8
LAYER_1
 62
     7
100
AcDbLine
 10
4.297153999999999
 20
-8.365209
 30
0.0
 11
-4.298531999999999
 21
-8.365209
 31
0.0
  0
LINE
  5
105
330
BE
100
AcDbEntity
  8
LAYER_1
 62
     7
100
AcDbLine
 10
2.898099999999999
 20
-9.766157000000001
 30
0.0
 11
4.297153999999999
 21
-8.365209
 31
0.0
  0
LINE
  5
104
330
BE
100
AcDbEntity
  8
LAYER_1
 62
     7
100
AcDbLine
 10
4.297153999999999
 20
-12.62128
 30
0.0
 11
4.297153999999999
 21
-8.365209
 31
0.0
  0
LINE
  5
103
330
BE
100
AcDbEntity
  8
LAYER_1
 62
     7
100
AcDbLine
 10
-4.298531999999999
 20
-8.085983999999999
 30
0.0
 11
4.297153999999999
 21
-8.085983999999999
 31
0.0
  0
LINE
  5
102
330
BE
100
AcDbEntity
  8
LAYER_1
 62
     7
100
AcDbLine
 10
4.577929
 20
-7.805208
 30
0.0
 11
4.577929
 21
-12.62128
 31
0.0
  0
POLYLINE
  5
F9
330
BE
100
AcDbEntity
  8
LAYER_1
 62
     7
100
AcDb2dPolyline
 66
     1
 10
0.0
 20
0.0
 30
0.0
  0
VERTEX
  5
FA
330
F9
100
AcDbEntity
  8
LAYER_1
 62
     7
100
AcDbVertex
100
AcDb2dVertex
 10
-4.298531999999999
 20
-7.526155999999999
 30
0.0
  0
VERTEX
  5
FB
330
F9
100
AcDbEntity
  8
LAYER_1
 62
     7
100
AcDbVertex
100
AcDb2dVertex
 10
-4.370707
 20
-7.53563
 30
0.0
  0
VERTEX
  5
FC
330
F9
100
AcDbEntity
  8
LAYER_1
 62
     7
100
AcDbVertex
100
AcDb2dVertex
 10
-4.437197
 20
-7.564052
 30
0.0
  0
VERTEX
  5
FD
330
F9
100
AcDbEntity
  8
LAYER_1
 62
     7
100
AcDbVertex
100
AcDb2dVertex
 10
-4.495936
 20
-7.607803999999999
 30
0.0
  0
VERTEX
  5
FE
330
F9
100
AcDbEntity
  8
LAYER_1
 62
     7
100
AcDbVertex
100
AcDb2dVertex
 10
-4.539516
 20
-7.664475999999999
 30
0.0
  0
VERTEX
  5
FF
330
F9
100
AcDbEntity
  8
LAYER_1
 62
     7
100
AcDbVertex
100
AcDb2dVertex
 10
-4.568283
 20
-7.733033999999999
 30
0.0
  0
VERTEX
  5
100
330
F9
100
AcDbEntity
  8
LAYER_1
 62
     7
100
AcDbVertex
100
AcDb2dVertex
 10
-4.577412
 20
-7.805208
 30
0.0
  0
SEQEND
  5
101
330
F9
100
AcDbEntity
  8
LAYER_1
 62
     7
  0
POLYLINE
  5
F0
330
BE
100
AcDbEntity
  8
LAYER_1
 62
     7
100
AcDb2dPolyline
 66
     1
 10
0.0
 20
0.0
 30
0.0
  0
VERTEX
  5
F1
330
F0
100
AcDbEntity
  8
LAYER_1
 62
     7
100
AcDbVertex
100
AcDb2dVertex
 10
-4.577412
 20
-12.62128
 30
0.0
  0
VERTEX
  5
F2
330
F0
100
AcDbEntity
  8
LAYER_1
 62
     7
100
AcDbVertex
100
AcDb2dVertex
 10
-4.568283
 20
-12.69311
 30
0.0
  0
VERTEX
  5
F3
330
F0
100
AcDbEntity
  8
LAYER_1
 62
     7
100
AcDbVertex
100
AcDb2dVertex
 10
-4.539516
 20
-12.761667
 30
0.0
  0
VERTEX
  5
F4
330
F0
100
AcDbEntity
  8
LAYER_1
 62
     7
100
AcDbVertex
100
AcDb2dVertex
 10
-4.495936
 20
-12.818511
 30
0.0
  0
VERTEX
  5
F5
330
F0
100
AcDbEntity
  8
LAYER_1
 62
     7
100
AcDbVertex
100
AcDb2dVertex
 10
-4.437197
 20
-12.864159
 30
0.0
  0
VERTEX
  5
F6
330
F0
100
AcDbEntity
  8
LAYER_1
 62
     7
100
AcDbVertex
100
AcDb2dVertex
 10
-4.370707
 20
-12.890858
 30
0.0
  0
VERTEX
  5
F7
330
F0
100
AcDbEntity
  8
LAYER_1
 62
     7
100
AcDbVertex
100
AcDb2dVertex
 10
-4.298531999999999
 20
-12.900332
 30
0.0
  0
SEQEND
  5
F8
330
F0
100
AcDbEntity
  8
LAYER_1
 62
     7
  0
LINE
  5
EF
330
BE
100
AcDbEntity
  8
LAYER_1
 62
     7
100
AcDbLine
 10
-2.897584
 20
-9.766157000000001
 30
0.0
 11
-4.298531999999999
 21
-8.365209
 31
0.0
  0
LINE
  5
EE
330
BE
100
AcDbEntity
  8
LAYER_1
 62
     7
100
AcDbLine
 10
-2.897584
 20
-11.222226
 30
0.0
 11
-4.298531999999999
 21
-12.62128
 31
0.0
  0
POLYLINE
  5
E5
330
BE
100
AcDbEntity
  8
LAYER_1
 62
     7
100
AcDb2dPolyline
 66
     1
 10
0.0
 20
0.0
 30
0.0
  0
VERTEX
  5
E6
330
E5
100
AcDbEntity
  8
LAYER_1
 62
     7
100
AcDbVertex
100
AcDb2dVertex
 10
-4.298531999999999
 20
-8.085983999999999
 30
0.0
  0
VERTEX
  5
E7
330
E5
100
AcDbEntity
  8
LAYER_1
 62
     7
100
AcDbVertex
100
AcDb2dVertex
 10
-4.370707
 20
-8.095458
 30
0.0
  0
VERTEX
  5
E8
330
E5
100
AcDbEntity
  8
LAYER_1
 62
     7
100
AcDbVertex
100
AcDb2dVertex
 10
-4.437197
 20
-8.122157000000001
 30
0.0
  0
VERTEX
  5
E9
330
E5
100
AcDbEntity
  8
LAYER_1
 62
     7
100
AcDbVertex
100
AcDb2dVertex
 10
-4.495936
 20
-8.167632000000001
 30
0.0
  0
VERTEX
  5
EA
330
E5
100
AcDbEntity
  8
LAYER_1
 62
     7
100
AcDbVertex
100
AcDb2dVertex
 10
-4.539516
 20
-8.224649000000001
 30
0.0
  0
VERTEX
  5
EB
330
E5
100
AcDbEntity
  8
LAYER_1
 62
     7
100
AcDbVertex
100
AcDb2dVertex
 10
-4.568283
 20
-8.293205999999999
 30
0.0
  0
VERTEX
  5
EC
330
E5
100
AcDbEntity
  8
LAYER_1
 62
     7
100
AcDbVertex
100
AcDb2dVertex
 10
-4.577412
 20
-8.365209
 30
0.0
  0
SEQEND
  5
ED
330
E5
100
AcDbEntity
  8
LAYER_1
 62
     7
  0
LINE
  5
E4
330
BE
100
AcDbEntity
  8
LAYER_1
 62
     7
100
AcDbLine
 10
-4.298531999999999
 20
-12.900332
 30
0.0
 11
4.297153999999999
 21
-12.900332
 31
0.0
  0
LINE
  5
E3
330
BE
100
AcDbEntity
  8
LAYER_1
 62
     7
100
AcDbLine
 10
-4.298531999999999
 20
-8.365209
 30
0.0
 11
-4.298531999999999
 21
-12.62128
 31
0.0
  0
LINE
  5
E2
330
BE
100
AcDbEntity
  8
LAYER_1
 62
     7
100
AcDbLine
 10
-2.897584
 20
-11.222226
 30
0.0
 11
-2.897584
 21
-9.766157000000001
 31
0.0
  0
LINE
  5
E1
330
BE
100
AcDbEntity
  8
LAYER_1
 62
     7
100
AcDbLine
 10
2.898099999999999
 20
-9.766157000000001
 30
0.0
 11
2.898099999999999
 21
-11.222226
 31
0.0
  0
LINE
  5
E0
330
BE
100
AcDbEntity
  8
LAYER_1
 62
     7
100
AcDbLine
 10
-4.298531999999999
 20
-12.62128
 30
0.0
 11
4.297153999999999
 21
-12.62128
 31
0.0
  0
LINE
  5
DF
330
BE
100
AcDbEntity
  8
LAYER_1
 62
     7
100
AcDbLine
 10
2.898099999999999
 20
-11.222226
 30
0.0
 11
-2.897584
 21
-11.222226
 31
0.0
  0
LINE
  5
DE
330
BE
100
AcDbEntity
  8
LAYER_1
 62
     7
100
AcDbLine
 10
-2.897584
 20
-9.766157000000001
 30
0.0
 11
2.898099999999999
 21
-9.766157000000001
 31
0.0
  0
LINE
  5
DD
330
BE
100
AcDbEntity
  8
LAYER_1
 62
     7
100
AcDbLine
 10
-4.577412
 20
-7.805208
 30
0.0
 11
-4.577412
 21
-12.62128
 31
0.0
  0
POLYLINE
  5
D4
330
BE
100
AcDbEntity
  8
LAYER_1
 62
     7
100
AcDb2dPolyline
 66
     1
 10
0.0
 20
0.0
 30
0.0
  0
VERTEX
  5
D5
330
D4
100
AcDbEntity
  8
LAYER_1
 62
     7
100
AcDbVertex
100
AcDb2dVertex
 10
-4.592570999999999
 20
3.353628
 30
0.0
  0
VERTEX
  5
D6
330
D4
100
AcDbEntity
  8
LAYER_1
 62
     7
100
AcDbVertex
100
AcDb2dVertex
 10
-4.583269
 20
3.281280999999999
 30
0.0
  0
VERTEX
  5
D7
330
D4
100
AcDbEntity
  8
LAYER_1
 62
     7
100
AcDbVertex
100
AcDb2dVertex
 10
-4.554674999999999
 20
3.212895999999999
 30
0.0
  0
VERTEX
  5
D8
330
D4
100
AcDbEntity
  8
LAYER_1
 62
     7
100
AcDbVertex
100
AcDb2dVertex
 10
-4.510921999999999
 20
3.156224
 30
0.0
  0
VERTEX
  5
D9
330
D4
100
AcDbEntity
  8
LAYER_1
 62
     7
100
AcDbVertex
100
AcDb2dVertex
 10
-4.452182999999999
 20
3.110403999999999
 30
0.0
  0
VERTEX
  5
DA
330
D4
100
AcDbEntity
  8
LAYER_1
 62
     7
100
AcDbVertex
100
AcDb2dVertex
 10
-4.385864999999999
 20
3.084049
 30
0.0
  0
VERTEX
  5
DB
330
D4
100
AcDbEntity
  8
LAYER_1
 62
     7
100
AcDbVertex
100
AcDb2dVertex
 10
-4.311795
 20
3.074574999999999
 30
0.0
  0
SEQEND
  5
DC
330
D4
100
AcDbEntity
  8
LAYER_1
 62
     7
  0
POLYLINE
  5
CB
330
BE
100
AcDbEntity
  8
LAYER_1
 62
     7
100
AcDb2dPolyline
 66
     1
 10
0.0
 20
0.0
 30
0.0
  0
VERTEX
  5
CC
330
CB
100
AcDbEntity
  8
LAYER_1
 62
     7
100
AcDbVertex
100
AcDb2dVertex
 10
4.281823
 20
3.074574999999999
 30
0.0
  0
VERTEX
  5
CD
330
CB
100
AcDbEntity
  8
LAYER_1
 62
     7
100
AcDbVertex
100
AcDb2dVertex
 10
4.354169999999999
 20
3.084049
 30
0.0
  0
VERTEX
  5
CE
330
CB
100
AcDbEntity
  8
LAYER_1
 62
     7
100
AcDbVertex
100
AcDb2dVertex
 10
4.422382999999999
 20
3.110403999999999
 30
0.0
  0
VERTEX
  5
CF
330
CB
100
AcDbEntity
  8
LAYER_1
 62
     7
100
AcDbVertex
100
AcDb2dVertex
 10
4.480949999999999
 20
3.156224
 30
0.0
  0
VERTEX
  5
D0
330
CB
100
AcDbEntity
  8
LAYER_1
 62
     7
100
AcDbVertex
100
AcDb2dVertex
 10
4.524701999999999
 20
3.212895999999999
 30
0.0
  0
VERTEX
  5
D1
330
CB
100
AcDbEntity
  8
LAYER_1
 62
     7
100
AcDbVertex
100
AcDb2dVertex
 10
4.553296999999999
 20
3.281280999999999
 30
0.0
  0
VERTEX
  5
D2
330
CB
100
AcDbEntity
  8
LAYER_1
 62
     7
100
AcDbVertex
100
AcDb2dVertex
 10
4.562770999999999
 20
3.353628
 30
0.0
  0
SEQEND
  5
D3
330
CB
100
AcDbEntity
  8
LAYER_1
 62
     7
  0
SPLINE
  5
CA
330
BE
100
AcDbEntity
  8
LAYER_1
 62
     7
100
AcDbSpline
210
0.0
220
0.0
230
1.0
 70
     8
 71
     3
 72
    56
 73
    52
 74
     0
 42
0.0000000001
 43
0.0000000001
 40
0.0
 40
0.0
 40
0.0
 40
0.0
 40
1.0
 40
1.0
 40
1.0
 40
2.0
 40
2.0
 40
2.0
 40
3.0
 40
3.0
 40
3.0
 40
4.0
 40
4.0
 40
4.0
 40
5.0
 40
5.0
 40
5.0
 40
6.0
 40
6.0
 40
6.0
 40
7.0
 40
7.0
 40
7.0
 40
8.0
 40
8.0
 40
8.0
 40
9.0
 40
9.0
 40
9.0
 40
10.0
 40
10.0
 40
10.0
 40
11.0
 40
11.0
 40
11.0
 40
12.0
 40
12.0
 40
12.0
 40
13.0
 40
13.0
 40
13.0
 40
14.0
 40
14.0
 40
14.0
 40
15.0
 40
15.0
 40
15.0
 40
16.0
 40
16.0
 40
16.0
 40
17.0
 40
17.0
 40
17.0
 40
17.0
 10
-4.871795654296875
 20
11.19380425347222
 30
0.0
 10
-4.871795654296875
 20
11.19380425347222
 30
0.0
 10
-4.799793158637152
 20
11.20327826605902
 30
0.0
 10
-4.799793158637152
 20
11.20327826605902
 30
0.0
 10
-4.799793158637152
 20
11.20327826605902
 30
0.0
 10
-4.733475070529513
 20
11.22963324652777
 30
0.0
 10
-4.733475070529513
 20
11.22963324652777
 30
0.0
 10
-4.733475070529513
 20
11.22963324652777
 30
0.0
 10
-4.674391682942707
 20
11.27510850694444
 30
0.0
 10
-4.674391682942707
 20
11.27510850694444
 30
0.0
 10
-4.674391682942707
 20
11.27510850694444
 30
0.0
 10
-4.630466715494791
 20
11.33246934678819
 30
0.0
 10
-4.630466715494791
 20
11.33246934678819
 30
0.0
 10
-4.630466715494791
 20
11.33246934678819
 30
0.0
 10
-4.602044677734375
 20
11.40068223741319
 30
0.0
 10
-4.602044677734375
 20
11.40068223741319
 30
0.0
 10
-4.602044677734375
 20
11.40068223741319
 30
0.0
 10
-4.592570665147568
 20
11.47268473307291
 30
0.0
 10
-4.592570665147568
 20
11.47268473307291
 30
0.0
 10
-4.592570665147568
 20
11.47268473307291
 30
0.0
 10
-4.592570665147568
 20
12.62127956814236
 30
0.0
 10
-4.592570665147568
 20
12.62127956814236
 30
0.0
 10
-4.592570665147568
 20
12.8984375
 30
0.0
 10
-4.311795383029513
 20
12.90033230251736
 30
0.0
 10
-4.311795383029513
 20
12.90033230251736
 30
0.0
 10
-4.311795383029513
 20
12.90033230251736
 30
0.0
 10
4.281823052300345
 20
12.90033230251736
 30
0.0
 10
4.281823052300345
 20
12.90033230251736
 30
0.0
 10
4.561909315321179
 20
12.90033230251736
 30
0.0
 10
4.562770589192708
 20
12.62127956814236
 30
0.0
 10
4.562770589192708
 20
12.62127956814236
 30
0.0
 10
4.562770589192708
 20
12.62127956814236
 30
0.0
 10
4.562770589192708
 20
11.47268473307291
 30
0.0
 10
4.562770589192708
 20
11.47268473307291
 30
0.0
 10
4.562770589192708
 20
11.47268473307291
 30
0.0
 10
4.57241685655382
 20
11.40068223741319
 30
0.0
 10
4.57241685655382
 20
11.40068223741319
 30
0.0
 10
4.57241685655382
 20
11.40068223741319
 30
0.0
 10
4.60101114908854
 20
11.33246934678819
 30
0.0
 10
4.60101114908854
 20
11.33246934678819
 30
0.0
 10
4.60101114908854
 20
11.33246934678819
 30
0.0
 10
4.644419352213541
 20
11.27510850694444
 30
0.0
 10
4.644419352213541
 20
11.27510850694444
 30
0.0
 10
4.644419352213541
 20
11.27510850694444
 30
0.0
 10
4.703502739800346
 20
11.22963324652777
 30
0.0
 10
4.703502739800346
 20
11.22963324652777
 30
0.0
 10
4.703502739800346
 20
11.22963324652777
 30
0.0
 10
4.769820827907985
 20
11.20327826605902
 30
0.0
 10
4.769820827907985
 20
11.20327826605902
 30
0.0
 10
4.769820827907985
 20
11.20327826605902
 30
0.0
 10
4.842167833116318
 20
11.19380425347222
 30
0.0
 10
4.842167833116318
 20
11.19380425347222
 30
0.0
  0
POLYLINE
  5
C1
330
BE
100
AcDbEntity
  8
LAYER_1
 62
     7
100
AcDb2dPolyline
 66
     1
 10
0.0
 20
0.0
 30
0.0
  0
VERTEX
  5
C2
330
C1
100
AcDbEntity
  8
LAYER_1
 62
     7
100
AcDbVertex
100
AcDb2dVertex
 10
-4.311795
 20
7.161491999999999
 30
0.0
  0
VERTEX
  5
C3
330
C1
100
AcDbEntity
  8
LAYER_1
 62
     7
100
AcDbVertex
100
AcDb2dVertex
 10
-4.385864999999999
 20
7.152189999999999
 30
0.0
  0
VERTEX
  5
C4
330
C1
100
AcDbEntity
  8
LAYER_1
 62
     7
100
AcDbVertex
100
AcDb2dVertex
 10
-4.452182999999999
 20
7.123767999999999
 30
0.0
  0
VERTEX
  5
C5
330
C1
100
AcDbEntity
  8
LAYER_1
 62
     7
100
AcDbVertex
100
AcDb2dVertex
 10
-4.510921999999999
 20
7.080016
 30
0.0
  0
VERTEX
  5
C6
330
C1
100
AcDbEntity
  8
LAYER_1
 62
     7
100
AcDbVertex
100
AcDb2dVertex
 10
-4.554674999999999
 20
7.021105
 30
0.0
  0
VERTEX
  5
C7
330
C1
100
AcDbEntity
  8
LAYER_1
 62
     7
100
AcDbVertex
100
AcDb2dVertex
 10
-4.583269
 20
6.952719
 30
0.0
  0
VERTEX
  5
C8
330
C1
100
AcDbEntity
  8
LAYER_1
 62
     7
100
AcDbVertex
100
AcDb2dVertex
 10
-4.592570999999999
 20
6.880716999999999
 30
0.0
  0
SEQEND
  5
C9
330
C1
100
AcDbEntity
  8
LAYER_1
 62
     7
  0
ENDBLK
  5
139
330
BE
100
AcDbEntity
  8
0
100
AcDbBlockEnd
  0
BLOCK
  5
13C
330
13A
100
AcDbEntity
  8
0
 62
     7
100
AcDbBlockBegin
  2
AI9-BLK24
 70
     0
 10
0.0
 20
0.0
 30
0.0
  3
AI9-BLK24
  1

  0
LINE
  5
1AF
330
13A
100
AcDbEntity
  8
LAYER_1
 62
     7
100
AcDbLine
 10
-3.473258999999999
 20
3.983736
 30
0.0
 11
-3.473258999999999
 21
6.531212
 31
0.0
  0
LINE
  5
1AE
330
13A
100
AcDbEntity
  8
LAYER_1
 62
     7
100
AcDbLine
 10
3.442426
 20
3.983736
 30
0.0
 11
3.442426
 21
6.531212
 31
0.0
  0
LINE
  5
1AD
330
13A
100
AcDbEntity
  8
LAYER_1
 62
     7
100
AcDbLine
 10
4.002253999999999
 20
3.983736
 30
0.0
 11
4.002253999999999
 21
7.091385
 31
0.0
  0
LINE
  5
1AC
330
13A
100
AcDbEntity
  8
LAYER_1
 62
     7
100
AcDbLine
 10
3.442426
 20
6.531212
 30
0.0
 11
-3.473258999999999
 21
6.531212
 31
0.0
  0
LINE
  5
1AB
330
13A
100
AcDbEntity
  8
LAYER_1
 62
     7
100
AcDbLine
 10
-4.033258999999999
 20
7.091385
 30
0.0
 11
4.002253999999999
 21
7.091385
 31
0.0
  0
SPLINE
  5
1AA
330
13A
100
AcDbEntity
  8
LAYER_1
 62
     7
100
AcDbSpline
210
0.0
220
0.0
230
1.0
 70
     8
 71
     3
 72
    14
 73
    10
 74
     0
 42
0.0000000001
 43
0.0000000001
 40
0.0
 40
0.0
 40
0.0
 40
0.0
 40
1.0
 40
1.0
 40
1.0
 40
2.0
 40
2.0
 40
2.0
 40
3.0
 40
3.0
 40
3.0
 40
3.0
 10
-4.52935316297743
 20
12.19322645399305
 30
0.0
 10
-4.52935316297743
 20
12.19322645399305
 30
0.0
 10
-4.530558946397568
 20
12.41061197916666
 30
0.0
 10
-4.31231214735243
 20
12.41061197916666
 30
0.0
 10
-4.31231214735243
 20
12.41061197916666
 30
0.0
 10
4.28130628797743
 20
12.41061197916666
 30
0.0
 10
4.28130628797743
 20
12.41061197916666
 30
0.0
 10
4.561392550998263
 20
12.41061197916666
 30
0.0
 10
4.494213189019096
 20
12.197705078125
 30
0.0
 10
4.494213189019096
 20
12.197705078125
 30
0.0
  0
LINE
  5
1A9
330
13A
100
AcDbEntity
  8
LAYER_1
 62
     7
100
AcDbLine
 10
-3.473258999999999
 20
3.983736
 30
0.0
 11
-4.033258999999999
 21
3.983736
 31
0.0
  0
LINE
  5
1A8
330
13A
100
AcDbEntity
  8
LAYER_1
 62
     7
100
AcDbLine
 10
-4.577929
 20
-8.016047999999999
 30
0.0
 11
-7.279227999999999
 21
-8.016047999999999
 31
0.0
  0
POLYLINE
  5
1A3
330
13A
100
AcDbEntity
  8
LAYER_1
 62
     7
100
AcDb2dPolyline
 66
     1
 10
0.0
 20
0.0
 30
0.0
  0
VERTEX
  5
1A4
330
1A3
100
AcDbEntity
  8
LAYER_1
 62
     7
100
AcDbVertex
100
AcDb2dVertex
 10
7.279227999999999
 20
-7.596263
 30
0.0
  0
VERTEX
  5
1A5
330
1A3
100
AcDbEntity
  8
LAYER_1
 62
     7
100
AcDbVertex
100
AcDb2dVertex
 10
7.279227999999999
 20
-8.016047999999999
 30
0.0
  0
VERTEX
  5
1A6
330
1A3
100
AcDbEntity
  8
LAYER_1
 62
     7
100
AcDbVertex
100
AcDb2dVertex
 10
4.577412
 20
-8.016047999999999
 30
0.0
  0
SEQEND
  5
1A7
330
1A3
100
AcDbEntity
  8
LAYER_1
 62
     7
  0
POLYLINE
  5
19C
330
13A
100
AcDbEntity
  8
LAYER_1
 62
     7
100
AcDb2dPolyline
 66
     1
 10
0.0
 20
0.0
 30
0.0
  0
VERTEX
  5
19D
330
19C
100
AcDbEntity
  8
LAYER_1
 62
     7
100
AcDbVertex
100
AcDb2dVertex
 10
7.202747
 20
-8.016047999999999
 30
0.0
  0
VERTEX
  5
19E
330
19C
100
AcDbEntity
  8
LAYER_1
 62
     7
100
AcDbVertex
100
AcDb2dVertex
 10
7.113863999999999
 20
-7.900121
 30
0.0
  0
VERTEX
  5
19F
330
19C
100
AcDbEntity
  8
LAYER_1
 62
     7
100
AcDbVertex
100
AcDb2dVertex
 10
6.997936
 20
-7.810719999999999
 30
0.0
  0
VERTEX
  5
1A0
330
19C
100
AcDbEntity
  8
LAYER_1
 62
     7
100
AcDbVertex
100
AcDb2dVertex
 10
6.863233
 20
-7.755599
 30
0.0
  0
VERTEX
  5
1A1
330
19C
100
AcDbEntity
  8
LAYER_1
 62
     7
100
AcDbVertex
100
AcDb2dVertex
 10
6.718538999999999
 20
-7.734928
 30
0.0
  0
SEQEND
  5
1A2
330
19C
100
AcDbEntity
  8
LAYER_1
 62
     7
  0
LINE
  5
19B
330
13A
100
AcDbEntity
  8
LAYER_1
 62
     7
100
AcDbLine
 10
4.786356999999999
 20
-9.555488999999999
 30
0.0
 11
4.786356999999999
 21
-7.734928
 31
0.0
  0
LINE
  5
19A
330
13A
100
AcDbEntity
  8
LAYER_1
 62
     7
100
AcDbLine
 10
5.067133
 20
-9.836437
 30
0.0
 11
4.786356999999999
 21
-9.555488999999999
 31
0.0
  0
LINE
  5
199
330
13A
100
AcDbEntity
  8
LAYER_1
 62
     7
100
AcDbLine
 10
5.48709
 20
-9.836437
 30
0.0
 11
5.067133
 21
-9.836437
 31
0.0
  0
LINE
  5
198
330
13A
100
AcDbEntity
  8
LAYER_1
 62
     7
100
AcDbLine
 10
6.46653
 20
-9.555488999999999
 30
0.0
 11
6.46653
 21
-7.734928
 31
0.0
  0
LINE
  5
197
330
13A
100
AcDbEntity
  8
LAYER_1
 62
     7
100
AcDbLine
 10
6.187649999999999
 20
-9.836437
 30
0.0
 11
6.46653
 21
-9.555488999999999
 31
0.0
  0
LINE
  5
196
330
13A
100
AcDbEntity
  8
LAYER_1
 62
     7
100
AcDbLine
 10
6.187649999999999
 20
-9.836437
 30
0.0
 11
5.765798
 21
-9.836437
 31
0.0
  0
LINE
  5
195
330
13A
100
AcDbEntity
  8
LAYER_1
 62
     7
100
AcDbLine
 10
4.786356999999999
 20
-9.555488999999999
 30
0.0
 11
5.48709
 21
-9.555488999999999
 31
0.0
  0
LINE
  5
194
330
13A
100
AcDbEntity
  8
LAYER_1
 62
     7
100
AcDbLine
 10
6.46653
 20
-9.555488999999999
 30
0.0
 11
5.765798
 21
-9.555488999999999
 31
0.0
  0
POLYLINE
  5
18D
330
13A
100
AcDbEntity
  8
LAYER_1
 62
     7
100
AcDb2dPolyline
 66
     1
 10
0.0
 20
0.0
 30
0.0
  0
VERTEX
  5
18E
330
18D
100
AcDbEntity
  8
LAYER_1
 62
     7
100
AcDbVertex
100
AcDb2dVertex
 10
-6.719572999999999
 20
-7.734928
 30
0.0
  0
VERTEX
  5
18F
330
18D
100
AcDbEntity
  8
LAYER_1
 62
     7
100
AcDbVertex
100
AcDb2dVertex
 10
-6.865472
 20
-7.755599
 30
0.0
  0
VERTEX
  5
190
330
18D
100
AcDbEntity
  8
LAYER_1
 62
     7
100
AcDbVertex
100
AcDb2dVertex
 10
-7.000347999999999
 20
-7.810719999999999
 30
0.0
  0
VERTEX
  5
191
330
18D
100
AcDbEntity
  8
LAYER_1
 62
     7
100
AcDbVertex
100
AcDb2dVertex
 10
-7.116274999999999
 20
-7.900121
 30
0.0
  0
VERTEX
  5
192
330
18D
100
AcDbEntity
  8
LAYER_1
 62
     7
100
AcDbVertex
100
AcDb2dVertex
 10
-7.205159
 20
-8.016047999999999
 30
0.0
  0
SEQEND
  5
193
330
18D
100
AcDbEntity
  8
LAYER_1
 62
     7
  0
LINE
  5
18C
330
13A
100
AcDbEntity
  8
LAYER_1
 62
     7
100
AcDbLine
 10
-6.468596999999999
 20
-9.555488999999999
 30
0.0
 11
-6.468596999999999
 21
-7.734928
 31
0.0
  0
LINE
  5
18B
330
13A
100
AcDbEntity
  8
LAYER_1
 62
     7
100
AcDbLine
 10
-6.187821999999999
 20
-9.836437
 30
0.0
 11
-6.468596999999999
 21
-9.555488999999999
 31
0.0
  0
LINE
  5
18A
330
13A
100
AcDbEntity
  8
LAYER_1
 62
     7
100
AcDbLine
 10
-5.768381999999999
 20
-9.836437
 30
0.0
 11
-6.187821999999999
 21
-9.836437
 31
0.0
  0
LINE
  5
189
330
13A
100
AcDbEntity
  8
LAYER_1
 62
     7
100
AcDbLine
 10
-4.788769
 20
-9.555488999999999
 30
0.0
 11
-4.788769
 21
-7.734928
 31
0.0
  0
LINE
  5
188
330
13A
100
AcDbEntity
  8
LAYER_1
 62
     7
100
AcDbLine
 10
-5.067994
 20
-9.836437
 30
0.0
 11
-4.788769
 21
-9.555488999999999
 31
0.0
  0
LINE
  5
187
330
13A
100
AcDbEntity
  8
LAYER_1
 62
     7
100
AcDbLine
 10
-5.067994
 20
-9.836437
 30
0.0
 11
-5.487433999999999
 21
-9.836437
 31
0.0
  0
LINE
  5
186
330
13A
100
AcDbEntity
  8
LAYER_1
 62
     7
100
AcDbLine
 10
-6.468596999999999
 20
-9.555488999999999
 30
0.0
 11
-5.768381999999999
 21
-9.555488999999999
 31
0.0
  0
LINE
  5
185
330
13A
100
AcDbEntity
  8
LAYER_1
 62
     7
100
AcDbLine
 10
-4.788769
 20
-9.555488999999999
 30
0.0
 11
-5.487433999999999
 21
-9.555488999999999
 31
0.0
  0
POLYLINE
  5
176
330
13A
100
AcDbEntity
  8
LAYER_1
 62
     7
100
AcDb2dPolyline
 66
     1
 10
0.0
 20
0.0
 30
0.0
  0
VERTEX
  5
177
330
176
100
AcDbEntity
  8
LAYER_1
 62
     7
100
AcDbVertex
100
AcDb2dVertex
 10
-5.487433999999999
 20
-8.156435999999999
 30
0.0
  0
VERTEX
  5
178
330
176
100
AcDbEntity
  8
LAYER_1
 62
     7
100
AcDbVertex
100
AcDb2dVertex
 10
-5.492945999999999
 20
-8.120262
 30
0.0
  0
VERTEX
  5
179
330
176
100
AcDbEntity
  8
LAYER_1
 62
     7
100
AcDbVertex
100
AcDb2dVertex
 10
-5.506554
 20
-8.086155999999999
 30
0.0
  0
VERTEX
  5
17A
330
176
100
AcDbEntity
  8
LAYER_1
 62
     7
100
AcDbVertex
100
AcDb2dVertex
 10
-5.529119999999999
 20
-8.057733999999999
 30
0.0
  0
VERTEX
  5
17B
330
176
100
AcDbEntity
  8
LAYER_1
 62
     7
100
AcDbVertex
100
AcDb2dVertex
 10
-5.557369999999999
 20
-8.034652000000001
 30
0.0
  0
VERTEX
  5
17C
330
176
100
AcDbEntity
  8
LAYER_1
 62
     7
100
AcDbVertex
100
AcDb2dVertex
 10
-5.591820999999999
 20
-8.019666
 30
0.0
  0
VERTEX
  5
17D
330
176
100
AcDbEntity
  8
LAYER_1
 62
     7
100
AcDbVertex
100
AcDb2dVertex
 10
-5.627994
 20
-8.016047999999999
 30
0.0
  0
VERTEX
  5
17E
330
176
100
AcDbEntity
  8
LAYER_1
 62
     7
100
AcDbVertex
100
AcDb2dVertex
 10
-5.663994999999999
 20
-8.019666
 30
0.0
  0
VERTEX
  5
17F
330
176
100
AcDbEntity
  8
LAYER_1
 62
     7
100
AcDbVertex
100
AcDb2dVertex
 10
-5.698273999999999
 20
-8.034652000000001
 30
0.0
  0
VERTEX
  5
180
330
176
100
AcDbEntity
  8
LAYER_1
 62
     7
100
AcDbVertex
100
AcDb2dVertex
 10
-5.726523999999999
 20
-8.057733999999999
 30
0.0
  0
VERTEX
  5
181
330
176
100
AcDbEntity
  8
LAYER_1
 62
     7
100
AcDbVertex
100
AcDb2dVertex
 10
-5.749260999999999
 20
-8.086155999999999
 30
0.0
  0
VERTEX
  5
182
330
176
100
AcDbEntity
  8
LAYER_1
 62
     7
100
AcDbVertex
100
AcDb2dVertex
 10
-5.762697
 20
-8.120262
 30
0.0
  0
VERTEX
  5
183
330
176
100
AcDbEntity
  8
LAYER_1
 62
     7
100
AcDbVertex
100
AcDb2dVertex
 10
-5.768381999999999
 20
-8.156435999999999
 30
0.0
  0
SEQEND
  5
184
330
176
100
AcDbEntity
  8
LAYER_1
 62
     7
  0
LINE
  5
175
330
13A
100
AcDbEntity
  8
LAYER_1
 62
     7
100
AcDbLine
 10
-5.768381999999999
 20
-9.836437
 30
0.0
 11
-5.768381999999999
 21
-8.156435999999999
 31
0.0
  0
LINE
  5
174
330
13A
100
AcDbEntity
  8
LAYER_1
 62
     7
100
AcDbLine
 10
-5.487433999999999
 20
-9.836437
 30
0.0
 11
-5.487433999999999
 21
-8.156435999999999
 31
0.0
  0
LINE
  5
173
330
13A
100
AcDbEntity
  8
LAYER_1
 62
     7
100
AcDbLine
 10
5.48709
 20
-9.836437
 30
0.0
 11
5.48709
 21
-8.156435999999999
 31
0.0
  0
POLYLINE
  5
163
330
13A
100
AcDbEntity
  8
LAYER_1
 62
     7
100
AcDb2dPolyline
 66
     1
 10
0.0
 20
0.0
 30
0.0
  0
VERTEX
  5
164
330
163
100
AcDbEntity
  8
LAYER_1
 62
     7
100
AcDbVertex
100
AcDb2dVertex
 10
5.765798
 20
-9.836437
 30
0.0
  0
VERTEX
  5
165
330
163
100
AcDbEntity
  8
LAYER_1
 62
     7
100
AcDbVertex
100
AcDb2dVertex
 10
5.765798
 20
-8.156435999999999
 30
0.0
  0
VERTEX
  5
166
330
163
100
AcDbEntity
  8
LAYER_1
 62
     7
100
AcDbVertex
100
AcDb2dVertex
 10
5.762353
 20
-8.120262
 30
0.0
  0
VERTEX
  5
167
330
163
100
AcDbEntity
  8
LAYER_1
 62
     7
100
AcDbVertex
100
AcDb2dVertex
 10
5.748744999999999
 20
-8.086155999999999
 30
0.0
  0
VERTEX
  5
168
330
163
100
AcDbEntity
  8
LAYER_1
 62
     7
100
AcDbVertex
100
AcDb2dVertex
 10
5.726179
 20
-8.057733999999999
 30
0.0
  0
VERTEX
  5
169
330
163
100
AcDbEntity
  8
LAYER_1
 62
     7
100
AcDbVertex
100
AcDb2dVertex
 10
5.697413
 20
-8.034652000000001
 30
0.0
  0
VERTEX
  5
16A
330
163
100
AcDbEntity
  8
LAYER_1
 62
     7
100
AcDbVertex
100
AcDb2dVertex
 10
5.663305999999999
 20
-8.019666
 30
0.0
  0
VERTEX
  5
16B
330
163
100
AcDbEntity
  8
LAYER_1
 62
     7
100
AcDbVertex
100
AcDb2dVertex
 10
5.627133
 20
-8.016047999999999
 30
0.0
  0
VERTEX
  5
16C
330
163
100
AcDbEntity
  8
LAYER_1
 62
     7
100
AcDbVertex
100
AcDb2dVertex
 10
5.591476
 20
-8.019666
 30
0.0
  0
VERTEX
  5
16D
330
163
100
AcDbEntity
  8
LAYER_1
 62
     7
100
AcDbVertex
100
AcDb2dVertex
 10
5.557369999999999
 20
-8.034652000000001
 30
0.0
  0
VERTEX
  5
16E
330
163
100
AcDbEntity
  8
LAYER_1
 62
     7
100
AcDbVertex
100
AcDb2dVertex
 10
5.528775
 20
-8.057733999999999
 30
0.0
  0
VERTEX
  5
16F
330
163
100
AcDbEntity
  8
LAYER_1
 62
     7
100
AcDbVertex
100
AcDb2dVertex
 10
5.506037999999999
 20
-8.086155999999999
 30
0.0
  0
VERTEX
  5
170
330
163
100
AcDbEntity
  8
LAYER_1
 62
     7
100
AcDbVertex
100
AcDb2dVertex
 10
5.492601999999999
 20
-8.120262
 30
0.0
  0
VERTEX
  5
171
330
163
100
AcDbEntity
  8
LAYER_1
 62
     7
100
AcDbVertex
100
AcDb2dVertex
 10
5.48709
 20
-8.156435999999999
 30
0.0
  0
SEQEND
  5
172
330
163
100
AcDbEntity
  8
LAYER_1
 62
     7
  0
LINE
  5
162
330
13A
100
AcDbEntity
  8
LAYER_1
 62
     7
100
AcDbLine
 10
-7.279227999999999
 20
-7.596263
 30
0.0
 11
-7.279227999999999
 21
-8.016047999999999
 31
0.0
  0
POLYLINE
  5
159
330
13A
100
AcDbEntity
  8
LAYER_1
 62
     7
100
AcDb2dPolyline
 66
     1
 10
0.0
 20
0.0
 30
0.0
  0
VERTEX
  5
15A
330
159
100
AcDbEntity
  8
LAYER_1
 62
     7
100
AcDbVertex
100
AcDb2dVertex
 10
-6.719572999999999
 20
-7.036435
 30
0.0
  0
VERTEX
  5
15B
330
159
100
AcDbEntity
  8
LAYER_1
 62
     7
100
AcDbVertex
100
AcDb2dVertex
 10
-6.865472
 20
-7.055210999999999
 30
0.0
  0
VERTEX
  5
15C
330
159
100
AcDbEntity
  8
LAYER_1
 62
     7
100
AcDbVertex
100
AcDb2dVertex
 10
-7.000347999999999
 20
-7.110332999999999
 30
0.0
  0
VERTEX
  5
15D
330
159
100
AcDbEntity
  8
LAYER_1
 62
     7
100
AcDbVertex
100
AcDb2dVertex
 10
-7.116274999999999
 20
-7.199388
 30
0.0
  0
VERTEX
  5
15E
330
159
100
AcDbEntity
  8
LAYER_1
 62
     7
100
AcDbVertex
100
AcDb2dVertex
 10
-7.205159
 20
-7.315488
 30
0.0
  0
VERTEX
  5
15F
330
159
100
AcDbEntity
  8
LAYER_1
 62
     7
100
AcDbVertex
100
AcDb2dVertex
 10
-7.260453
 20
-7.450363
 30
0.0
  0
VERTEX
  5
160
330
159
100
AcDbEntity
  8
LAYER_1
 62
     7
100
AcDbVertex
100
AcDb2dVertex
 10
-7.279227999999999
 20
-7.596263
 30
0.0
  0
SEQEND
  5
161
330
159
100
AcDbEntity
  8
LAYER_1
 62
     7
  0
POLYLINE
  5
150
330
13A
100
AcDbEntity
  8
LAYER_1
 62
     7
100
AcDb2dPolyline
 66
     1
 10
0.0
 20
0.0
 30
0.0
  0
VERTEX
  5
151
330
150
100
AcDbEntity
  8
LAYER_1
 62
     7
100
AcDbVertex
100
AcDb2dVertex
 10
7.279227999999999
 20
-7.596263
 30
0.0
  0
VERTEX
  5
152
330
150
100
AcDbEntity
  8
LAYER_1
 62
     7
100
AcDbVertex
100
AcDb2dVertex
 10
7.260107999999999
 20
-7.450363
 30
0.0
  0
VERTEX
  5
153
330
150
100
AcDbEntity
  8
LAYER_1
 62
     7
100
AcDbVertex
100
AcDb2dVertex
 10
7.202747
 20
-7.315488
 30
0.0
  0
VERTEX
  5
154
330
150
100
AcDbEntity
  8
LAYER_1
 62
     7
100
AcDbVertex
100
AcDb2dVertex
 10
7.113863999999999
 20
-7.199388
 30
0.0
  0
VERTEX
  5
155
330
150
100
AcDbEntity
  8
LAYER_1
 62
     7
100
AcDbVertex
100
AcDb2dVertex
 10
6.997936
 20
-7.110332999999999
 30
0.0
  0
VERTEX
  5
156
330
150
100
AcDbEntity
  8
LAYER_1
 62
     7
100
AcDbVertex
100
AcDb2dVertex
 10
6.863233
 20
-7.055210999999999
 30
0.0
  0
VERTEX
  5
157
330
150
100
AcDbEntity
  8
LAYER_1
 62
     7
100
AcDbVertex
100
AcDb2dVertex
 10
6.718538999999999
 20
-7.036435
 30
0.0
  0
SEQEND
  5
158
330
150
100
AcDbEntity
  8
LAYER_1
 62
     7
  0
POLYLINE
  5
147
330
13A
100
AcDbEntity
  8
LAYER_1
 62
     7
100
AcDb2dPolyline
 66
     1
 10
0.0
 20
0.0
 30
0.0
  0
VERTEX
  5
148
330
147
100
AcDbEntity
  8
LAYER_1
 62
     7
100
AcDbVertex
100
AcDb2dVertex
 10
4.296637
 20
-12.410612
 30
0.0
  0
VERTEX
  5
149
330
147
100
AcDbEntity
  8
LAYER_1
 62
     7
100
AcDbVertex
100
AcDb2dVertex
 10
4.368638999999999
 20
-12.401138
 30
0.0
  0
VERTEX
  5
14A
330
147
100
AcDbEntity
  8
LAYER_1
 62
     7
100
AcDbVertex
100
AcDb2dVertex
 10
4.437197
 20
-12.374438
 30
0.0
  0
VERTEX
  5
14B
330
147
100
AcDbEntity
  8
LAYER_1
 62
     7
100
AcDbVertex
100
AcDb2dVertex
 10
4.494041
 20
-12.328791
 30
0.0
  0
VERTEX
  5
14C
330
147
100
AcDbEntity
  8
LAYER_1
 62
     7
100
AcDbVertex
100
AcDb2dVertex
 10
4.539516
 20
-12.271947
 30
0.0
  0
VERTEX
  5
14D
330
147
100
AcDbEntity
  8
LAYER_1
 62
     7
100
AcDbVertex
100
AcDb2dVertex
 10
4.568109999999999
 20
-12.203389
 30
0.0
  0
VERTEX
  5
14E
330
147
100
AcDbEntity
  8
LAYER_1
 62
     7
100
AcDbVertex
100
AcDb2dVertex
 10
4.577412
 20
-12.131559
 30
0.0
  0
SEQEND
  5
14F
330
147
100
AcDbEntity
  8
LAYER_1
 62
     7
  0
LINE
  5
146
330
13A
100
AcDbEntity
  8
LAYER_1
 62
     7
100
AcDbLine
 10
2.897584
 20
-10.732506
 30
0.0
 11
4.296637
 21
-12.131559
 31
0.0
  0
POLYLINE
  5
13D
330
13A
100
AcDbEntity
  8
LAYER_1
 62
     7
100
AcDb2dPolyline
 66
     1
 10
0.0
 20
0.0
 30
0.0
  0
VERTEX
  5
13E
330
13D
100
AcDbEntity
  8
LAYER_1
 62
     7
100
AcDbVertex
100
AcDb2dVertex
 10
-4.859048999999999
 20
-7.036435
 30
0.0
  0
VERTEX
  5
13F
330
13D
100
AcDbEntity
  8
LAYER_1
 62
     7
100
AcDbVertex
100
AcDb2dVertex
 10
-4.784978999999999
 20
-7.026788999999999
 30
0.0
  0
VERTEX
  5
140
330
13D
100
AcDbEntity
  8
LAYER_1
 62
     7
100
AcDbVertex
100
AcDb2dVertex
 10
-4.718660999999999
 20
-6.998539
 30
0.0
  0
VERTEX
  5
141
330
13D
100
AcDbEntity
  8
LAYER_1
 62
     7
100
AcDbVertex
100
AcDb2dVertex
 10
-4.659577999999999
 20
-6.954786999999999
 30
0.0
  0
VERTEX
  5
142
330
13D
100
AcDbEntity
  8
LAYER_1
 62
     7
100
AcDbVertex
100
AcDb2dVertex
 10
-4.615997
 20
-6.895703
 30
0.0
  0
VERTEX
  5
143
330
13D
100
AcDbEntity
  8
LAYER_1
 62
     7
100
AcDbVertex
100
AcDb2dVertex
 10
-4.587231
 20
-6.827661999999999
 30
0.0
  0
VERTEX
  5
144
330
13D
100
AcDbEntity
  8
LAYER_1
 62
     7
100
AcDbVertex
100
AcDb2dVertex
 10
-4.577929
 20
-6.755488
 30
0.0
  0
SEQEND
  5
145
330
13D
100
AcDbEntity
  8
LAYER_1
 62
     7
  0
ENDBLK
  5
1B0
330
13A
100
AcDbEntity
  8
0
100
AcDbBlockEnd
  0
BLOCK
  5
1B3
330
1B1
100
AcDbEntity
  8
0
 62
     7
100
AcDbBlockBegin
  2
AI9-BLK25
 70
     0
 10
0.0
 20
0.0
 30
0.0
  3
AI9-BLK25
  1

  0
POLYLINE
  5
217
330
1B1
100
AcDbEntity
  8
LAYER_1
 62
     7
100
AcDb2dPolyline
 66
     1
 10
0.0
 20
0.0
 30
0.0
  0
VERTEX
  5
218
330
217
100
AcDbEntity
  8
LAYER_1
 62
     7
100
AcDbVertex
100
AcDb2dVertex
 10
-5.067734999999999
 20
1.806436
 30
0.0
  0
VERTEX
  5
219
330
217
100
AcDbEntity
  8
LAYER_1
 62
     7
100
AcDbVertex
100
AcDb2dVertex
 10
-5.086682999999999
 20
1.950441
 30
0.0
  0
VERTEX
  5
21A
330
217
100
AcDbEntity
  8
LAYER_1
 62
     7
100
AcDbVertex
100
AcDb2dVertex
 10
-5.143527999999999
 20
2.085488999999999
 30
0.0
  0
VERTEX
  5
21B
330
217
100
AcDbEntity
  8
LAYER_1
 62
     7
100
AcDbVertex
100
AcDb2dVertex
 10
-5.230860999999999
 20
2.201243999999999
 30
0.0
  0
VERTEX
  5
21C
330
217
100
AcDbEntity
  8
LAYER_1
 62
     7
100
AcDbVertex
100
AcDb2dVertex
 10
-5.346616
 20
2.290472
 30
0.0
  0
VERTEX
  5
21D
330
217
100
AcDbEntity
  8
LAYER_1
 62
     7
100
AcDbVertex
100
AcDb2dVertex
 10
-5.483558
 20
2.347143999999999
 30
0.0
  0
VERTEX
  5
21E
330
217
100
AcDbEntity
  8
LAYER_1
 62
     7
100
AcDbVertex
100
AcDb2dVertex
 10
-5.627391
 20
2.366264
 30
0.0
  0
VERTEX
  5
21F
330
217
100
AcDbEntity
  8
LAYER_1
 62
     7
100
AcDbVertex
100
AcDb2dVertex
 10
-5.771912999999999
 20
2.347143999999999
 30
0.0
  0
VERTEX
  5
220
330
217
100
AcDbEntity
  8
LAYER_1
 62
     7
100
AcDbVertex
100
AcDb2dVertex
 10
-5.906616
 20
2.290472
 30
0.0
  0
VERTEX
  5
221
330
217
100
AcDbEntity
  8
LAYER_1
 62
     7
100
AcDbVertex
100
AcDb2dVertex
 10
-6.024266
 20
2.201243999999999
 30
0.0
  0
VERTEX
  5
222
330
217
100
AcDbEntity
  8
LAYER_1
 62
     7
100
AcDbVertex
100
AcDb2dVertex
 10
-6.111944
 20
2.085488999999999
 30
0.0
  0
VERTEX
  5
223
330
217
100
AcDbEntity
  8
LAYER_1
 62
     7
100
AcDbVertex
100
AcDb2dVertex
 10
-6.168616
 20
1.950441
 30
0.0
  0
VERTEX
  5
224
330
217
100
AcDbEntity
  8
LAYER_1
 62
     7
100
AcDbVertex
100
AcDb2dVertex
 10
-6.187736
 20
1.806436
 30
0.0
  0
VERTEX
  5
225
330
217
100
AcDbEntity
  8
LAYER_1
 62
     7
100
AcDbVertex
100
AcDb2dVertex
 10
-6.168616
 20
1.660018999999999
 30
0.0
  0
VERTEX
  5
226
330
217
100
AcDbEntity
  8
LAYER_1
 62
     7
100
AcDbVertex
100
AcDb2dVertex
 10
-6.111944
 20
1.525487999999999
 30
0.0
  0
VERTEX
  5
227
330
217
100
AcDbEntity
  8
LAYER_1
 62
     7
100
AcDbVertex
100
AcDb2dVertex
 10
-6.024266
 20
1.409732999999999
 30
0.0
  0
VERTEX
  5
228
330
217
100
AcDbEntity
  8
LAYER_1
 62
     7
100
AcDbVertex
100
AcDb2dVertex
 10
-5.906616
 20
1.320332999999999
 30
0.0
  0
VERTEX
  5
229
330
217
100
AcDbEntity
  8
LAYER_1
 62
     7
100
AcDbVertex
100
AcDb2dVertex
 10
-5.771912999999999
 20
1.265211
 30
0.0
  0
VERTEX
  5
22A
330
217
100
AcDbEntity
  8
LAYER_1
 62
     7
100
AcDbVertex
100
AcDb2dVertex
 10
-5.627391
 20
1.246091
 30
0.0
  0
VERTEX
  5
22B
330
217
100
AcDbEntity
  8
LAYER_1
 62
     7
100
AcDbVertex
100
AcDb2dVertex
 10
-5.483558
 20
1.265211
 30
0.0
  0
VERTEX
  5
22C
330
217
100
AcDbEntity
  8
LAYER_1
 62
     7
100
AcDbVertex
100
AcDb2dVertex
 10
-5.346616
 20
1.320332999999999
 30
0.0
  0
VERTEX
  5
22D
330
217
100
AcDbEntity
  8
LAYER_1
 62
     7
100
AcDbVertex
100
AcDb2dVertex
 10
-5.230860999999999
 20
1.409732999999999
 30
0.0
  0
VERTEX
  5
22E
330
217
100
AcDbEntity
  8
LAYER_1
 62
     7
100
AcDbVertex
100
AcDb2dVertex
 10
-5.143527999999999
 20
1.525487999999999
 30
0.0
  0
VERTEX
  5
22F
330
217
100
AcDbEntity
  8
LAYER_1
 62
     7
100
AcDbVertex
100
AcDb2dVertex
 10
-5.086682999999999
 20
1.660018999999999
 30
0.0
  0
VERTEX
  5
230
330
217
100
AcDbEntity
  8
LAYER_1
 62
     7
100
AcDbVertex
100
AcDb2dVertex
 10
-5.067734999999999
 20
1.806436
 30
0.0
  0
SEQEND
  5
231
330
217
100
AcDbEntity
  8
LAYER_1
 62
     7
  0
POLYLINE
  5
1FC
330
1B1
100
AcDbEntity
  8
LAYER_1
 62
     7
100
AcDb2dPolyline
 66
     1
 10
0.0
 20
0.0
 30
0.0
  0
VERTEX
  5
1FD
330
1FC
100
AcDbEntity
  8
LAYER_1
 62
     7
100
AcDbVertex
100
AcDb2dVertex
 10
6.187564
 20
1.806436
 30
0.0
  0
VERTEX
  5
1FE
330
1FC
100
AcDbEntity
  8
LAYER_1
 62
     7
100
AcDbVertex
100
AcDb2dVertex
 10
6.168442999999999
 20
1.950441
 30
0.0
  0
VERTEX
  5
1FF
330
1FC
100
AcDbEntity
  8
LAYER_1
 62
     7
100
AcDbVertex
100
AcDb2dVertex
 10
6.111772
 20
2.085488999999999
 30
0.0
  0
VERTEX
  5
200
330
1FC
100
AcDbEntity
  8
LAYER_1
 62
     7
100
AcDbVertex
100
AcDb2dVertex
 10
6.022370999999999
 20
2.201243999999999
 30
0.0
  0
VERTEX
  5
201
330
1FC
100
AcDbEntity
  8
LAYER_1
 62
     7
100
AcDbVertex
100
AcDb2dVertex
 10
5.906787999999999
 20
2.290472
 30
0.0
  0
VERTEX
  5
202
330
1FC
100
AcDbEntity
  8
LAYER_1
 62
     7
100
AcDbVertex
100
AcDb2dVertex
 10
5.771568
 20
2.347143999999999
 30
0.0
  0
VERTEX
  5
203
330
1FC
100
AcDbEntity
  8
LAYER_1
 62
     7
100
AcDbVertex
100
AcDb2dVertex
 10
5.627562999999999
 20
2.366264
 30
0.0
  0
VERTEX
  5
204
330
1FC
100
AcDbEntity
  8
LAYER_1
 62
     7
100
AcDbVertex
100
AcDb2dVertex
 10
5.483386
 20
2.347143999999999
 30
0.0
  0
VERTEX
  5
205
330
1FC
100
AcDbEntity
  8
LAYER_1
 62
     7
100
AcDbVertex
100
AcDb2dVertex
 10
5.346788
 20
2.290472
 30
0.0
  0
VERTEX
  5
206
330
1FC
100
AcDbEntity
  8
LAYER_1
 62
     7
100
AcDbVertex
100
AcDb2dVertex
 10
5.230687999999999
 20
2.201243999999999
 30
0.0
  0
VERTEX
  5
207
330
1FC
100
AcDbEntity
  8
LAYER_1
 62
     7
100
AcDbVertex
100
AcDb2dVertex
 10
5.141805
 20
2.085488999999999
 30
0.0
  0
VERTEX
  5
208
330
1FC
100
AcDbEntity
  8
LAYER_1
 62
     7
100
AcDbVertex
100
AcDb2dVertex
 10
5.086510999999999
 20
1.950441
 30
0.0
  0
VERTEX
  5
209
330
1FC
100
AcDbEntity
  8
LAYER_1
 62
     7
100
AcDbVertex
100
AcDb2dVertex
 10
5.067391
 20
1.806436
 30
0.0
  0
VERTEX
  5
20A
330
1FC
100
AcDbEntity
  8
LAYER_1
 62
     7
100
AcDbVertex
100
AcDb2dVertex
 10
5.086510999999999
 20
1.660018999999999
 30
0.0
  0
VERTEX
  5
20B
330
1FC
100
AcDbEntity
  8
LAYER_1
 62
     7
100
AcDbVertex
100
AcDb2dVertex
 10
5.141805
 20
1.525487999999999
 30
0.0
  0
VERTEX
  5
20C
330
1FC
100
AcDbEntity
  8
LAYER_1
 62
     7
100
AcDbVertex
100
AcDb2dVertex
 10
5.230687999999999
 20
1.409732999999999
 30
0.0
  0
VERTEX
  5
20D
330
1FC
100
AcDbEntity
  8
LAYER_1
 62
     7
100
AcDbVertex
100
AcDb2dVertex
 10
5.346788
 20
1.320332999999999
 30
0.0
  0
VERTEX
  5
20E
330
1FC
100
AcDbEntity
  8
LAYER_1
 62
     7
100
AcDbVertex
100
AcDb2dVertex
 10
5.483386
 20
1.265211
 30
0.0
  0
VERTEX
  5
20F
330
1FC
100
AcDbEntity
  8
LAYER_1
 62
     7
100
AcDbVertex
100
AcDb2dVertex
 10
5.627562999999999
 20
1.246091
 30
0.0
  0
VERTEX
  5
210
330
1FC
100
AcDbEntity
  8
LAYER_1
 62
     7
100
AcDbVertex
100
AcDb2dVertex
 10
5.771568
 20
1.265211
 30
0.0
  0
VERTEX
  5
211
330
1FC
100
AcDbEntity
  8
LAYER_1
 62
     7
100
AcDbVertex
100
AcDb2dVertex
 10
5.906787999999999
 20
1.320332999999999
 30
0.0
  0
VERTEX
  5
212
330
1FC
100
AcDbEntity
  8
LAYER_1
 62
     7
100
AcDbVertex
100
AcDb2dVertex
 10
6.022370999999999
 20
1.409732999999999
 30
0.0
  0
VERTEX
  5
213
330
1FC
100
AcDbEntity
  8
LAYER_1
 62
     7
100
AcDbVertex
100
AcDb2dVertex
 10
6.111772
 20
1.525487999999999
 30
0.0
  0
VERTEX
  5
214
330
1FC
100
AcDbEntity
  8
LAYER_1
 62
     7
100
AcDbVertex
100
AcDb2dVertex
 10
6.168442999999999
 20
1.660018999999999
 30
0.0
  0
VERTEX
  5
215
330
1FC
100
AcDbEntity
  8
LAYER_1
 62
     7
100
AcDbVertex
100
AcDb2dVertex
 10
6.187564
 20
1.806436
 30
0.0
  0
SEQEND
  5
216
330
1FC
100
AcDbEntity
  8
LAYER_1
 62
     7
  0
SPLINE
  5
1FB
330
1B1
100
AcDbEntity
  8
LAYER_1
 62
     7
100
AcDbSpline
210
0.0
220
0.0
230
1.0
 70
     8
 71
     3
 72
    32
 73
    28
 74
     0
 42
0.0000000001
 43
0.0000000001
 40
0.0
 40
0.0
 40
0.0
 40
0.0
 40
1.0
 40
1.0
 40
1.0
 40
2.0
 40
2.0
 40
2.0
 40
3.0
 40
3.0
 40
3.0
 40
4.0
 40
4.0
 40
4.0
 40
5.0
 40
5.0
 40
5.0
 40
6.0
 40
6.0
 40
6.0
 40
7.0
 40
7.0
 40
7.0
 40
8.0
 40
8.0
 40
8.0
 40
9.0
 40
9.0
 40
9.0
 40
9.0
 10
-4.830023871527777
 20
4.046436903211804
 30
0.0
 10
-4.830023871527777
 20
4.046436903211804
 30
0.0
 10
-6.719141981336805
 20
4.046436903211804
 30
0.0
 10
-6.719141981336805
 20
4.046436903211804
 30
0.0
 10
-7.288444010416666
 20
4.046436903211804
 30
0.0
 10
-7.278969997829858
 20
3.486264377170138
 30
0.0
 10
-7.278969997829858
 20
3.486264377170138
 30
0.0
 10
-7.278969997829858
 20
3.486264377170138
 30
0.0
 10
-7.278969997829858
 20
-3.5129638671875
 30
0.0
 10
-7.278969997829858
 20
-3.5129638671875
 30
0.0
 10
-7.278969997829858
 20
-4.113444010416665
 30
0.0
 10
-6.719141981336805
 20
-4.072791883680555
 30
0.0
 10
-6.719141981336805
 20
-4.072791883680555
 30
0.0
 10
-6.719141981336805
 20
-4.072791883680555
 30
0.0
 10
6.7189697265625
 20
-4.072791883680555
 30
0.0
 10
6.7189697265625
 20
-4.072791883680555
 30
0.0
 10
7.278969997829858
 20
-4.072791883680555
 30
0.0
 10
7.278969997829858
 20
-3.5129638671875
 30
0.0
 10
7.278969997829858
 20
-3.5129638671875
 30
0.0
 10
7.278969997829858
 20
-3.5129638671875
 30
0.0
 10
7.278969997829858
 20
3.486264377170138
 30
0.0
 10
7.278969997829858
 20
3.486264377170138
 30
0.0
 10
7.278969997829858
 20
3.995966254340276
 30
0.0
 10
6.7189697265625
 20
4.046436903211804
 30
0.0
 10
6.7189697265625
 20
4.046436903211804
 30
0.0
 10
6.7189697265625
 20
4.046436903211804
 30
0.0
 10
4.830368381076388
 20
4.046436903211804
 30
0.0
 10
4.830368381076388
 20
4.046436903211804
 30
0.0
  0
POLYLINE
  5
1E0
330
1B1
100
AcDbEntity
  8
LAYER_1
 62
     7
100
AcDb2dPolyline
 66
     1
 10
0.0
 20
0.0
 30
0.0
  0
VERTEX
  5
1E1
330
1E0
100
AcDbEntity
  8
LAYER_1
 62
     7
100
AcDbVertex
100
AcDb2dVertex
 10
-5.346616
 20
1.806436
 30
0.0
  0
VERTEX
  5
1E2
330
1E0
100
AcDbEntity
  8
LAYER_1
 62
     7
100
AcDbVertex
100
AcDb2dVertex
 10
-5.357985
 20
1.878265999999999
 30
0.0
  0
VERTEX
  5
1E3
330
1E0
100
AcDbEntity
  8
LAYER_1
 62
     7
100
AcDbVertex
100
AcDb2dVertex
 10
-5.384511999999999
 20
1.945100999999999
 30
0.0
  0
VERTEX
  5
1E4
330
1E0
100
AcDbEntity
  8
LAYER_1
 62
     7
100
AcDbVertex
100
AcDb2dVertex
 10
-5.430331999999999
 20
2.003668
 30
0.0
  0
VERTEX
  5
1E5
330
1E0
100
AcDbEntity
  8
LAYER_1
 62
     7
100
AcDbVertex
100
AcDb2dVertex
 10
-5.487003999999999
 20
2.047247999999999
 30
0.0
  0
VERTEX
  5
1E6
330
1E0
100
AcDbEntity
  8
LAYER_1
 62
     7
100
AcDbVertex
100
AcDb2dVertex
 10
-5.555388999999999
 20
2.075841999999999
 30
0.0
  0
VERTEX
  5
1E7
330
1E0
100
AcDbEntity
  8
LAYER_1
 62
     7
100
AcDbVertex
100
AcDb2dVertex
 10
-5.627391
 20
2.085488999999999
 30
0.0
  0
VERTEX
  5
1E8
330
1E0
100
AcDbEntity
  8
LAYER_1
 62
     7
100
AcDbVertex
100
AcDb2dVertex
 10
-5.699737999999999
 20
2.075841999999999
 30
0.0
  0
VERTEX
  5
1E9
330
1E0
100
AcDbEntity
  8
LAYER_1
 62
     7
100
AcDbVertex
100
AcDb2dVertex
 10
-5.768123
 20
2.047247999999999
 30
0.0
  0
VERTEX
  5
1EA
330
1E0
100
AcDbEntity
  8
LAYER_1
 62
     7
100
AcDbVertex
100
AcDb2dVertex
 10
-5.82514
 20
2.003668
 30
0.0
  0
VERTEX
  5
1EB
330
1E0
100
AcDbEntity
  8
LAYER_1
 62
     7
100
AcDbVertex
100
AcDb2dVertex
 10
-5.870614999999999
 20
1.945100999999999
 30
0.0
  0
VERTEX
  5
1EC
330
1E0
100
AcDbEntity
  8
LAYER_1
 62
     7
100
AcDbVertex
100
AcDb2dVertex
 10
-5.897486999999999
 20
1.878265999999999
 30
0.0
  0
VERTEX
  5
1ED
330
1E0
100
AcDbEntity
  8
LAYER_1
 62
     7
100
AcDbVertex
100
AcDb2dVertex
 10
-5.906616
 20
1.806436
 30
0.0
  0
VERTEX
  5
1EE
330
1E0
100
AcDbEntity
  8
LAYER_1
 62
     7
100
AcDbVertex
100
AcDb2dVertex
 10
-5.897486999999999
 20
1.734088999999999
 30
0.0
  0
VERTEX
  5
1EF
330
1E0
100
AcDbEntity
  8
LAYER_1
 62
     7
100
AcDbVertex
100
AcDb2dVertex
 10
-5.870614999999999
 20
1.665875999999999
 30
0.0
  0
VERTEX
  5
1F0
330
1E0
100
AcDbEntity
  8
LAYER_1
 62
     7
100
AcDbVertex
100
AcDb2dVertex
 10
-5.82514
 20
1.606964999999999
 30
0.0
  0
VERTEX
  5
1F1
330
1E0
100
AcDbEntity
  8
LAYER_1
 62
     7
100
AcDbVertex
100
AcDb2dVertex
 10
-5.768123
 20
1.563384
 30
0.0
  0
VERTEX
  5
1F2
330
1E0
100
AcDbEntity
  8
LAYER_1
 62
     7
100
AcDbVertex
100
AcDb2dVertex
 10
-5.699737999999999
 20
1.534789999999999
 30
0.0
  0
VERTEX
  5
1F3
330
1E0
100
AcDbEntity
  8
LAYER_1
 62
     7
100
AcDbVertex
100
AcDb2dVertex
 10
-5.627391
 20
1.525487999999999
 30
0.0
  0
VERTEX
  5
1F4
330
1E0
100
AcDbEntity
  8
LAYER_1
 62
     7
100
AcDbVertex
100
AcDb2dVertex
 10
-5.555388999999999
 20
1.534789999999999
 30
0.0
  0
VERTEX
  5
1F5
330
1E0
100
AcDbEntity
  8
LAYER_1
 62
     7
100
AcDbVertex
100
AcDb2dVertex
 10
-5.487003999999999
 20
1.563384
 30
0.0
  0
VERTEX
  5
1F6
330
1E0
100
AcDbEntity
  8
LAYER_1
 62
     7
100
AcDbVertex
100
AcDb2dVertex
 10
-5.430331999999999
 20
1.606964999999999
 30
0.0
  0
VERTEX
  5
1F7
330
1E0
100
AcDbEntity
  8
LAYER_1
 62
     7
100
AcDbVertex
100
AcDb2dVertex
 10
-5.384511999999999
 20
1.665875999999999
 30
0.0
  0
VERTEX
  5
1F8
330
1E0
100
AcDbEntity
  8
LAYER_1
 62
     7
100
AcDbVertex
100
AcDb2dVertex
 10
-5.357985
 20
1.734088999999999
 30
0.0
  0
VERTEX
  5
1F9
330
1E0
100
AcDbEntity
  8
LAYER_1
 62
     7
100
AcDbVertex
100
AcDb2dVertex
 10
-5.346616
 20
1.806436
 30
0.0
  0
SEQEND
  5
1FA
330
1E0
100
AcDbEntity
  8
LAYER_1
 62
     7
  0
POLYLINE
  5
1C5
330
1B1
100
AcDbEntity
  8
LAYER_1
 62
     7
100
AcDb2dPolyline
 66
     1
 10
0.0
 20
0.0
 30
0.0
  0
VERTEX
  5
1C6
330
1C5
100
AcDbEntity
  8
LAYER_1
 62
     7
100
AcDbVertex
100
AcDb2dVertex
 10
5.906787999999999
 20
1.806436
 30
0.0
  0
VERTEX
  5
1C7
330
1C5
100
AcDbEntity
  8
LAYER_1
 62
     7
100
AcDbVertex
100
AcDb2dVertex
 10
5.897313999999999
 20
1.878265999999999
 30
0.0
  0
VERTEX
  5
1C8
330
1C5
100
AcDbEntity
  8
LAYER_1
 62
     7
100
AcDbVertex
100
AcDb2dVertex
 10
5.870614999999999
 20
1.945100999999999
 30
0.0
  0
VERTEX
  5
1C9
330
1C5
100
AcDbEntity
  8
LAYER_1
 62
     7
100
AcDbVertex
100
AcDb2dVertex
 10
5.824967
 20
2.003668
 30
0.0
  0
VERTEX
  5
1CA
330
1C5
100
AcDbEntity
  8
LAYER_1
 62
     7
100
AcDbVertex
100
AcDb2dVertex
 10
5.768123
 20
2.047247999999999
 30
0.0
  0
VERTEX
  5
1CB
330
1C5
100
AcDbEntity
  8
LAYER_1
 62
     7
100
AcDbVertex
100
AcDb2dVertex
 10
5.69991
 20
2.075841999999999
 30
0.0
  0
VERTEX
  5
1CC
330
1C5
100
AcDbEntity
  8
LAYER_1
 62
     7
100
AcDbVertex
100
AcDb2dVertex
 10
5.627562999999999
 20
2.085488999999999
 30
0.0
  0
VERTEX
  5
1CD
330
1C5
100
AcDbEntity
  8
LAYER_1
 62
     7
100
AcDbVertex
100
AcDb2dVertex
 10
5.555216
 20
2.075841999999999
 30
0.0
  0
VERTEX
  5
1CE
330
1C5
100
AcDbEntity
  8
LAYER_1
 62
     7
100
AcDbVertex
100
AcDb2dVertex
 10
5.487347999999999
 20
2.047247999999999
 30
0.0
  0
VERTEX
  5
1CF
330
1C5
100
AcDbEntity
  8
LAYER_1
 62
     7
100
AcDbVertex
100
AcDb2dVertex
 10
5.430159999999999
 20
2.003668
 30
0.0
  0
VERTEX
  5
1D0
330
1C5
100
AcDbEntity
  8
LAYER_1
 62
     7
100
AcDbVertex
100
AcDb2dVertex
 10
5.384339999999999
 20
1.945100999999999
 30
0.0
  0
VERTEX
  5
1D1
330
1C5
100
AcDbEntity
  8
LAYER_1
 62
     7
100
AcDbVertex
100
AcDb2dVertex
 10
5.356262
 20
1.878265999999999
 30
0.0
  0
VERTEX
  5
1D2
330
1C5
100
AcDbEntity
  8
LAYER_1
 62
     7
100
AcDbVertex
100
AcDb2dVertex
 10
5.346788
 20
1.806436
 30
0.0
  0
VERTEX
  5
1D3
330
1C5
100
AcDbEntity
  8
LAYER_1
 62
     7
100
AcDbVertex
100
AcDb2dVertex
 10
5.356262
 20
1.734088999999999
 30
0.0
  0
VERTEX
  5
1D4
330
1C5
100
AcDbEntity
  8
LAYER_1
 62
     7
100
AcDbVertex
100
AcDb2dVertex
 10
5.384339999999999
 20
1.665875999999999
 30
0.0
  0
VERTEX
  5
1D5
330
1C5
100
AcDbEntity
  8
LAYER_1
 62
     7
100
AcDbVertex
100
AcDb2dVertex
 10
5.430159999999999
 20
1.606964999999999
 30
0.0
  0
VERTEX
  5
1D6
330
1C5
100
AcDbEntity
  8
LAYER_1
 62
     7
100
AcDbVertex
100
AcDb2dVertex
 10
5.487347999999999
 20
1.563384
 30
0.0
  0
VERTEX
  5
1D7
330
1C5
100
AcDbEntity
  8
LAYER_1
 62
     7
100
AcDbVertex
100
AcDb2dVertex
 10
5.555216
 20
1.534789999999999
 30
0.0
  0
VERTEX
  5
1D8
330
1C5
100
AcDbEntity
  8
LAYER_1
 62
     7
100
AcDbVertex
100
AcDb2dVertex
 10
5.627562999999999
 20
1.525487999999999
 30
0.0
  0
VERTEX
  5
1D9
330
1C5
100
AcDbEntity
  8
LAYER_1
 62
     7
100
AcDbVertex
100
AcDb2dVertex
 10
5.69991
 20
1.534789999999999
 30
0.0
  0
VERTEX
  5
1DA
330
1C5
100
AcDbEntity
  8
LAYER_1
 62
     7
100
AcDbVertex
100
AcDb2dVertex
 10
5.768123
 20
1.563384
 30
0.0
  0
VERTEX
  5
1DB
330
1C5
100
AcDbEntity
  8
LAYER_1
 62
     7
100
AcDbVertex
100
AcDb2dVertex
 10
5.824967
 20
1.606964999999999
 30
0.0
  0
VERTEX
  5
1DC
330
1C5
100
AcDbEntity
  8
LAYER_1
 62
     7
100
AcDbVertex
100
AcDb2dVertex
 10
5.870614999999999
 20
1.665875999999999
 30
0.0
  0
VERTEX
  5
1DD
330
1C5
100
AcDbEntity
  8
LAYER_1
 62
     7
100
AcDbVertex
100
AcDb2dVertex
 10
5.897313999999999
 20
1.734088999999999
 30
0.0
  0
VERTEX
  5
1DE
330
1C5
100
AcDbEntity
  8
LAYER_1
 62
     7
100
AcDbVertex
100
AcDb2dVertex
 10
5.906787999999999
 20
1.806436
 30
0.0
  0
SEQEND
  5
1DF
330
1C5
100
AcDbEntity
  8
LAYER_1
 62
     7
  0
LINE
  5
1C4
330
1B1
100
AcDbEntity
  8
LAYER_1
 62
     7
100
AcDbLine
 10
-4.706688999999999
 20
4.072791999999999
 30
0.0
 11
4.706862
 21
4.072791999999999
 31
0.0
  0
LINE
  5
1C3
330
1B1
100
AcDbEntity
  8
LAYER_1
 62
     7
100
AcDbLine
 10
4.577670999999999
 20
-3.793738999999999
 30
0.0
 11
4.577670999999999
 21
-0.26665
 31
0.0
  0
LINE
  5
1C2
330
1B1
100
AcDbEntity
  8
LAYER_1
 62
     7
100
AcDbLine
 10
4.296723
 20
0.014125
 30
0.0
 11
-4.296895
 21
0.014125
 31
0.0
  0
LINE
  5
1C1
330
1B1
100
AcDbEntity
  8
LAYER_1
 62
     7
100
AcDbLine
 10
-4.577670999999999
 20
-0.26665
 30
0.0
 11
-4.577670999999999
 21
-3.793738999999999
 31
0.0
  0
POLYLINE
  5
1BB
330
1B1
100
AcDbEntity
  8
LAYER_1
 62
     7
100
AcDb2dPolyline
 66
     1
 10
0.0
 20
0.0
 30
0.0
  0
VERTEX
  5
1BC
330
1BB
100
AcDbEntity
  8
LAYER_1
 62
     7
100
AcDbVertex
100
AcDb2dVertex
 10
4.296723
 20
-4.072791999999999
 30
0.0
  0
VERTEX
  5
1BD
330
1BB
100
AcDbEntity
  8
LAYER_1
 62
     7
100
AcDbVertex
100
AcDb2dVertex
 10
4.296723
 20
-0.26665
 30
0.0
  0
VERTEX
  5
1BE
330
1BB
100
AcDbEntity
  8
LAYER_1
 62
     7
100
AcDbVertex
100
AcDb2dVertex
 10
-4.296895
 20
-0.26665
 30
0.0
  0
VERTEX
  5
1BF
330
1BB
100
AcDbEntity
  8
LAYER_1
 62
     7
100
AcDbVertex
100
AcDb2dVertex
 10
-4.296895
 20
-4.072791999999999
 30
0.0
  0
SEQEND
  5
1C0
330
1BB
100
AcDbEntity
  8
LAYER_1
 62
     7
  0
POLYLINE
  5
1B5
330
1B1
100
AcDbEntity
  8
LAYER_1
 62
     7
100
AcDb2dPolyline
 66
     1
 10
0.0
 20
0.0
 30
0.0
 70
     1
  0
VERTEX
  5
1B6
330
1B5
100
AcDbEntity
  8
LAYER_1
 62
     7
100
AcDbVertex
100
AcDb2dVertex
 10
-2.89767
 20
-3.121773
 30
0.0
  0
VERTEX
  5
1B7
330
1B5
100
AcDbEntity
  8
LAYER_1
 62
     7
100
AcDbVertex
100
AcDb2dVertex
 10
2.89767
 20
-3.121773
 30
0.0
  0
VERTEX
  5
1B8
330
1B5
100
AcDbEntity
  8
LAYER_1
 62
     7
100
AcDbVertex
100
AcDb2dVertex
 10
2.89767
 20
-1.665531
 30
0.0
  0
VERTEX
  5
1B9
330
1B5
100
AcDbEntity
  8
LAYER_1
 62
     7
100
AcDbVertex
100
AcDb2dVertex
 10
-2.89767
 20
-1.665531
 30
0.0
  0
SEQEND
  5
1BA
330
1B5
100
AcDbEntity
  8
LAYER_1
 62
     7
  0
LINE
  5
1B4
330
1B1
100
AcDbEntity
  8
LAYER_1
 62
     7
100
AcDbLine
 10
-4.017843
 20
-3.653351999999999
 30
0.0
 11
-4.017843
 21
-0.545703
 31
0.0
  0
ENDBLK
  5
232
330
1B1
100
AcDbEntity
  8
0
100
AcDbBlockEnd
  0
BLOCK
  5
235
330
233
100
AcDbEntity
  8
0
 62
     7
100
AcDbBlockBegin
  2
AI9-BLK26
 70
     0
 10
0.0
 20
0.0
 30
0.0
  3
AI9-BLK26
  1

  0
LINE
  5
239
330
233
100
AcDbEntity
  8
LAYER_1
 62
     7
100
AcDbLine
 10
-5.627305
 20
0.979527
 30
0.0
 11
-5.627305
 21
-0.979527
 31
0.0
  0
LINE
  5
238
330
233
100
AcDbEntity
  8
LAYER_1
 62
     7
100
AcDbLine
 10
-6.607089999999999
 20
0.000258
 30
0.0
 11
-4.648208999999999
 21
0.000258
 31
0.0
  0
LINE
  5
237
330
233
100
AcDbEntity
  8
LAYER_1
 62
     7
100
AcDbLine
 10
5.62765
 20
0.979527
 30
0.0
 11
5.62765
 21
-0.979527
 31
0.0
  0
LINE
  5
236
330
233
100
AcDbEntity
  8
LAYER_1
 62
     7
100
AcDbLine
 10
6.607089999999999
 20
0.000258
 30
0.0
 11
4.648208999999999
 21
0.000258
 31
0.0
  0
ENDBLK
  5
23A
330
233
100
AcDbEntity
  8
0
100
AcDbBlockEnd
  0
BLOCK
  5
242
330
240
100
AcDbEntity
  8
0
 62
     7
100
AcDbBlockBegin
  2
AI9-BLK27
 70
     0
 10
0.0
 20
0.0
 30
0.0
  3
AI9-BLK27
  1

  0
LINE
  5
247
330
240
100
AcDbEntity
  8
LAYER_1
  6
AI9-LTYPE1
 62
     7
100
AcDbLine
 10
0.7104650000000001
 20
1.09132
 30
0.0
 11
0.7104650000000001
 21
-1.09132
 31
0.0
  0
LINE
  5
246
330
240
100
AcDbEntity
  8
LAYER_1
  6
AI9-LTYPE1
 62
     7
100
AcDbLine
 10
0.5078930000000001
 20
1.09132
 30
0.0
 11
0.5078930000000001
 21
-1.09132
 31
0.0
  0
LINE
  5
245
330
240
100
AcDbEntity
  8
LAYER_1
  6
AI9-LTYPE1
 62
     7
100
AcDbLine
 10
-0.507721
 20
1.09132
 30
0.0
 11
-0.507721
 21
-1.09132
 31
0.0
  0
LINE
  5
244
330
240
100
AcDbEntity
  8
LAYER_1
  6
AI9-LTYPE1
 62
     7
100
AcDbLine
 10
-0.7104650000000001
 20
1.09132
 30
0.0
 11
-0.7104650000000001
 21
-1.09132
 31
0.0
  0
ENDBLK
  5
248
330
240
100
AcDbEntity
  8
0
100
AcDbBlockEnd
  0
BLOCK
  5
24B
330
249
100
AcDbEntity
  8
0
 62
     7
100
AcDbBlockBegin
  2
AI9-BLK28
 70
     0
 10
0.0
 20
0.0
 30
0.0
  3
AI9-BLK28
  1

  0
LINE
  5
25D
330
249
100
AcDbEntity
  8
LAYER_1
 62
     7
100
AcDbLine
 10
-5.728848999999999
 20
-2.068521
 30
0.0
 11
-8.921936
 21
-2.068521
 31
0.0
  0
LINE
  5
25C
330
249
100
AcDbEntity
  8
LAYER_1
 62
     7
100
AcDbLine
 10
-5.728848999999999
 20
1.483371999999999
 30
0.0
 11
-8.921936
 21
1.483371999999999
 31
0.0
  0
LINE
  5
25B
330
249
100
AcDbEntity
  8
LAYER_1
 62
     7
100
AcDbLine
 10
-8.638576999999999
 20
-1.920555
 30
0.0
 11
-8.638576999999999
 21
1.323174999999999
 31
0.0
  0
LINE
  5
25A
330
249
100
AcDbEntity
  8
LAYER_1
 62
     7
100
AcDbLine
 10
8.921936
 20
-4.018101
 30
0.0
 11
6.754971
 21
-4.018101
 31
0.0
  0
LINE
  5
259
330
249
100
AcDbEntity
  8
LAYER_1
 62
     7
100
AcDbLine
 10
8.921936
 20
3.463441
 30
0.0
 11
6.754971
 21
3.463441
 31
0.0
  0
LINE
  5
258
330
249
100
AcDbEntity
  8
LAYER_1
 62
     7
100
AcDbLine
 10
8.684397
 20
-3.870305999999999
 30
0.0
 11
8.684397
 21
3.302898999999999
 31
0.0
  0
LINE
  5
257
330
249
100
AcDbEntity
  8
LAYER_1
 62
     7
100
AcDbLine
 10
-5.836164
 20
-8.330844
 30
0.0
 11
-5.836164
 21
-2.476075999999999
 31
0.0
  0
LINE
  5
256
330
249
100
AcDbEntity
  8
LAYER_1
 62
     7
100
AcDbLine
 10
1.298283999999999
 20
-6.401762999999999
 30
0.0
 11
1.298283999999999
 21
-4.387586999999999
 31
0.0
  0
LINE
  5
255
330
249
100
AcDbEntity
  8
LAYER_1
 62
     7
100
AcDbLine
 10
6.425619999999999
 20
-8.330844
 30
0.0
 11
6.425619999999999
 21
-4.387586999999999
 31
0.0
  0
LINE
  5
254
330
249
100
AcDbEntity
  8
LAYER_1
 62
     7
100
AcDbLine
 10
1.485180999999999
 20
-6.092565
 30
0.0
 11
6.265423
 21
-6.092565
 31
0.0
  0
LINE
  5
253
330
249
100
AcDbEntity
  8
LAYER_1
 62
     7
100
AcDbLine
 10
-5.649956999999999
 20
-7.987711999999999
 30
0.0
 11
6.265423
 21
-7.987711999999999
 31
0.0
  0
LINE
  5
252
330
249
100
AcDbEntity
  8
LAYER_1
 62
     7
100
AcDbLine
 10
-6.169305
 20
6.622592999999999
 30
0.0
 11
-8.908671999999999
 21
6.622592999999999
 31
0.0
  0
LINE
  5
251
330
249
100
AcDbEntity
  8
LAYER_1
 62
     7
100
AcDbLine
 10
-8.637888
 20
4.301287999999999
 30
0.0
 11
-8.637888
 21
8.330844
 31
0.0
  0
LINE
  5
250
330
249
100
AcDbEntity
  8
LAYER_1
 62
     7
100
AcDbLine
 10
-8.908671999999999
 20
5.837111
 30
0.0
 11
-6.169305
 21
5.836594999999999
 31
0.0
  0
LINE
  5
24F
330
249
100
AcDbEntity
  8
LAYER_1
 62
     7
100
AcDbLine
 10
4.722881
 20
0.400406
 30
0.0
 11
4.722881
 21
3.680482
 31
0.0
  0
LINE
  5
24E
330
249
100
AcDbEntity
  8
LAYER_1
 62
     7
100
AcDbLine
 10
6.461103999999999
 20
1.974125999999999
 30
0.0
 11
3.067684999999999
 21
1.974125999999999
 31
0.0
  0
LINE
  5
24D
330
249
100
AcDbEntity
  8
LAYER_1
 62
     7
100
AcDbLine
 10
4.722881
 20
-0.9871059999999999
 30
0.0
 11
4.722881
 21
-4.261325
 31
0.0
  0
LINE
  5
24C
330
249
100
AcDbEntity
  8
LAYER_1
 62
     7
100
AcDbLine
 10
6.461103999999999
 20
-2.554797
 30
0.0
 11
3.067684999999999
 21
-2.554797
 31
0.0
  0
ENDBLK
  5
25E
330
249
100
AcDbEntity
  8
0
100
AcDbBlockEnd
  0
BLOCK
  5
2A7
330
2A5
100
AcDbEntity
  8
0
 62
     7
100
AcDbBlockBegin
  2
AI9-BLK29
 70
     0
 10
0.0
 20
0.0
 30
0.0
  3
AI9-BLK29
  1

  0
SPLINE
  5
2EE
330
2A5
100
AcDbEntity
  8
LAYER_1
 62
     7
100
AcDbSpline
210
0.0
220
0.0
230
1.0
 70
     9
 71
     3
 72
    17
 73
    13
 74
     0
 42
0.0000000001
 43
0.0000000001
 40
0.0
 40
0.0
 40
0.0
 40
0.0
 40
1.0
 40
1.0
 40
1.0
 40
2.0
 40
2.0
 40
2.0
 40
3.0
 40
3.0
 40
3.0
 40
4.0
 40
4.0
 40
4.0
 40
4.0
 10
4.388018120659721
 20
1.206386311848958
 30
0.0
 10
4.110515679253471
 20
1.206386311848958
 30
0.0
 10
3.885206434461805
 20
0.9814215766059028
 30
0.0
 10
3.885206434461805
 20
0.7039191351996528
 30
0.0
 10
3.885206434461805
 20
0.4264166937934028
 30
0.0
 10
4.110515679253471
 20
0.2014519585503472
 30
0.0
 10
4.388018120659721
 20
0.2014519585503472
 30
0.0
 10
4.665348307291666
 20
0.2014519585503472
 30
0.0
 10
4.890313042534721
 20
0.4264166937934028
 30
0.0
 10
4.890313042534721
 20
0.7039191351996528
 30
0.0
 10
4.890313042534721
 20
0.9814215766059028
 30
0.0
 10
4.665348307291666
 20
1.206386311848958
 30
0.0
 10
4.388018120659721
 20
1.206386311848958
 30
0.0
  0
SPLINE
  5
2ED
330
2A5
100
AcDbEntity
  8
LAYER_1
 62
     7
100
AcDbSpline
210
0.0
220
0.0
230
1.0
 70
     9
 71
     3
 72
    17
 73
    13
 74
     0
 42
0.0000000001
 43
0.0000000001
 40
0.0
 40
0.0
 40
0.0
 40
0.0
 40
1.0
 40
1.0
 40
1.0
 40
2.0
 40
2.0
 40
2.0
 40
3.0
 40
3.0
 40
3.0
 40
4.0
 40
4.0
 40
4.0
 40
4.0
 10
4.388018120659721
 20
1.438758002387152
 30
0.0
 10
3.991659884982638
 20
1.438758002387152
 30
0.0
 10
3.669715711805555
 20
1.117330593532985
 30
0.0
 10
3.669715711805555
 20
0.7208001030815972
 30
0.0
 10
3.669715711805555
 20
0.3239251030815972
 30
0.0
 10
3.991659884982638
 20
0.0030144585503472
 30
0.0
 10
4.388018120659721
 20
0.0030144585503472
 30
0.0
 10
4.784548611111111
 20
0.0030144585503472
 30
0.0
 10
5.105803765190971
 20
0.3239251030815972
 30
0.0
 10
5.105803765190971
 20
0.7208001030815972
 30
0.0
 10
5.105803765190971
 20
1.117330593532985
 30
0.0
 10
4.784548611111111
 20
1.438758002387152
 30
0.0
 10
4.388018120659721
 20
1.438758002387152
 30
0.0
  0
SPLINE
  5
2EC
330
2A5
100
AcDbEntity
  8
LAYER_1
 62
     7
100
AcDbSpline
210
0.0
220
0.0
230
1.0
 70
     9
 71
     3
 72
    17
 73
    13
 74
     0
 42
0.0000000001
 43
0.0000000001
 40
0.0
 40
0.0
 40
0.0
 40
0.0
 40
1.0
 40
1.0
 40
1.0
 40
2.0
 40
2.0
 40
2.0
 40
3.0
 40
3.0
 40
3.0
 40
4.0
 40
4.0
 40
4.0
 40
4.0
 10
4.370964898003472
 20
2.156543646918402
 30
0.0
 10
3.578076171874999
 20
2.156543646918402
 30
0.0
 10
2.935393608940971
 20
1.513688829210069
 30
0.0
 10
2.935393608940971
 20
0.7208001030815972
 30
0.0
 10
2.935393608940971
 20
-0.0719163682725694
 30
0.0
 10
3.578076171874999
 20
-0.7152879503038195
 30
0.0
 10
4.370964898003472
 20
-0.7152879503038195
 30
0.0
 10
5.163853624131943
 20
-0.7152879503038195
 30
0.0
 10
5.806708441840277
 20
-0.0719163682725694
 30
0.0
 10
5.806708441840277
 20
0.7208001030815972
 30
0.0
 10
5.806708441840277
 20
1.513688829210069
 30
0.0
 10
5.163853624131943
 20
2.156543646918402
 30
0.0
 10
4.370964898003472
 20
2.156543646918402
 30
0.0
  0
SPLINE
  5
2EB
330
2A5
100
AcDbEntity
  8
LAYER_1
 62
     7
100
AcDbSpline
210
0.0
220
0.0
230
1.0
 70
     9
 71
     3
 72
   107
 73
   103
 74
     0
 42
0.0000000001
 43
0.0000000001
 40
0.0
 40
0.0
 40
0.0
 40
0.0
 40
1.0
 40
1.0
 40
1.0
 40
2.0
 40
2.0
 40
2.0
 40
3.0
 40
3.0
 40
3.0
 40
4.0
 40
4.0
 40
4.0
 40
5.0
 40
5.0
 40
5.0
 40
6.0
 40
6.0
 40
6.0
 40
7.0
 40
7.0
 40
7.0
 40
8.0
 40
8.0
 40
8.0
 40
9.0
 40
9.0
 40
9.0
 40
10.0
 40
10.0
 40
10.0
 40
11.0
 40
11.0
 40
11.0
 40
12.0
 40
12.0
 40
12.0
 40
13.0
 40
13.0
 40
13.0
 40
14.0
 40
14.0
 40
14.0
 40
15.0
 40
15.0
 40
15.0
 40
16.0
 40
16.0
 40
16.0
 40
17.0
 40
17.0
 40
17.0
 40
18.0
 40
18.0
 40
18.0
 40
19.0
 40
19.0
 40
19.0
 40
20.0
 40
20.0
 40
20.0
 40
21.0
 40
21.0
 40
21.0
 40
22.0
 40
22.0
 40
22.0
 40
23.0
 40
23.0
 40
23.0
 40
24.0
 40
24.0
 40
24.0
 40
25.0
 40
25.0
 40
25.0
 40
26.0
 40
26.0
 40
26.0
 40
27.0
 40
27.0
 40
27.0
 40
28.0
 40
28.0
 40
28.0
 40
29.0
 40
29.0
 40
29.0
 40
30.0
 40
30.0
 40
30.0
 40
31.0
 40
31.0
 40
31.0
 40
32.0
 40
32.0
 40
32.0
 40
33.0
 40
33.0
 40
33.0
 40
34.0
 40
34.0
 40
34.0
 40
34.0
 10
-1.891012912326388
 20
-2.46746351453993
 30
0.0
 10
-1.891012912326388
 20
-2.46746351453993
 30
0.0
 10
-1.884467230902777
 20
-2.658838568793402
 30
0.0
 10
-2.08238796657986
 20
-2.646608479817708
 30
0.0
 10
-2.08238796657986
 20
-2.646608479817708
 30
0.0
 10
-4.339097764756943
 20
-2.646608479817708
 30
0.0
 10
-4.339097764756943
 20
-2.646608479817708
 30
0.0
 10
-4.339097764756943
 20
-2.646608479817708
 30
0.0
 10
-4.339097764756943
 20
-2.029419623480902
 30
0.0
 10
-4.339097764756943
 20
-2.029419623480902
 30
0.0
 10
-4.339097764756943
 20
-2.029419623480902
 30
0.0
 10
-4.351672363281248
 20
-1.906429714626735
 30
0.0
 10
-4.462604437934028
 20
-1.906429714626735
 30
0.0
 10
-4.462604437934028
 20
-1.906429714626735
 30
0.0
 10
-5.005206976996528
 20
-1.906429714626735
 30
0.0
 10
-5.005206976996528
 20
-1.906429714626735
 30
0.0
 10
-5.005206976996528
 20
-1.906429714626735
 30
0.0
 10
-5.153173828125
 20
-1.882141791449652
 30
0.0
 10
-5.153173828125
 20
-2.054568820529513
 30
0.0
 10
-5.153173828125
 20
-2.054568820529513
 30
0.0
 10
-5.153173828125
 20
-2.646608479817708
 30
0.0
 10
-5.153173828125
 20
-2.646608479817708
 30
0.0
 10
-5.153173828125
 20
-2.646608479817708
 30
0.0
 10
-6.127963595920137
 20
-2.646608479817708
 30
0.0
 10
-6.127963595920137
 20
-2.646608479817708
 30
0.0
 10
-6.127963595920137
 20
-2.646608479817708
 30
0.0
 10
-6.127963595920137
 20
-3.028841824001736
 30
0.0
 10
-6.127963595920137
 20
-3.028841824001736
 30
0.0
 10
-6.127963595920137
 20
-3.028841824001736
 30
0.0
 10
-5.523521592881944
 20
-3.361810302734374
 30
0.0
 10
-5.523521592881944
 20
-3.361810302734374
 30
0.0
 10
-5.523521592881944
 20
-3.361810302734374
 30
0.0
 10
0.0163642035590278
 20
-3.361810302734374
 30
0.0
 10
0.0163642035590278
 20
-3.361810302734374
 30
0.0
 10
0.0163642035590278
 20
-3.361810302734374
 30
0.0
 10
0.9684163411458332
 20
-4.219639078776041
 30
0.0
 10
0.9684163411458332
 20
-4.219639078776041
 30
0.0
 10
0.9684163411458332
 20
-4.219639078776041
 30
0.0
 10
0.9684163411458332
 20
-5.022174072265624
 30
0.0
 10
0.9684163411458332
 20
-5.022174072265624
 30
0.0
 10
0.9684163411458332
 20
-5.292786322699652
 30
0.0
 10
1.274168565538194
 20
-5.327237277560763
 30
0.0
 10
1.274168565538194
 20
-5.327237277560763
 30
0.0
 10
1.274168565538194
 20
-5.327237277560763
 30
0.0
 10
5.837025282118054
 20
-5.327237277560763
 30
0.0
 10
5.837025282118054
 20
-5.327237277560763
 30
0.0
 10
6.175333658854166
 20
-5.327237277560763
 30
0.0
 10
6.142260742187499
 20
-5.02234632703993
 30
0.0
 10
6.142260742187499
 20
-5.02234632703993
 30
0.0
 10
6.142260742187499
 20
-5.02234632703993
 30
0.0
 10
6.142260742187499
 20
1.850791422526041
 30
0.0
 10
6.142260742187499
 20
1.850791422526041
 30
0.0
 10
6.142260742187499
 20
1.850791422526041
 30
0.0
 10
6.175333658854166
 20
2.155682373046874
 30
0.0
 10
5.837025282118054
 20
2.155682373046874
 30
0.0
 10
5.837025282118054
 20
2.155682373046874
 30
0.0
 10
1.274168565538194
 20
2.155682373046874
 30
0.0
 10
1.274168565538194
 20
2.155682373046874
 30
0.0
 10
1.274168565538194
 20
2.155682373046874
 30
0.0
 10
0.9684163411458332
 20
2.121059163411457
 30
0.0
 10
0.9684163411458332
 20
1.85044691297743
 30
0.0
 10
0.9684163411458332
 20
1.85044691297743
 30
0.0
 10
0.9684163411458332
 20
1.048256429036458
 30
0.0
 10
0.9684163411458332
 20
1.048256429036458
 30
0.0
 10
0.9684163411458332
 20
1.048256429036458
 30
0.0
 10
0.0163642035590278
 20
0.1900831434461806
 30
0.0
 10
0.0163642035590278
 20
0.1900831434461806
 30
0.0
 10
0.0163642035590278
 20
0.1900831434461806
 30
0.0
 10
-5.523521592881944
 20
0.1900831434461806
 30
0.0
 10
-5.523521592881944
 20
0.1900831434461806
 30
0.0
 10
-5.523521592881944
 20
0.1900831434461806
 30
0.0
 10
-6.127963595920137
 20
-0.1427130805121528
 30
0.0
 10
-6.127963595920137
 20
-0.1427130805121528
 30
0.0
 10
-6.127963595920137
 20
-0.1427130805121528
 30
0.0
 10
-6.127963595920137
 20
-0.5254631890190972
 30
0.0
 10
-6.127963595920137
 20
-0.5254631890190972
 30
0.0
 10
-6.127963595920137
 20
-0.5254631890190972
 30
0.0
 10
-5.153173828125
 20
-0.5254631890190972
 30
0.0
 10
-5.153173828125
 20
-0.5254631890190972
 30
0.0
 10
-5.153173828125
 20
-0.5254631890190972
 30
0.0
 10
-5.153173828125
 20
-1.11715833875868
 30
0.0
 10
-5.153173828125
 20
-1.11715833875868
 30
0.0
 10
-5.153173828125
 20
-1.289929877387152
 30
0.0
 10
-5.005206976996528
 20
-1.265297444661458
 30
0.0
 10
-5.005206976996528
 20
-1.265297444661458
 30
0.0
 10
-5.005206976996528
 20
-1.265297444661458
 30
0.0
 10
-4.462604437934028
 20
-1.265297444661458
 30
0.0
 10
-4.462604437934028
 20
-1.265297444661458
 30
0.0
 10
-4.351672363281248
 20
-1.265297444661458
 30
0.0
 10
-4.339097764756943
 20
-1.141790771484374
 30
0.0
 10
-4.339097764756943
 20
-1.141790771484374
 30
0.0
 10
-4.339097764756943
 20
-1.141790771484374
 30
0.0
 10
-4.339097764756943
 20
-0.5254631890190972
 30
0.0
 10
-4.339097764756943
 20
-0.5254631890190972
 30
0.0
 10
-4.339097764756943
 20
-0.5254631890190972
 30
0.0
 10
-2.08238796657986
 20
-0.5254631890190972
 30
0.0
 10
-2.08238796657986
 20
-0.5254631890190972
 30
0.0
 10
-1.884467230902777
 20
-0.5128885904947916
 30
0.0
 10
-1.891012912326388
 20
-0.7042636447482639
 30
0.0
 10
-1.891012912326388
 20
-0.7042636447482639
 30
0.0
 10
-1.891012912326388
 20
-0.7042636447482639
 30
0.0
 10
-1.891012912326388
 20
-2.46746351453993
 30
0.0
 10
-1.891012912326388
 20
-2.46746351453993
 30
0.0
  0
SPLINE
  5
2EA
330
2A5
100
AcDbEntity
  8
LAYER_1
 62
     7
100
AcDbSpline
210
0.0
220
0.0
230
1.0
 70
     9
 71
     3
 72
    17
 73
    13
 74
     0
 42
0.0000000001
 43
0.0000000001
 40
0.0
 40
0.0
 40
0.0
 40
0.0
 40
1.0
 40
1.0
 40
1.0
 40
2.0
 40
2.0
 40
2.0
 40
3.0
 40
3.0
 40
3.0
 40
4.0
 40
4.0
 40
4.0
 40
4.0
 10
4.388018120659721
 20
-4.377941216362847
 30
0.0
 10
4.110515679253471
 20
-4.377941216362847
 30
0.0
 10
3.885206434461805
 20
-4.153148735894096
 30
0.0
 10
3.885206434461805
 20
-3.875646294487847
 30
0.0
 10
3.885206434461805
 20
-3.597971598307291
 30
0.0
 10
4.110515679253471
 20
-3.373179117838541
 30
0.0
 10
4.388018120659721
 20
-3.373179117838541
 30
0.0
 10
4.665348307291666
 20
-3.373179117838541
 30
0.0
 10
4.890313042534721
 20
-3.597971598307291
 30
0.0
 10
4.890313042534721
 20
-3.875646294487847
 30
0.0
 10
4.890313042534721
 20
-4.153148735894096
 30
0.0
 10
4.665348307291666
 20
-4.377941216362847
 30
0.0
 10
4.388018120659721
 20
-4.377941216362847
 30
0.0
  0
SPLINE
  5
2E9
330
2A5
100
AcDbEntity
  8
LAYER_1
 62
     7
100
AcDbSpline
210
0.0
220
0.0
230
1.0
 70
     9
 71
     3
 72
    17
 73
    13
 74
     0
 42
0.0000000001
 43
0.0000000001
 40
0.0
 40
0.0
 40
0.0
 40
0.0
 40
1.0
 40
1.0
 40
1.0
 40
2.0
 40
2.0
 40
2.0
 40
3.0
 40
3.0
 40
3.0
 40
4.0
 40
4.0
 40
4.0
 40
4.0
 10
4.388018120659721
 20
-4.610485161675346
 30
0.0
 10
3.991659884982638
 20
-4.610485161675346
 30
0.0
 10
3.669715711805555
 20
-4.288713243272568
 30
0.0
 10
3.669715711805555
 20
-3.892527262369791
 30
0.0
 10
3.669715711805555
 20
-3.495996771918402
 30
0.0
 10
3.991659884982638
 20
-3.174741617838541
 30
0.0
 10
4.388018120659721
 20
-3.174741617838541
 30
0.0
 10
4.784548611111111
 20
-3.174741617838541
 30
0.0
 10
5.105803765190971
 20
-3.495996771918402
 30
0.0
 10
5.105803765190971
 20
-3.892527262369791
 30
0.0
 10
5.105803765190971
 20
-4.288713243272568
 30
0.0
 10
4.784548611111111
 20
-4.610485161675346
 30
0.0
 10
4.388018120659721
 20
-4.610485161675346
 30
0.0
  0
SPLINE
  5
2E8
330
2A5
100
AcDbEntity
  8
LAYER_1
 62
     7
100
AcDbSpline
210
0.0
220
0.0
230
1.0
 70
     9
 71
     3
 72
    17
 73
    13
 74
     0
 42
0.0000000001
 43
0.0000000001
 40
0.0
 40
0.0
 40
0.0
 40
0.0
 40
1.0
 40
1.0
 40
1.0
 40
2.0
 40
2.0
 40
2.0
 40
3.0
 40
3.0
 40
3.0
 40
4.0
 40
4.0
 40
4.0
 40
4.0
 10
4.370964898003472
 20
-5.327926296657985
 30
0.0
 10
3.578076171874999
 20
-5.327926296657985
 30
0.0
 10
2.935393608940971
 20
-4.685588243272568
 30
0.0
 10
2.935393608940971
 20
-3.892527262369791
 30
0.0
 10
2.935393608940971
 20
-3.099638536241318
 30
0.0
 10
3.578076171874999
 20
-2.456783718532985
 30
0.0
 10
4.370964898003472
 20
-2.456783718532985
 30
0.0
 10
5.163853624131943
 20
-2.456783718532985
 30
0.0
 10
5.806708441840277
 20
-3.099638536241318
 30
0.0
 10
5.806708441840277
 20
-3.892527262369791
 30
0.0
 10
5.806708441840277
 20
-4.685588243272568
 30
0.0
 10
5.163853624131943
 20
-5.327926296657985
 30
0.0
 10
4.370964898003472
 20
-5.327926296657985
 30
0.0
  0
SPLINE
  5
2E7
330
2A5
100
AcDbEntity
  8
LAYER_1
 62
     7
100
AcDbSpline
210
0.0
220
0.0
230
1.0
 70
     8
 71
     3
 72
    11
 73
     7
 74
     0
 42
0.0000000001
 43
0.0000000001
 40
0.0
 40
0.0
 40
0.0
 40
0.0
 40
1.0
 40
1.0
 40
1.0
 40
2.0
 40
2.0
 40
2.0
 40
2.0
 10
-5.84029812282986
 20
5.327065022786457
 30
0.0
 10
-5.84029812282986
 20
5.327065022786457
 30
0.0
 10
6.057166883680555
 20
5.327065022786457
 30
0.0
 10
6.057166883680555
 20
5.327065022786457
 30
0.0
 10
6.158797200520832
 20
5.327065022786457
 30
0.0
 10
6.165342881944443
 20
5.195806884765624
 30
0.0
 10
6.165342881944443
 20
5.195806884765624
 30
0.0
  0
LINE
  5
2E6
330
2A5
100
AcDbEntity
  8
LAYER_1
 62
     7
100
AcDbLine
 10
0.966177
 20
4.546406
 30
0.0
 11
0.966177
 21
5.327065
 31
0.0
  0
SPLINE
  5
2E5
330
2A5
100
AcDbEntity
  8
LAYER_1
 62
     7
100
AcDbSpline
210
0.0
220
0.0
230
1.0
 70
     8
 71
     3
 72
    14
 73
    10
 74
     0
 42
0.0000000001
 43
0.0000000001
 40
0.0
 40
0.0
 40
0.0
 40
0.0
 40
1.0
 40
1.0
 40
1.0
 40
2.0
 40
2.0
 40
2.0
 40
3.0
 40
3.0
 40
3.0
 40
3.0
 10
6.175333658854166
 20
5.174964057074652
 30
0.0
 10
6.175333658854166
 20
5.174964057074652
 30
0.0
 10
6.175333658854166
 20
4.673013644748263
 30
0.0
 10
6.175333658854166
 20
4.673013644748263
 30
0.0
 10
6.175333658854166
 20
4.546406385633679
 30
0.0
 10
6.040974934895832
 20
4.541066487630208
 30
0.0
 10
6.040974934895832
 20
4.541066487630208
 30
0.0
 10
6.040974934895832
 20
4.541066487630208
 30
0.0
 10
-5.84029812282986
 20
4.541066487630208
 30
0.0
 10
-5.84029812282986
 20
4.541066487630208
 30
0.0
  0
POLYLINE
  5
2DF
330
2A5
100
AcDbEntity
  8
LAYER_1
 62
     7
100
AcDb2dPolyline
 66
     1
 10
0.0
 20
0.0
 30
0.0
  0
VERTEX
  5
2E0
330
2DF
100
AcDbEntity
  8
LAYER_1
 62
     7
100
AcDbVertex
100
AcDb2dVertex
 10
-5.979823999999999
 20
4.597737999999999
 30
0.0
  0
VERTEX
  5
2E1
330
2DF
100
AcDbEntity
  8
LAYER_1
 62
     7
100
AcDbVertex
100
AcDb2dVertex
 10
-5.938310999999999
 20
4.567420999999999
 30
0.0
  0
VERTEX
  5
2E2
330
2DF
100
AcDbEntity
  8
LAYER_1
 62
     7
100
AcDbVertex
100
AcDb2dVertex
 10
-5.890423999999999
 20
4.548129
 30
0.0
  0
VERTEX
  5
2E3
330
2DF
100
AcDbEntity
  8
LAYER_1
 62
     7
100
AcDbVertex
100
AcDb2dVertex
 10
-5.840298
 20
4.541066
 30
0.0
  0
SEQEND
  5
2E4
330
2DF
100
AcDbEntity
  8
LAYER_1
 62
     7
  0
POLYLINE
  5
2D9
330
2A5
100
AcDbEntity
  8
LAYER_1
 62
     7
100
AcDb2dPolyline
 66
     1
 10
0.0
 20
0.0
 30
0.0
  0
VERTEX
  5
2DA
330
2D9
100
AcDbEntity
  8
LAYER_1
 62
     7
100
AcDbVertex
100
AcDb2dVertex
 10
-5.979823999999999
 20
5.270393
 30
0.0
  0
VERTEX
  5
2DB
330
2D9
100
AcDbEntity
  8
LAYER_1
 62
     7
100
AcDbVertex
100
AcDb2dVertex
 10
-6.175333999999999
 20
5.074711999999999
 30
0.0
  0
VERTEX
  5
2DC
330
2D9
100
AcDbEntity
  8
LAYER_1
 62
     7
100
AcDbVertex
100
AcDb2dVertex
 10
-6.175333999999999
 20
4.796175999999999
 30
0.0
  0
VERTEX
  5
2DD
330
2D9
100
AcDbEntity
  8
LAYER_1
 62
     7
100
AcDbVertex
100
AcDb2dVertex
 10
-5.979823999999999
 20
4.597737999999999
 30
0.0
  0
SEQEND
  5
2DE
330
2D9
100
AcDbEntity
  8
LAYER_1
 62
     7
  0
POLYLINE
  5
2D3
330
2A5
100
AcDbEntity
  8
LAYER_1
 62
     7
100
AcDb2dPolyline
 66
     1
 10
0.0
 20
0.0
 30
0.0
  0
VERTEX
  5
2D4
330
2D3
100
AcDbEntity
  8
LAYER_1
 62
     7
100
AcDbVertex
100
AcDb2dVertex
 10
-5.840298
 20
5.327065
 30
0.0
  0
VERTEX
  5
2D5
330
2D3
100
AcDbEntity
  8
LAYER_1
 62
     7
100
AcDbVertex
100
AcDb2dVertex
 10
-5.890423999999999
 20
5.320518999999999
 30
0.0
  0
VERTEX
  5
2D6
330
2D3
100
AcDbEntity
  8
LAYER_1
 62
     7
100
AcDbVertex
100
AcDb2dVertex
 10
-5.938310999999999
 20
5.301226999999999
 30
0.0
  0
VERTEX
  5
2D7
330
2D3
100
AcDbEntity
  8
LAYER_1
 62
     7
100
AcDbVertex
100
AcDb2dVertex
 10
-5.979823999999999
 20
5.270393
 30
0.0
  0
SEQEND
  5
2D8
330
2D3
100
AcDbEntity
  8
LAYER_1
 62
     7
  0
POLYLINE
  5
2C8
330
2A5
100
AcDbEntity
  8
LAYER_1
 62
     7
100
AcDb2dPolyline
 66
     1
 10
0.0
 20
0.0
 30
0.0
  0
VERTEX
  5
2C9
330
2C8
100
AcDbEntity
  8
LAYER_1
 62
     7
100
AcDbVertex
100
AcDb2dVertex
 10
-5.013302999999999
 20
5.100894999999999
 30
0.0
  0
VERTEX
  5
2CA
330
2C8
100
AcDbEntity
  8
LAYER_1
 62
     7
100
AcDbVertex
100
AcDb2dVertex
 10
-5.052748999999999
 20
5.070232999999999
 30
0.0
  0
VERTEX
  5
2CB
330
2C8
100
AcDbEntity
  8
LAYER_1
 62
     7
100
AcDbVertex
100
AcDb2dVertex
 10
-5.080998999999999
 20
5.029063999999999
 30
0.0
  0
VERTEX
  5
2CC
330
2C8
100
AcDbEntity
  8
LAYER_1
 62
     7
100
AcDbVertex
100
AcDb2dVertex
 10
-5.098052
 20
4.983071999999999
 30
0.0
  0
VERTEX
  5
2CD
330
2C8
100
AcDbEntity
  8
LAYER_1
 62
     7
100
AcDbVertex
100
AcDb2dVertex
 10
-5.104598
 20
4.935357999999999
 30
0.0
  0
VERTEX
  5
2CE
330
2C8
100
AcDbEntity
  8
LAYER_1
 62
     7
100
AcDbVertex
100
AcDb2dVertex
 10
-5.098052
 20
4.885059
 30
0.0
  0
VERTEX
  5
2CF
330
2C8
100
AcDbEntity
  8
LAYER_1
 62
     7
100
AcDbVertex
100
AcDb2dVertex
 10
-5.080998999999999
 20
4.839412
 30
0.0
  0
VERTEX
  5
2D0
330
2C8
100
AcDbEntity
  8
LAYER_1
 62
     7
100
AcDbVertex
100
AcDb2dVertex
 10
-5.052748999999999
 20
4.800309999999999
 30
0.0
  0
VERTEX
  5
2D1
330
2C8
100
AcDbEntity
  8
LAYER_1
 62
     7
100
AcDbVertex
100
AcDb2dVertex
 10
-5.013302999999999
 20
4.767408999999999
 30
0.0
  0
SEQEND
  5
2D2
330
2C8
100
AcDbEntity
  8
LAYER_1
 62
     7
  0
POLYLINE
  5
2C3
330
2A5
100
AcDbEntity
  8
LAYER_1
 62
     7
100
AcDb2dPolyline
 66
     1
 10
0.0
 20
0.0
 30
0.0
  0
VERTEX
  5
2C4
330
2C3
100
AcDbEntity
  8
LAYER_1
 62
     7
100
AcDbVertex
100
AcDb2dVertex
 10
-5.013302999999999
 20
4.767408999999999
 30
0.0
  0
VERTEX
  5
2C5
330
2C3
100
AcDbEntity
  8
LAYER_1
 62
     7
100
AcDbVertex
100
AcDb2dVertex
 10
-4.771456999999999
 20
4.639251999999999
 30
0.0
  0
VERTEX
  5
2C6
330
2C3
100
AcDbEntity
  8
LAYER_1
 62
     7
100
AcDbVertex
100
AcDb2dVertex
 10
-4.514624999999999
 20
4.548129
 30
0.0
  0
SEQEND
  5
2C7
330
2C3
100
AcDbEntity
  8
LAYER_1
 62
     7
  0
POLYLINE
  5
2B9
330
2A5
100
AcDbEntity
  8
LAYER_1
 62
     7
100
AcDb2dPolyline
 66
     1
 10
0.0
 20
0.0
 30
0.0
  0
VERTEX
  5
2BA
330
2B9
100
AcDbEntity
  8
LAYER_1
 62
     7
100
AcDbVertex
100
AcDb2dVertex
 10
-4.514624999999999
 20
4.548129
 30
0.0
  0
VERTEX
  5
2BB
330
2B9
100
AcDbEntity
  8
LAYER_1
 62
     7
100
AcDbVertex
100
AcDb2dVertex
 10
-4.462603999999999
 20
4.541066
 30
0.0
  0
VERTEX
  5
2BC
330
2B9
100
AcDbEntity
  8
LAYER_1
 62
     7
100
AcDbVertex
100
AcDb2dVertex
 10
-4.412478
 20
4.548129
 30
0.0
  0
VERTEX
  5
2BD
330
2B9
100
AcDbEntity
  8
LAYER_1
 62
     7
100
AcDbVertex
100
AcDb2dVertex
 10
-4.364591
 20
4.567420999999999
 30
0.0
  0
VERTEX
  5
2BE
330
2B9
100
AcDbEntity
  8
LAYER_1
 62
     7
100
AcDbVertex
100
AcDb2dVertex
 10
-4.323423
 20
4.597737999999999
 30
0.0
  0
VERTEX
  5
2BF
330
2B9
100
AcDbEntity
  8
LAYER_1
 62
     7
100
AcDbVertex
100
AcDb2dVertex
 10
-4.292761
 20
4.639251999999999
 30
0.0
  0
VERTEX
  5
2C0
330
2B9
100
AcDbEntity
  8
LAYER_1
 62
     7
100
AcDbVertex
100
AcDb2dVertex
 10
-4.273124
 20
4.687139
 30
0.0
  0
VERTEX
  5
2C1
330
2B9
100
AcDbEntity
  8
LAYER_1
 62
     7
100
AcDbVertex
100
AcDb2dVertex
 10
-4.264166999999999
 20
4.737264999999999
 30
0.0
  0
SEQEND
  5
2C2
330
2B9
100
AcDbEntity
  8
LAYER_1
 62
     7
  0
LINE
  5
2B8
330
2A5
100
AcDbEntity
  8
LAYER_1
 62
     7
100
AcDbLine
 10
-4.264166999999999
 20
5.131383999999999
 30
0.0
 11
-4.264166999999999
 21
4.737264999999999
 31
0.0
  0
POLYLINE
  5
2AE
330
2A5
100
AcDbEntity
  8
LAYER_1
 62
     7
100
AcDb2dPolyline
 66
     1
 10
0.0
 20
0.0
 30
0.0
  0
VERTEX
  5
2AF
330
2AE
100
AcDbEntity
  8
LAYER_1
 62
     7
100
AcDbVertex
100
AcDb2dVertex
 10
-4.264166999999999
 20
5.131383999999999
 30
0.0
  0
VERTEX
  5
2B0
330
2AE
100
AcDbEntity
  8
LAYER_1
 62
     7
100
AcDbVertex
100
AcDb2dVertex
 10
-4.273124
 20
5.181337
 30
0.0
  0
VERTEX
  5
2B1
330
2AE
100
AcDbEntity
  8
LAYER_1
 62
     7
100
AcDbVertex
100
AcDb2dVertex
 10
-4.292761
 20
5.229051999999999
 30
0.0
  0
VERTEX
  5
2B2
330
2AE
100
AcDbEntity
  8
LAYER_1
 62
     7
100
AcDbVertex
100
AcDb2dVertex
 10
-4.323423
 20
5.272804999999999
 30
0.0
  0
VERTEX
  5
2B3
330
2AE
100
AcDbEntity
  8
LAYER_1
 62
     7
100
AcDbVertex
100
AcDb2dVertex
 10
-4.364591
 20
5.301226999999999
 30
0.0
  0
VERTEX
  5
2B4
330
2AE
100
AcDbEntity
  8
LAYER_1
 62
     7
100
AcDbVertex
100
AcDb2dVertex
 10
-4.412478
 20
5.320518999999999
 30
0.0
  0
VERTEX
  5
2B5
330
2AE
100
AcDbEntity
  8
LAYER_1
 62
     7
100
AcDbVertex
100
AcDb2dVertex
 10
-4.462603999999999
 20
5.327065
 30
0.0
  0
VERTEX
  5
2B6
330
2AE
100
AcDbEntity
  8
LAYER_1
 62
     7
100
AcDbVertex
100
AcDb2dVertex
 10
-4.514624999999999
 20
5.320518999999999
 30
0.0
  0
SEQEND
  5
2B7
330
2AE
100
AcDbEntity
  8
LAYER_1
 62
     7
  0
POLYLINE
  5
2A9
330
2A5
100
AcDbEntity
  8
LAYER_1
 62
     7
100
AcDb2dPolyline
 66
     1
 10
0.0
 20
0.0
 30
0.0
  0
VERTEX
  5
2AA
330
2A9
100
AcDbEntity
  8
LAYER_1
 62
     7
100
AcDbVertex
100
AcDb2dVertex
 10
-4.514624999999999
 20
5.320518999999999
 30
0.0
  0
VERTEX
  5
2AB
330
2A9
100
AcDbEntity
  8
LAYER_1
 62
     7
100
AcDbVertex
100
AcDb2dVertex
 10
-4.771456999999999
 20
5.229051999999999
 30
0.0
  0
VERTEX
  5
2AC
330
2A9
100
AcDbEntity
  8
LAYER_1
 62
     7
100
AcDbVertex
100
AcDb2dVertex
 10
-5.013302999999999
 20
5.100894999999999
 30
0.0
  0
SEQEND
  5
2AD
330
2A9
100
AcDbEntity
  8
LAYER_1
 62
     7
  0
SPLINE
  5
2A8
330
2A5
100
AcDbEntity
  8
LAYER_1
 62
     7
100
AcDbSpline
210
0.0
220
0.0
230
1.0
 70
     8
 71
     3
 72
    20
 73
    16
 74
     0
 42
0.0000000001
 43
0.0000000001
 40
0.0
 40
0.0
 40
0.0
 40
0.0
 40
1.0
 40
1.0
 40
1.0
 40
2.0
 40
2.0
 40
2.0
 40
3.0
 40
3.0
 40
3.0
 40
4.0
 40
4.0
 40
4.0
 40
5.0
 40
5.0
 40
5.0
 40
5.0
 10
5.787415907118055
 20
4.561392550998263
 30
0.0
 10
5.787415907118055
 20
4.561392550998263
 30
0.0
 10
5.787415907118055
 20
3.977621120876735
 30
0.0
 10
5.787415907118055
 20
3.977621120876735
 30
0.0
 10
5.787415907118055
 20
3.799854193793402
 30
0.0
 10
5.647717285156249
 20
3.837750244140624
 30
0.0
 10
5.647717285156249
 20
3.837750244140624
 30
0.0
 10
5.647717285156249
 20
3.837750244140624
 30
0.0
 10
3.045981174045138
 20
3.837750244140624
 30
0.0
 10
3.045981174045138
 20
3.837750244140624
 30
0.0
 10
2.894052463107638
 20
3.837750244140624
 30
0.0
 10
2.87458767361111
 20
4.009315999348958
 30
0.0
 10
2.87458767361111
 20
4.009315999348958
 30
0.0
 10
2.87458767361111
 20
4.009315999348958
 30
0.0
 10
2.87458767361111
 20
4.561392550998263
 30
0.0
 10
2.87458767361111
 20
4.561392550998263
 30
0.0
  0
ENDBLK
  5
2EF
330
2A5
100
AcDbEntity
  8
0
100
AcDbBlockEnd
  0
BLOCK
  5
3A5
330
3A3
100
AcDbEntity
  8
0
100
AcDbBlockBegin
  2
GENAXEH
 70
     0
 10
0.0
 20
0.0
 30
0.0
  3
GENAXEH
  1

  0
LINE
  5
3A4
330
3A3
100
AcDbEntity
  8
0
100
AcDbLine
 10
-1.0
 20
0.0
 30
0.0
 11
1.0
 21
0.0
 31
0.0
  0
ENDBLK
  5
3A6
330
3A3
100
AcDbEntity
  8
0
100
AcDbBlockEnd
  0
ENDSEC
  0
SECTION
  2
ENTITIES
  0
INSERT
  5
2A6
330
A
100
AcDbEntity
  8
LAYER_1
 62
     7
100
AcDbBlockReference
  2
AI9-BLK29
 10
16.085323
 20
-17.726308
 30
0.0
  0
SPLINE
  5
2A4
330
A
100
AcDbEntity
  8
LAYER_1
 62
     7
100
AcDbSpline
210
0.0
220
0.0
230
1.0
 70
     8
 71
     3
 72
    20
 73
    16
 74
     0
 42
0.0000000001
 43
0.0000000001
 40
0.0
 40
0.0
 40
0.0
 40
0.0
 40
1.0
 40
1.0
 40
1.0
 40
2.0
 40
2.0
 40
2.0
 40
3.0
 40
3.0
 40
3.0
 40
4.0
 40
4.0
 40
4.0
 40
5.0
 40
5.0
 40
5.0
 40
5.0
 10
21.87273898654514
 20
-12.37788357204861
 30
0.0
 10
21.87273898654514
 20
-12.37788357204861
 30
0.0
 10
21.87273898654514
 20
-11.79445665147569
 30
0.0
 10
21.87273898654514
 20
-11.79445665147569
 30
0.0
 10
21.87273898654514
 20
-11.61686197916666
 30
0.0
 10
21.73304036458333
 20
-11.65475802951388
 30
0.0
 10
21.73304036458333
 20
-11.65475802951388
 30
0.0
 10
21.73304036458333
 20
-11.65475802951388
 30
0.0
 10
19.13130425347221
 20
-11.65475802951388
 30
0.0
 10
19.13130425347221
 20
-11.65475802951388
 30
0.0
 10
18.97937554253472
 20
-11.65475802951388
 30
0.0
 10
18.95991075303819
 20
-11.82632378472222
 30
0.0
 10
18.95991075303819
 20
-11.82632378472222
 30
0.0
 10
18.95991075303819
 20
-11.82632378472222
 30
0.0
 10
18.95991075303819
 20
-12.37788357204861
 30
0.0
 10
18.95991075303819
 20
-12.37788357204861
 30
0.0
  0
POLYLINE
  5
29E
330
A
100
AcDbEntity
  8
LAYER_1
 62
     7
100
AcDb2dPolyline
 66
     1
 10
0.0
 20
0.0
 30
0.0
  0
VERTEX
  5
29F
330
29E
100
AcDbEntity
  8
LAYER_1
 62
     7
100
AcDbVertex
100
AcDb2dVertex
 10
7.105853999999999
 20
-21.076577
 30
0.0
  0
VERTEX
  5
2A0
330
29E
100
AcDbEntity
  8
LAYER_1
 62
     7
100
AcDbVertex
100
AcDb2dVertex
 10
6.951686
 20
-20.614246
 30
0.0
  0
VERTEX
  5
2A1
330
29E
100
AcDbEntity
  8
LAYER_1
 62
     7
100
AcDbVertex
100
AcDb2dVertex
 10
7.267772999999999
 20
-20.614246
 30
0.0
  0
VERTEX
  5
2A2
330
29E
100
AcDbEntity
  8
LAYER_1
 62
     7
100
AcDbVertex
100
AcDb2dVertex
 10
7.105853999999999
 20
-21.076577
 30
0.0
  0
SEQEND
  5
2A3
330
29E
100
AcDbEntity
  8
LAYER_1
 62
     7
  0
POLYLINE
  5
298
330
A
100
AcDbEntity
  8
LAYER_1
 62
     7
100
AcDb2dPolyline
 66
     1
 10
0.0
 20
0.0
 30
0.0
  0
VERTEX
  5
299
330
298
100
AcDbEntity
  8
LAYER_1
 62
     7
100
AcDbVertex
100
AcDb2dVertex
 10
7.105853999999999
 20
-12.349117
 30
0.0
  0
VERTEX
  5
29A
330
298
100
AcDbEntity
  8
LAYER_1
 62
     7
100
AcDbVertex
100
AcDb2dVertex
 10
6.951686
 20
-11.886957
 30
0.0
  0
VERTEX
  5
29B
330
298
100
AcDbEntity
  8
LAYER_1
 62
     7
100
AcDbVertex
100
AcDb2dVertex
 10
7.267772999999999
 20
-11.886957
 30
0.0
  0
VERTEX
  5
29C
330
298
100
AcDbEntity
  8
LAYER_1
 62
     7
100
AcDbVertex
100
AcDb2dVertex
 10
7.105853999999999
 20
-12.349117
 30
0.0
  0
SEQEND
  5
29D
330
298
100
AcDbEntity
  8
LAYER_1
 62
     7
  0
POLYLINE
  5
292
330
A
100
AcDbEntity
  8
LAYER_1
 62
     7
100
AcDb2dPolyline
 66
     1
 10
0.0
 20
0.0
 30
0.0
  0
VERTEX
  5
293
330
292
100
AcDbEntity
  8
LAYER_1
 62
     7
100
AcDbVertex
100
AcDb2dVertex
 10
7.112744
 20
-17.546044
 30
0.0
  0
VERTEX
  5
294
330
292
100
AcDbEntity
  8
LAYER_1
 62
     7
100
AcDbVertex
100
AcDb2dVertex
 10
7.267083999999999
 20
-18.008031
 30
0.0
  0
VERTEX
  5
295
330
292
100
AcDbEntity
  8
LAYER_1
 62
     7
100
AcDbVertex
100
AcDb2dVertex
 10
6.951169
 20
-18.008031
 30
0.0
  0
VERTEX
  5
296
330
292
100
AcDbEntity
  8
LAYER_1
 62
     7
100
AcDbVertex
100
AcDb2dVertex
 10
7.112744
 20
-17.546044
 30
0.0
  0
SEQEND
  5
297
330
292
100
AcDbEntity
  8
LAYER_1
 62
     7
  0
POLYLINE
  5
28C
330
A
100
AcDbEntity
  8
LAYER_1
 62
     7
100
AcDb2dPolyline
 66
     1
 10
0.0
 20
0.0
 30
0.0
  0
VERTEX
  5
28D
330
28C
100
AcDbEntity
  8
LAYER_1
 62
     7
100
AcDbVertex
100
AcDb2dVertex
 10
7.112744
 20
-13.21797
 30
0.0
  0
VERTEX
  5
28E
330
28C
100
AcDbEntity
  8
LAYER_1
 62
     7
100
AcDbVertex
100
AcDb2dVertex
 10
7.267083999999999
 20
-13.680474
 30
0.0
  0
VERTEX
  5
28F
330
28C
100
AcDbEntity
  8
LAYER_1
 62
     7
100
AcDbVertex
100
AcDb2dVertex
 10
6.951169
 20
-13.680474
 30
0.0
  0
VERTEX
  5
290
330
28C
100
AcDbEntity
  8
LAYER_1
 62
     7
100
AcDbVertex
100
AcDb2dVertex
 10
7.112744
 20
-13.21797
 30
0.0
  0
SEQEND
  5
291
330
28C
100
AcDbEntity
  8
LAYER_1
 62
     7
  0
POLYLINE
  5
286
330
A
100
AcDbEntity
  8
LAYER_1
 62
     7
100
AcDb2dPolyline
 66
     1
 10
0.0
 20
0.0
 30
0.0
  0
VERTEX
  5
287
330
286
100
AcDbEntity
  8
LAYER_1
 62
     7
100
AcDbVertex
100
AcDb2dVertex
 10
24.428828
 20
-23.026501
 30
0.0
  0
VERTEX
  5
288
330
286
100
AcDbEntity
  8
LAYER_1
 62
     7
100
AcDbVertex
100
AcDb2dVertex
 10
24.27466
 20
-22.563997
 30
0.0
  0
VERTEX
  5
289
330
286
100
AcDbEntity
  8
LAYER_1
 62
     7
100
AcDbVertex
100
AcDb2dVertex
 10
24.590575
 20
-22.563997
 30
0.0
  0
VERTEX
  5
28A
330
286
100
AcDbEntity
  8
LAYER_1
 62
     7
100
AcDbVertex
100
AcDb2dVertex
 10
24.428828
 20
-23.026501
 30
0.0
  0
SEQEND
  5
28B
330
286
100
AcDbEntity
  8
LAYER_1
 62
     7
  0
POLYLINE
  5
280
330
A
100
AcDbEntity
  8
LAYER_1
 62
     7
100
AcDb2dPolyline
 66
     1
 10
0.0
 20
0.0
 30
0.0
  0
VERTEX
  5
281
330
280
100
AcDbEntity
  8
LAYER_1
 62
     7
100
AcDbVertex
100
AcDb2dVertex
 10
24.435373
 20
-15.566147
 30
0.0
  0
VERTEX
  5
282
330
280
100
AcDbEntity
  8
LAYER_1
 62
     7
100
AcDbVertex
100
AcDb2dVertex
 10
24.590058
 20
-16.028651
 30
0.0
  0
VERTEX
  5
283
330
280
100
AcDbEntity
  8
LAYER_1
 62
     7
100
AcDbVertex
100
AcDb2dVertex
 10
24.274143
 20
-16.028651
 30
0.0
  0
VERTEX
  5
284
330
280
100
AcDbEntity
  8
LAYER_1
 62
     7
100
AcDbVertex
100
AcDb2dVertex
 10
24.435373
 20
-15.566147
 30
0.0
  0
SEQEND
  5
285
330
280
100
AcDbEntity
  8
LAYER_1
 62
     7
  0
POLYLINE
  5
27A
330
A
100
AcDbEntity
  8
LAYER_1
 62
     7
100
AcDb2dPolyline
 66
     1
 10
0.0
 20
0.0
 30
0.0
  0
VERTEX
  5
27B
330
27A
100
AcDbEntity
  8
LAYER_1
 62
     7
100
AcDbVertex
100
AcDb2dVertex
 10
17.10955
 20
-25.099932
 30
0.0
  0
VERTEX
  5
27C
330
27A
100
AcDbEntity
  8
LAYER_1
 62
     7
100
AcDbVertex
100
AcDb2dVertex
 10
17.572226
 20
-24.945592
 30
0.0
  0
VERTEX
  5
27D
330
27A
100
AcDbEntity
  8
LAYER_1
 62
     7
100
AcDbVertex
100
AcDb2dVertex
 10
17.572226
 20
-25.261335
 30
0.0
  0
VERTEX
  5
27E
330
27A
100
AcDbEntity
  8
LAYER_1
 62
     7
100
AcDbVertex
100
AcDb2dVertex
 10
17.10955
 20
-25.099932
 30
0.0
  0
SEQEND
  5
27F
330
27A
100
AcDbEntity
  8
LAYER_1
 62
     7
  0
POLYLINE
  5
274
330
A
100
AcDbEntity
  8
LAYER_1
 62
     7
100
AcDb2dPolyline
 66
     1
 10
0.0
 20
0.0
 30
0.0
  0
VERTEX
  5
275
330
274
100
AcDbEntity
  8
LAYER_1
 62
     7
100
AcDbVertex
100
AcDb2dVertex
 10
22.177285
 20
-25.10665
 30
0.0
  0
VERTEX
  5
276
330
274
100
AcDbEntity
  8
LAYER_1
 62
     7
100
AcDbVertex
100
AcDb2dVertex
 10
21.714781
 20
-25.260818
 30
0.0
  0
VERTEX
  5
277
330
274
100
AcDbEntity
  8
LAYER_1
 62
     7
100
AcDbVertex
100
AcDb2dVertex
 10
21.714781
 20
-24.945247
 30
0.0
  0
VERTEX
  5
278
330
274
100
AcDbEntity
  8
LAYER_1
 62
     7
100
AcDbVertex
100
AcDb2dVertex
 10
22.177285
 20
-25.10665
 30
0.0
  0
SEQEND
  5
279
330
274
100
AcDbEntity
  8
LAYER_1
 62
     7
  0
POLYLINE
  5
26E
330
A
100
AcDbEntity
  8
LAYER_1
 62
     7
100
AcDb2dPolyline
 66
     1
 10
0.0
 20
0.0
 30
0.0
  0
VERTEX
  5
26F
330
26E
100
AcDbEntity
  8
LAYER_1
 62
     7
100
AcDbVertex
100
AcDb2dVertex
 10
9.974757
 20
-26.994735
 30
0.0
  0
VERTEX
  5
270
330
26E
100
AcDbEntity
  8
LAYER_1
 62
     7
100
AcDbVertex
100
AcDb2dVertex
 10
10.437261
 20
-26.840567
 30
0.0
  0
VERTEX
  5
271
330
26E
100
AcDbEntity
  8
LAYER_1
 62
     7
100
AcDbVertex
100
AcDb2dVertex
 10
10.437261
 20
-27.156482
 30
0.0
  0
VERTEX
  5
272
330
26E
100
AcDbEntity
  8
LAYER_1
 62
     7
100
AcDbVertex
100
AcDb2dVertex
 10
9.974757
 20
-26.994735
 30
0.0
  0
SEQEND
  5
273
330
26E
100
AcDbEntity
  8
LAYER_1
 62
     7
  0
POLYLINE
  5
268
330
A
100
AcDbEntity
  8
LAYER_1
 62
     7
100
AcDb2dPolyline
 66
     1
 10
0.0
 20
0.0
 30
0.0
  0
VERTEX
  5
269
330
268
100
AcDbEntity
  8
LAYER_1
 62
     7
100
AcDbVertex
100
AcDb2dVertex
 10
22.177285
 20
-27.001797
 30
0.0
  0
VERTEX
  5
26A
330
268
100
AcDbEntity
  8
LAYER_1
 62
     7
100
AcDbVertex
100
AcDb2dVertex
 10
21.714781
 20
-27.155965
 30
0.0
  0
VERTEX
  5
26B
330
268
100
AcDbEntity
  8
LAYER_1
 62
     7
100
AcDbVertex
100
AcDb2dVertex
 10
21.714781
 20
-26.84005
 30
0.0
  0
VERTEX
  5
26C
330
268
100
AcDbEntity
  8
LAYER_1
 62
     7
100
AcDbVertex
100
AcDb2dVertex
 10
22.177285
 20
-27.001797
 30
0.0
  0
SEQEND
  5
26D
330
268
100
AcDbEntity
  8
LAYER_1
 62
     7
  0
MTEXT
  5
267
330
A
100
AcDbEntity
  8
LAYER_1
 62
     7
100
AcDbMText
 10
1.655195999999999
 20
-19.322737
 30
0.0
 40
1.837383999999999
 41
0.0
 71
     1
 72
     2
  1
\fGill Sans|b0|i0;(0.69)
  7
STD
 73
     1
 44
1.0
1001
ACAD
1000
MTEXTBEGIN
1070
    73
1070
     1
1070
    44
1040
1.0
1070
    74
1070
     0
1000
MTEXTEND
  0
MTEXT
  5
266
330
A
100
AcDbEntity
  8
LAYER_1
 62
     7
100
AcDbMText
 10
2.452736
 20
-17.322514
 30
0.0
 40
1.837383999999999
 41
0.0
 71
     1
 72
     2
  1
\fGill Sans|b0|i0;17.5
  7
STD
 73
     1
 44
1.0
1001
ACAD
1000
MTEXTBEGIN
1070
    73
1070
     1
1070
    44
1040
1.0
1070
    74
1070
     0
1000
MTEXTEND
  0
MTEXT
  5
265
330
A
100
AcDbEntity
  8
LAYER_1
 62
     7
100
AcDbMText
 10
23.664361
 20
-19.263998
 30
0.0
 40
1.837383999999999
 41
0.0
 71
     1
 72
     2
  1
\fGill Sans|b0|i0;(1.42)
  7
STD
 73
     1
 44
1.0
1001
ACAD
1000
MTEXTBEGIN
1070
    73
1070
     1
1070
    44
1040
1.0
1070
    74
1070
     0
1000
MTEXTEND
  0
MTEXT
  5
264
330
A
100
AcDbEntity
  8
LAYER_1
 62
     7
100
AcDbMText
 10
25.349702
 20
-17.263775
 30
0.0
 40
1.837383999999999
 41
0.0
 71
     1
 72
     2
  1
\fGill Sans|b0|i0;36
  7
STD
 73
     1
 44
1.0
1001
ACAD
1000
MTEXTBEGIN
1070
    73
1070
     1
1070
    44
1040
1.0
1070
    74
1070
     0
1000
MTEXTEND
  0
MTEXT
  5
263
330
A
100
AcDbEntity
  8
LAYER_1
 62
     7
100
AcDbMText
 10
16.836354
 20
-25.067261
 30
0.0
 40
1.837383999999999
 41
0.0
 71
     1
 72
     2
  1
\fGill Sans|b0|i0;(0.98)
  7
STD
 73
     1
 44
1.0
1001
ACAD
1000
MTEXTBEGIN
1070
    73
1070
     1
1070
    44
1040
1.0
1070
    74
1070
     0
1000
MTEXTEND
  0
MTEXT
  5
262
330
A
100
AcDbEntity
  8
LAYER_1
 62
     7
100
AcDbMText
 10
18.521695
 20
-23.067039
 30
0.0
 40
1.837383999999999
 41
0.0
 71
     1
 72
     2
  1
\fGill Sans|b0|i0;25
  7
STD
 73
     1
 44
1.0
1001
ACAD
1000
MTEXTBEGIN
1070
    73
1070
     1
1070
    44
1040
1.0
1070
    74
1070
     0
1000
MTEXTEND
  0
MTEXT
  5
261
330
A
100
AcDbEntity
  8
LAYER_1
 62
     7
100
AcDbMText
 10
11.428243
 20
-26.916588
 30
0.0
 40
1.837383999999999
 41
0.0
 71
     1
 72
     2
  1
\fGill Sans|b0|i0;57 (2.24)
  7
STD
 73
     1
 44
1.0
1001
ACAD
1000
MTEXTBEGIN
1070
    73
1070
     1
1070
    44
1040
1.0
1070
    74
1070
     0
1000
MTEXTEND
  0
MTEXT
  5
260
330
A
100
AcDbEntity
  8
LAYER_1
 62
     7
100
AcDbMText
 10
2.03898
 20
-13.102789
 30
0.0
 40
1.837383999999999
 41
0.0
 71
     1
 72
     2
  1
\fGill Sans|b0|i0;(0.14)
  7
STD
 73
     1
 44
1.0
1001
ACAD
1000
MTEXTBEGIN
1070
    73
1070
     1
1070
    44
1040
1.0
1070
    74
1070
     0
1000
MTEXTEND
  0
MTEXT
  5
25F
330
A
100
AcDbEntity
  8
LAYER_1
 62
     7
100
AcDbMText
 10
3.45388
 20
-11.102567
 30
0.0
 40
1.837383999999999
 41
0.0
 71
     1
 72
     2
  1
\fGill Sans|b0|i0;3.5
  7
STD
 73
     1
 44
1.0
1001
ACAD
1000
MTEXTBEGIN
1070
    73
1070
     1
1070
    44
1040
1.0
1070
    74
1070
     0
1000
MTEXTEND
  0
INSERT
  5
24A
330
A
100
AcDbEntity
  8
LAYER_1
  6
AI9-LTYPE1
 62
     7
100
AcDbBlockReference
  2
AI9-BLK28
 10
15.758728
 20
-19.021836
 30
0.0
  0
INSERT
  5
241
330
A
100
AcDbEntity
  8
LAYER_1
 62
     7
100
AcDbBlockReference
  2
AI9-BLK27
 10
20.451206
 20
-12.758825
 30
0.0
  0
MTEXT
  5
23F
330
A
100
AcDbEntity
  8
LAYER_1
 62
     7
100
AcDbMText
 10
28.331087
 20
-31.205905
 30
0.0
 40
1.837383999999999
 41
0.0
 71
     1
 72
     2
  1
\fGill Sans|b1|i0;Actuator Guide
  7
STD
 73
     1
 44
1.0
1001
ACAD
1000
MTEXTBEGIN
1070
    73
1070
     1
1070
    44
1040
1.0
1070
    74
1070
     0
1000
MTEXTEND
  0
MTEXT
  5
23E
330
A
100
AcDbEntity
  8
LAYER_1
 62
     7
100
AcDbMText
 10
31.692295
 20
-14.472559
 30
0.0
 40
1.837383999999999
 41
0.0
 71
     1
 72
     2
  1
\fGill Sans|b0|i0;52.0 (2.05)
  7
STD
 73
     1
 44
1.0
1001
ACAD
1000
MTEXTBEGIN
1070
    73
1070
     1
1070
    44
1040
1.0
1070
    74
1070
     0
1000
MTEXTEND
  0
MTEXT
  5
23D
330
A
100
AcDbEntity
  8
LAYER_1
 62
     7
100
AcDbMText
 10
23.570884
 20
-5.278919999999999
 30
0.0
 40
1.837383999999999
 41
0.0
 71
     1
 72
     2
  1
\fGill Sans|b0|i0;35
  7
STD
 11
0.0
 21
1.0
 31
0.0
 73
     1
 44
1.0
1001
ACAD
1000
MTEXTBEGIN
1070
    73
1070
     1
1070
    44
1040
1.0
1070
    74
1070
     0
1000
MTEXTEND
  0
MTEXT
  5
23C
330
A
100
AcDbEntity
  8
LAYER_1
 62
     7
100
AcDbMText
 10
25.985379
 20
-6.806302999999999
 30
0.0
 40
1.837383999999999
 41
0.0
 71
     1
 72
     2
  1
\fGill Sans|b0|i0;29.0
  7
STD
 11
0.0
 21
1.0
 31
0.0
 73
     1
 44
1.0
1001
ACAD
1000
MTEXTBEGIN
1070
    73
1070
     1
1070
    44
1040
1.0
1070
    74
1070
     0
1000
MTEXTEND
  0
MTEXT
  5
23B
330
A
100
AcDbEntity
  8
LAYER_1
 62
     7
100
AcDbMText
 10
31.940858
 20
-26.058243
 30
0.0
 40
1.837383999999999
 41
0.0
 71
     1
 72
     2
  1
\fGill Sans|b0|i0;20.7 (0.81)
  7
STD
 73
     1
 44
1.0
1001
ACAD
1000
MTEXTBEGIN
1070
    73
1070
     1
1070
    44
1040
1.0
1070
    74
1070
     0
1000
MTEXTEND
  0
INSERT
  5
234
330
A
100
AcDbEntity
  8
LAYER_1
 62
     7
100
AcDbBlockReference
  2
AI9-BLK26
 10
37.222276
 20
-2.323285999999999
 30
0.0
  0
INSERT
  5
1B2
330
A
100
AcDbEntity
  8
LAYER_1
 62
     7
100
AcDbBlockReference
  2
AI9-BLK25
 10
37.222362
 20
-4.129463999999999
 30
0.0
  0
INSERT
  5
13B
330
A
100
AcDbEntity
  8
LAYER_1
 62
     7
100
AcDbBlockReference
  2
AI9-BLK24
 10
37.237779
 20
-11.766551
 30
0.0
  0
INSERT
  5
BF
330
A
100
AcDbEntity
  8
LAYER_1
 62
     7
100
AcDbBlockReference
  2
AI9-BLK23
 10
37.237262
 20
-11.276831
 30
0.0
  0
INSERT
  5
AF
330
A
100
AcDbEntity
  8
LAYER_1
 62
     7
100
AcDbBlockReference
  2
AI9-BLK22
 10
37.36275
 20
-6.158796999999999
 30
0.0
  0
LINE
  5
AD
330
A
100
AcDbEntity
  8
LAYER_1
 62
     7
100
AcDbLine
 10
40.68020399999999
 20
-7.782814999999999
 30
0.0
 11
41.24003199999999
 21
-7.782814999999999
 31
0.0
  0
LINE
  5
AC
330
A
100
AcDbEntity
  8
LAYER_1
 62
     7
100
AcDbLine
 10
40.120032
 20
-7.251236999999999
 30
0.0
 11
41.07104999999999
 21
-8.202256
 31
0.0
  0
LINE
  5
AB
330
A
100
AcDbEntity
  8
LAYER_1
 62
     7
100
AcDbLine
 10
29.943392
 20
-8.272363
 30
0.0
 11
29.943392
 21
-14.621674
 31
0.0
  0
INSERT
  5
9B
330
A
100
AcDbEntity
  8
LAYER_1
 62
     7
100
AcDbBlockReference
  2
AI9-BLK19
 10
37.21745300000001
 20
-14.296285
 30
0.0
  0
LINE
  5
99
330
A
100
AcDbEntity
  8
LAYER_1
 62
     7
100
AcDbLine
 10
44.50133199999999
 20
-14.621674
 30
0.0
 11
44.50133199999999
 21
-8.272363
 31
0.0
  0
LINE
  5
98
330
A
100
AcDbEntity
  8
LAYER_1
 62
     7
100
AcDbLine
 10
29.802488
 20
-8.202256
 30
0.0
 11
25.731935
 21
-8.202256
 31
0.0
  0
INSERT
  5
88
330
A
100
AcDbEntity
  8
LAYER_1
 62
     7
100
AcDbBlockReference
  2
AI9-BLK16
 10
25.802215
 20
-3.309788999999999
 30
0.0
  0
LINE
  5
86
330
A
100
AcDbEntity
  8
LAYER_1
 62
     7
100
AcDbLine
 10
25.731935
 20
1.623501
 30
0.0
 11
32.50378700000001
 21
1.623501
 31
0.0
  0
LINE
  5
85
330
A
100
AcDbEntity
  8
LAYER_1
 62
     7
100
AcDbLine
 10
29.802488
 20
-8.202256
 30
0.0
 11
27.773326
 21
-8.202256
 31
0.0
  0
INSERT
  5
75
330
A
100
AcDbEntity
  8
LAYER_1
 62
     7
100
AcDbBlockReference
  2
AI9-BLK13
 10
28.264941
 20
-4.163052999999999
 30
0.0
  0
LINE
  5
73
330
A
100
AcDbEntity
  8
LAYER_1
 62
     7
100
AcDbLine
 10
28.194661
 20
-0.083027
 30
0.0
 11
29.873112
 21
-0.083027
 31
0.0
  0
LINE
  5
72
330
A
100
AcDbEntity
  8
LAYER_1
 62
     7
100
AcDbLine
 10
34.339678
 20
-22.77811
 30
0.0
 11
34.339678
 21
-26.498985
 31
0.0
  0
INSERT
  5
62
330
A
100
AcDbEntity
  8
LAYER_1
 62
     7
100
AcDbBlockReference
  2
AI9-BLK10
 10
37.209529
 20
-25.659157
 30
0.0
  0
LINE
  5
60
330
A
100
AcDbEntity
  8
LAYER_1
 62
     7
100
AcDbLine
 10
40.13536199999999
 20
-26.498985
 30
0.0
 11
40.13536199999999
 21
-22.77811
 31
0.0
  0
INSERT
  5
50
330
A
100
AcDbEntity
  8
LAYER_1
 62
     7
100
AcDbBlockReference
  2
AI9-BLK7
 10
37.225979
 20
-28.58413
 30
0.0
  0
LINE
  5
4E
330
A
100
AcDbEntity
  8
LAYER_1
 62
     7
100
AcDbLine
 10
41.804167
 20
-29.174963
 30
0.0
 11
41.819153
 21
-24.317551
 31
0.0
  0
LINE
  5
4D
330
A
100
AcDbEntity
  8
LAYER_1
 62
     7
100
AcDbLine
 10
34.324692
 20
-7.530289999999999
 30
0.0
 11
34.324692
 21
-10.52425
 31
0.0
  0
INSERT
  5
3D
330
A
100
AcDbEntity
  8
LAYER_1
 62
     7
100
AcDbBlockReference
  2
AI9-BLK4
 10
37.217711
 20
-10.455693
 30
0.0
  0
LINE
  5
3B
330
A
100
AcDbEntity
  8
LAYER_1
 62
     7
100
AcDbLine
 10
40.120032
 20
-10.52425
 30
0.0
 11
40.120032
 21
-7.530289999999999
 31
0.0
  0
LINE
  5
3A
330
A
100
AcDbEntity
  8
LAYER_1
 62
     7
100
AcDbLine
 10
32.64469099999999
 20
-8.342814999999999
 30
0.0
 11
32.64469099999999
 21
-12.565814
 31
0.0
  0
INSERT
  5
2A
330
A
100
AcDbEntity
  8
LAYER_1
 62
     7
100
AcDbBlockReference
  2
AI9-BLK1
 10
37.217625
 20
-12.495706
 30
0.0
  0
LINE
  5
28
330
A
100
AcDbEntity
  8
LAYER_1
 62
     7
100
AcDbLine
 10
41.800033
 20
-12.565814
 30
0.0
 11
41.800033
 21
-8.342814999999999
 31
0.0
  0
LINE
  5
27
330
A
100
AcDbEntity
  8
LAYER_1
 62
     7
100
AcDbLine
 10
32.617647
 20
-24.317551
 30
0.0
 11
32.545989
 21
-29.046289
 31
0.0
  0
MTEXT
  5
26
330
A
100
AcDbEntity
  8
LAYER_1
 62
     7
100
AcDbMText
 10
32.110701
 20
-28.704076
 30
0.0
 40
1.837383999999999
 41
0.0
 71
     1
 72
     2
  1
\fGill Sans|b0|i0;32.7 (1.29)
  7
STD
 73
     1
 44
1.0
1001
ACAD
1000
MTEXTBEGIN
1070
    73
1070
     1
1070
    44
1040
1.0
1070
    74
1070
     0
1000
MTEXTEND
  0
MTEXT
  5
25
330
A
100
AcDbEntity
  8
LAYER_1
 62
     7
100
AcDbMText
 10
31.692295
 20
-12.461657
 30
0.0
 40
1.837383999999999
 41
0.0
 71
     1
 72
     2
  1
\fGill Sans|b0|i0;32.7 (1.29)
  7
STD
 73
     1
 44
1.0
1001
ACAD
1000
MTEXTBEGIN
1070
    73
1070
     1
1070
    44
1040
1.0
1070
    74
1070
     0
1000
MTEXTEND
  0
MTEXT
  5
24
330
A
100
AcDbEntity
  8
LAYER_1
 62
     7
100
AcDbMText
 10
31.949471
 20
-10.375135
 30
0.0
 40
1.837383999999999
 41
0.0
 71
     1
 72
     2
  1
\fGill Sans|b0|i0;20.7 (0.81)
  7
STD
 73
     1
 44
1.0
1001
ACAD
1000
MTEXTBEGIN
1070
    73
1070
     1
1070
    44
1040
1.0
1070
    74
1070
     0
1000
MTEXTEND
  0
MTEXT
  5
23
330
A
100
AcDbEntity
  8
LAYER_1
 62
     7
100
AcDbMText
 10
16.600709
 20
-41.217688
 30
0.0
 40
3.149802
 41
0.0
 71
     1
 72
     2
  1
\fGill Sans|b0|i0;mm (in)
  7
STD
 73
     1
 44
1.0
1001
ACAD
1000
MTEXTBEGIN
1070
    73
1070
     1
1070
    44
1040
1.0
1070
    74
1070
     0
1000
MTEXTEND
  0
MTEXT
  5
22
330
A
100
AcDbEntity
  8
LAYER_1
 62
     7
100
AcDbMText
 10
11.971707
 20
-37.830987
 30
0.0
 40
3.149802
 41
0.0
 71
     1
 72
     2
  1
\fGill Sans|b0|i0;Flat Actuator
  7
STD
 73
     1
 44
1.0
1001
ACAD
1000
MTEXTBEGIN
1070
    73
1070
     1
1070
    44
1040
1.0
1070
    74
1070
     0
1000
MTEXTEND
  0
ENDSEC
  0
SECTION
  2
OBJECTS
  0
DICTIONARY
  5
19
330
0
100
AcDbDictionary
281
     1
  3
ACAD_COLOR
350
2F7
  3
ACAD_GROUP
350
1A
  3
ACAD_LAYOUT
350
2FA
  3
ACAD_MATERIAL
350
2F6
  3
ACAD_MLINESTYLE
350
1B
  3
ACAD_PLOTSETTINGS
350
2FB
  3
ACAD_PLOTSTYLENAME
350
2F4
  3
ACAD_TABLESTYLE
350
2F8
  3
ACDBHEADERROUNDTRIPXREC
350
3BF
  3
AcDbVariableDictionary
350
3BA
  3
AcmDictionary
350
35B
  3
AMG
350
301
  3
AMGSNAPSETTINGS
350
3AF
  3
ASE_INDEX_DICTIONARY
350
3B7
  0
DICTIONARY
  5
2F7
102
{ACAD_REACTORS
330
19
102
}
330
19
100
AcDbDictionary
281
     1
  0
DICTIONARY
  5
1A
102
{ACAD_REACTORS
330
19
102
}
330
19
100
AcDbDictionary
281
     1
  0
DICTIONARY
  5
2FA
102
{ACAD_REACTORS
330
19
102
}
330
19
100
AcDbDictionary
281
     1
  3
Layout1
350
2FD
  3
Model
350
2FC
  0
DICTIONARY
  5
2F6
102
{ACAD_REACTORS
330
19
102
}
330
19
100
AcDbDictionary
281
     1
  0
DICTIONARY
  5
1B
102
{ACAD_REACTORS
330
19
102
}
330
19
100
AcDbDictionary
281
     1
  3
STANDARD
350
1C
  0
DICTIONARY
  5
2FB
102
{ACAD_REACTORS
330
19
102
}
330
19
100
AcDbDictionary
281
     1
  0
ACDBDICTIONARYWDFLT
  5
2F4
102
{ACAD_REACTORS
330
19
102
}
330
19
100
AcDbDictionary
281
     1
  3
Normal
350
2F5
100
AcDbDictionaryWithDefault
340
2F5
  0
DICTIONARY
  5
2F8
102
{ACAD_REACTORS
330
19
102
}
330
19
100
AcDbDictionary
281
     1
  3
Standard
350
2F9
  0
DICTIONARY
  5
3BF
102
{ACAD_REACTORS
330
19
102
}
330
19
100
AcDbDictionary
281
     1
  0
DICTIONARY
  5
3BA
102
{ACAD_REACTORS
330
19
102
}
330
19
100
AcDbDictionary
281
     1
  3
CTABLESTYLE
350
3BB
  3
DIMASSOC
350
3BC
  3
PROJECTNAME
350
3BD
  0
DICTIONARY
  5
35B
102
{ACAD_REACTORS
330
19
102
}
330
19
100
AcDbDictionary
281
     1
  3
AcmStdDictionary
350
366
  3
AMDTSECTSYM_ARROWCOLOR
350
385
  0
DICTIONARY
  5
301
102
{ACAD_REACTORS
330
19
102
}
330
19
100
AcDbDictionary
281
     1
  0
DICTIONARY
  5
3AF
102
{ACAD_REACTORS
330
19
102
}
330
19
100
AcDbDictionary
281
     1
  0
DICTIONARY
  5
3B7
102
{ACAD_REACTORS
330
19
102
}
330
19
100
AcDbDictionary
281
     1
  3
ASEBlockHierarchyIndexRecord
350
3B9
1001
DCO15
1040
1733131281.346
  0
LAYOUT
  5
2FD
102
{ACAD_XDICTIONARY
360
3C2
102
}
102
{ACAD_REACTORS
330
2FA
102
}
330
2FA
100
AcDbPlotSettings
  1

  2
\\USMKEVPRNT001\USMKEPD0431
  4

  6

 40
0.0
 41
0.0
 42
0.0
 43
0.0
 44
0.0
 45
0.0
 46
0.0
 47
0.0
 48
0.0
 49
0.0
140
0.0
141
0.0
142
1.0
143
1.0
 70
   688
 72
     0
 73
     0
 74
     5
  7

 75
    16
147
1.0
148
0.0
149
0.0
100
AcDbLayout
  1
Layout1
 70
     0
 71
     1
 10
0.0
 20
0.0
 11
12.0
 21
9.0
 12
0.0
 22
0.0
 32
0.0
 14
1.000000000000000E+20
 24
1.000000000000000E+20
 34
1.000000000000000E+20
 15
-1.000000000000000E+20
 25
-1.000000000000000E+20
 35
-1.000000000000000E+20
146
0.0
 13
0.0
 23
0.0
 33
0.0
 16
1.0
 26
0.0
 36
0.0
 17
0.0
 27
1.0
 37
0.0
 76
     0
330
B
  0
LAYOUT
  5
2FC
102
{ACAD_XDICTIONARY
360
3C0
102
}
102
{ACAD_REACTORS
330
2FA
102
}
330
2FA
100
AcDbPlotSettings
  1

  2
\\USMKEVPRNT001\USMKEPD0431
  4

  6

 40
0.0
 41
0.0
 42
0.0
 43
0.0
 44
0.0
 45
0.0
 46
0.0
 47
0.0
 48
0.0
 49
0.0
140
0.0
141
0.0
142
1.0
143
1.0
 70
  1712
 72
     0
 73
     0
 74
     0
  7

 75
     0
147
1.0
148
0.0
149
0.0
100
AcDbLayout
  1
Model
 70
     1
 71
     0
 10
0.0
 20
0.0
 11
12.0
 21
9.0
 12
0.0
 22
0.0
 32
0.0
 14
0.0
 24
0.0
 34
0.0
 15
0.0
 25
0.0
 35
0.0
146
0.0
 13
0.0
 23
0.0
 33
0.0
 16
1.0
 26
0.0
 36
0.0
 17
0.0
 27
1.0
 37
0.0
 76
     0
330
A
  0
MLINESTYLE
  5
1C
102
{ACAD_REACTORS
330
1B
102
}
330
1B
100
AcDbMlineStyle
  2
STANDARD
 70
     0
  3

 62
     0
 51
90.0
 52
90.0
 71
     2
 49
0.5
 62
   256
  6
BYLAYER
 49
-0.5
 62
   256
  6
BYLAYER
  0
ACDBPLACEHOLDER
  5
2F5
102
{ACAD_REACTORS
330
2F4
102
}
330
2F4
  0
TABLESTYLE
  5
2F9
102
{ACAD_REACTORS
330
2F8
102
}
330
2F8
100
AcDbTableStyle
  3
Standard
 70
     0
 71
     0
 40
0.06
 41
0.06
280
     0
281
     0
  7
STANDARD
140
0.18
170
     2
 62
     0
 63
     7
283
     0
274
    -2
284
     1
 64
     0
275
    -2
285
     1
 65
     0
276
    -2
286
     1
 66
     0
277
    -2
287
     1
 67
     0
278
    -2
288
     1
 68
     0
279
    -2
289
     1
 69
     0
  7
STANDARD
140
0.25
170
     5
 62
     0
 63
     7
283
     0
274
    -2
284
     1
 64
     0
275
    -2
285
     1
 65
     0
276
    -2
286
     1
 66
     0
277
    -2
287
     1
 67
     0
278
    -2
288
     1
 68
     0
279
    -2
289
     1
 69
     0
  7
STANDARD
140
0.18
170
     5
 62
     0
 63
     7
283
     0
274
    -2
284
     1
 64
     0
275
    -2
285
     1
 65
     0
276
    -2
286
     1
 66
     0
277
    -2
287
     1
 67
     0
278
    -2
288
     1
 68
     0
279
    -2
289
     1
 69
     0
  0
DICTIONARYVAR
  5
3BB
102
{ACAD_REACTORS
330
3BA
102
}
330
3BA
100
DictionaryVariables
280
     0
  1
STANDARD
  0
DICTIONARYVAR
  5
3BC
102
{ACAD_REACTORS
330
3BA
102
}
330
3BA
100
DictionaryVariables
280
     0
  1
1
  0
DICTIONARYVAR
  5
3BD
102
{ACAD_REACTORS
330
3BA
102
}
330
3BA
100
DictionaryVariables
280
     0
  1

  0
DICTIONARY
  5
366
102
{ACAD_REACTORS
330
35B
102
}
330
35B
100
AcDbDictionary
281
     1
  0
XRECORD
  5
385
102
{ACAD_REACTORS
330
35B
102
}
330
35B
100
AcDbXrecord
280
     1
 90
-1023410169
  0
XRECORD
  5
3B9
102
{ACAD_REACTORS
330
3B7
102
}
330
3B7
100
AcDbXrecord
280
     1
330
88
330
9B
330
AF
330
BF
330
13B
330
1B2
330
234
330
24A
330
2A6
330
241
330
2A
330
3D
330
50
330
62
330
75
330
2D
330
34
330
40
330
47
330
53
330
5A
330
65
330
6C
330
78
330
7F
330
8B
330
92
330
9E
330
A5
  0
DICTIONARY
  5
3C2
330
2FD
100
AcDbDictionary
280
     1
281
     1
  3
ACAD_XREC_ROUNDTRIP
360
3C3
  0
DICTIONARY
  5
3C0
330
2FC
100
AcDbDictionary
280
     1
281
     1
  3
ACAD_XREC_ROUNDTRIP
360
3C1
  0
XRECORD
  5
3C3
102
{ACAD_REACTORS
330
3C2
102
}
330
3C2
100
AcDbXrecord
280
     1
102
SHADEPLOT
 70
     0
102
SHADEPLOTRESLEVEL
 70
     2
102
SHADEPLOTCUSTOMDPI
 70
   300
  0
XRECORD
  5
3C1
102
{ACAD_REACTORS
330
3C0
102
}
330
3C0
100
AcDbXrecord
280
     1
102
SHADEPLOT
 70
     0
102
SHADEPLOTRESLEVEL
 70
     2
102
SHADEPLOTCUSTOMDPI
 70
   300
  0
ENDSEC
  0
EOF
