  0
SECTION
  2
HEADER
  9
$ACADVER
  1
AC1015
  9
$ACADMAINTVER
 70
    20
  9
$DWGCODEPAGE
  3
ANSI_1252
  9
$INSBASE
 10
0.0
 20
0.0
 30
0.0
  9
$EXTMIN
 10
37.04436599999998
 20
101.8903807142857
 30
0.0
  9
$EXTMAX
 10
184.3638771904762
 20
161.3859
 30
0.0
  9
$LIMMIN
 10
36.652715
 20
102.496414
  9
$LIMMAX
 10
181.107119
 20
161.819752
  9
$ORTHOMODE
 70
     0
  9
$REGENMODE
 70
     1
  9
$FILLMODE
 70
     1
  9
$QTEXTMODE
 70
     0
  9
$MIRRTEXT
 70
     1
  9
$LTSCALE
 40
1.0
  9
$ATTMODE
 70
     1
  9
$TEXTSIZE
 40
0.0
  9
$TRACEWID
 40
0.05
  9
$TEXTSTYLE
  7
STANDARD
  9
$CLAYER
  8
0
  9
$CELTYPE
  6
CONTINUOUS
  9
$CECOLOR
 62
   256
  9
$CELTSCALE
 40
1.0
  9
$DISPSILH
 70
     0
  9
$DIMSCALE
 40
1.0
  9
$DIMASZ
 40
0.18
  9
$DIMEXO
 40
0.0625
  9
$DIMDLI
 40
0.38
  9
$DIMRND
 40
0.0
  9
$DIMDLE
 40
0.0
  9
$DIMEXE
 40
0.18
  9
$DIMTP
 40
0.0
  9
$DIMTM
 40
0.0
  9
$DIMTXT
 40
0.18
  9
$DIMCEN
 40
0.09
  9
$DIMTSZ
 40
0.0
  9
$DIMTOL
 70
     0
  9
$DIMLIM
 70
     0
  9
$DIMTIH
 70
     1
  9
$DIMTOH
 70
     1
  9
$DIMSE1
 70
     0
  9
$DIMSE2
 70
     0
  9
$DIMTAD
 70
     0
  9
$DIMZIN
 70
     0
  9
$DIMBLK
  1

  9
$DIMASO
 70
     1
  9
$DIMSHO
 70
     1
  9
$DIMPOST
  1

  9
$DIMAPOST
  1

  9
$DIMALT
 70
     0
  9
$DIMALTD
 70
     2
  9
$DIMALTF
 40
25.4
  9
$DIMLFAC
 40
1.0
  9
$DIMTOFL
 70
     0
  9
$DIMTVP
 40
0.0
  9
$DIMTIX
 70
     0
  9
$DIMSOXD
 70
     0
  9
$DIMSAH
 70
     0
  9
$DIMBLK1
  1

  9
$DIMBLK2
  1

  9
$DIMSTYLE
  2
STANDARD
  9
$DIMCLRD
 70
     0
  9
$DIMCLRE
 70
     0
  9
$DIMCLRT
 70
     0
  9
$DIMTFAC
 40
1.0
  9
$DIMGAP
 40
0.09
  9
$DIMJUST
 70
     0
  9
$DIMSD1
 70
     0
  9
$DIMSD2
 70
     0
  9
$DIMTOLJ
 70
     1
  9
$DIMTZIN
 70
     0
  9
$DIMALTZ
 70
     0
  9
$DIMALTTZ
 70
     0
  9
$DIMUPT
 70
     0
  9
$DIMDEC
 70
     4
  9
$DIMTDEC
 70
     4
  9
$DIMALTU
 70
     2
  9
$DIMALTTD
 70
     2
  9
$DIMTXSTY
  7
STANDARD
  9
$DIMAUNIT
 70
     0
  9
$DIMADEC
 70
     0
  9
$DIMALTRND
 40
0.0
  9
$DIMAZIN
 70
     0
  9
$DIMDSEP
 70
    46
  9
$DIMATFIT
 70
     3
  9
$DIMFRAC
 70
     0
  9
$DIMLDRBLK
  1

  9
$DIMLUNIT
 70
     2
  9
$DIMLWD
 70
    -2
  9
$DIMLWE
 70
    -2
  9
$DIMTMOVE
 70
     0
  9
$LUNITS
 70
     2
  9
$LUPREC
 70
     4
  9
$SKETCHINC
 40
0.1
  9
$FILLETRAD
 40
0.0
  9
$AUNITS
 70
     0
  9
$AUPREC
 70
     0
  9
$MENU
  1
acad
  9
$ELEVATION
 40
0.0
  9
$PELEVATION
 40
0.0
  9
$THICKNESS
 40
0.0
  9
$LIMCHECK
 70
     0
  9
$CHAMFERA
 40
0.0
  9
$CHAMFERB
 40
0.0
  9
$CHAMFERC
 40
0.0
  9
$CHAMFERD
 40
0.0
  9
$SKPOLY
 70
     0
  9
$TDCREATE
 40
2305814.042176054
  9
$TDUCREATE
 40
2305814.250509387
  9
$TDUPDATE
 40
2455862.606089248
  9
$TDUUPDATE
 40
2455862.814422581
  9
$TDINDWG
 40
0.0005781597
  9
$TDUSRTIMER
 40
0.0005779861
  9
$USRTIMER
 70
     1
  9
$ANGBASE
 50
0.0
  9
$ANGDIR
 70
     0
  9
$PDMODE
 70
     0
  9
$PDSIZE
 40
0.0
  9
$PLINEWID
 40
0.0
  9
$SPLFRAME
 70
     0
  9
$SPLINETYPE
 70
     6
  9
$SPLINESEGS
 70
     8
  9
$HANDSEED
  5
771
  9
$SURFTAB1
 70
     6
  9
$SURFTAB2
 70
     6
  9
$SURFTYPE
 70
     6
  9
$SURFU
 70
     6
  9
$SURFV
 70
     6
  9
$UCSBASE
  2

  9
$UCSNAME
  2

  9
$UCSORG
 10
0.0
 20
0.0
 30
0.0
  9
$UCSXDIR
 10
1.0
 20
0.0
 30
0.0
  9
$UCSYDIR
 10
0.0
 20
1.0
 30
0.0
  9
$UCSORTHOREF
  2

  9
$UCSORTHOVIEW
 70
     0
  9
$UCSORGTOP
 10
0.0
 20
0.0
 30
0.0
  9
$UCSORGBOTTOM
 10
0.0
 20
0.0
 30
0.0
  9
$UCSORGLEFT
 10
0.0
 20
0.0
 30
0.0
  9
$UCSORGRIGHT
 10
0.0
 20
0.0
 30
0.0
  9
$UCSORGFRONT
 10
0.0
 20
0.0
 30
0.0
  9
$UCSORGBACK
 10
0.0
 20
0.0
 30
0.0
  9
$PUCSBASE
  2

  9
$PUCSNAME
  2

  9
$PUCSORG
 10
0.0
 20
0.0
 30
0.0
  9
$PUCSXDIR
 10
1.0
 20
0.0
 30
0.0
  9
$PUCSYDIR
 10
0.0
 20
1.0
 30
0.0
  9
$PUCSORTHOREF
  2

  9
$PUCSORTHOVIEW
 70
     0
  9
$PUCSORGTOP
 10
0.0
 20
0.0
 30
0.0
  9
$PUCSORGBOTTOM
 10
0.0
 20
0.0
 30
0.0
  9
$PUCSORGLEFT
 10
0.0
 20
0.0
 30
0.0
  9
$PUCSORGRIGHT
 10
0.0
 20
0.0
 30
0.0
  9
$PUCSORGFRONT
 10
0.0
 20
0.0
 30
0.0
  9
$PUCSORGBACK
 10
0.0
 20
0.0
 30
0.0
  9
$USERI1
 70
     0
  9
$USERI2
 70
     0
  9
$USERI3
 70
     0
  9
$USERI4
 70
     0
  9
$USERI5
 70
     0
  9
$USERR1
 40
0.0
  9
$USERR2
 40
0.0
  9
$USERR3
 40
0.0
  9
$USERR4
 40
0.0
  9
$USERR5
 40
0.0
  9
$WORLDVIEW
 70
     1
  9
$SHADEDGE
 70
     3
  9
$SHADEDIF
 70
    70
  9
$TILEMODE
 70
     1
  9
$MAXACTVP
 70
    16
  9
$PINSBASE
 10
0.0
 20
0.0
 30
0.0
  9
$PLIMCHECK
 70
     0
  9
$PEXTMIN
 10
1.000000000000000E+20
 20
1.000000000000000E+20
 30
1.000000000000000E+20
  9
$PEXTMAX
 10
-1.000000000000000E+20
 20
-1.000000000000000E+20
 30
-1.000000000000000E+20
  9
$PLIMMIN
 10
0.0
 20
0.0
  9
$PLIMMAX
 10
12.0
 20
9.0
  9
$UNITMODE
 70
     0
  9
$VISRETAIN
 70
     0
  9
$PLINEGEN
 70
     1
  9
$PSLTSCALE
 70
     0
  9
$TREEDEPTH
 70
  3020
  9
$CMLSTYLE
  2
STANDARD
  9
$CMLJUST
 70
     0
  9
$CMLSCALE
 40
1.0
  9
$PROXYGRAPHICS
 70
     1
  9
$MEASUREMENT
 70
     0
  9
$CELWEIGHT
370
    -1
  9
$ENDCAPS
280
     0
  9
$JOINSTYLE
280
     0
  9
$LWDISPLAY
290
     0
  9
$INSUNITS
 70
     0
  9
$HYPERLINKBASE
  1

  9
$STYLESHEET
  1

  9
$XEDIT
290
     1
  9
$CEPSNTYPE
380
     0
  9
$PSTYLEMODE
290
     1
  9
$FINGERPRINTGUID
  2
{4D3D9EF1-4C59-484F-AD6D-ED818741C1A1}
  9
$VERSIONGUID
  2
{77648075-F7EC-4008-A0B5-3BCB414F1BFD}
  9
$EXTNAMES
290
     1
  9
$PSVPSCALE
 40
0.0
  9
$OLESTARTUP
290
     0
  0
ENDSEC
  0
SECTION
  2
CLASSES
  0
CLASS
  1
IMAGE
  2
AcDbRasterImage
  3
ISM
 90
    32895
280
     0
281
     1
  0
CLASS
  1
DICTIONARYVAR
  2
AcDbDictionaryVar
  3
ObjectDBX Classes
 90
        0
280
     0
281
     0
  0
CLASS
  1
RASTERVARIABLES
  2
AcDbRasterVariables
  3
ISM
 90
    32768
280
     0
281
     0
  0
CLASS
  1
IMAGEDEF
  2
AcDbRasterImageDef
  3
ISM
 90
    32768
280
     0
281
     0
  0
CLASS
  1
IMAGEDEF_REACTOR
  2
AcDbRasterImageDefReactor
  3
ISM
 90
    32769
280
     0
281
     0
  0
CLASS
  1
IDBUFFER
  2
AcDbIdBuffer
  3
ObjectDBX Classes
 90
    32768
280
     0
281
     0
  0
CLASS
  1
SPATIAL_FILTER
  2
AcDbSpatialFilter
  3
ObjectDBX Classes
 90
    32768
280
     0
281
     0
  0
CLASS
  1
SORTENTSTABLE
  2
AcDbSortentsTable
  3
ObjectDBX Classes
 90
    32768
280
     0
281
     0
  0
CLASS
  1
LAYER_INDEX
  2
AcDbLayerIndex
  3
ObjectDBX Classes
 90
    32768
280
     0
281
     0
  0
CLASS
  1
SPATIAL_INDEX
  2
AcDbSpatialIndex
  3
ObjectDBX Classes
 90
    32768
280
     0
281
     0
  0
CLASS
  1
OBJECT_PTR
  2
CAseDLPNTableRecord
  3
ASE-LPNTableRecord
 90
    32769
280
     0
281
     0
  0
CLASS
  1
LAYOUT
  2
AcDbLayout
  3
ObjectDBX Classes
 90
        0
280
     0
281
     0
  0
CLASS
  1
PLOTSETTINGS
  2
AcDbPlotSettings
  3
ObjectDBX Classes
 90
    32768
280
     0
281
     0
  0
CLASS
  1
ACDBDICTIONARYWDFLT
  2
AcDbDictionaryWithDefault
  3
ObjectDBX Classes
 90
        0
280
     0
281
     0
  0
CLASS
  1
ACDBPLACEHOLDER
  2
AcDbPlaceHolder
  3
ObjectDBX Classes
 90
        0
280
     0
281
     0
  0
CLASS
  1
VBA_PROJECT
  2
AcDbVbaProject
  3
acad
 90
    32768
280
     0
281
     0
  0
CLASS
  1
WIPEOUT
  2
AcDbWipeout
  3
"WipeOut|Product Desc: Object Enabler for WipeOut entity^I^I^I^I^I^I|Company: Autodesk, Inc.^I^I^I^I^I^I|WEB Address: www.autodesk.com"
 90
    32895
280
     0
281
     1
  0
CLASS
  1
WIPEOUTVARIABLES
  2
AcDbWipeoutVariables
  3
"WipeOut|Product Desc:     WipeOut Dbx Application|Company:          Autodesk, Inc.|WEB Address:      www.autodesk.com"
 90
    32768
280
     0
281
     0
  0
CLASS
  1
RTEXT
  2
RText
  3
RText|AutoCAD Express Tool|expresstools@autodesk.com
 90
    32768
280
     0
281
     1
  0
CLASS
  1
ARCALIGNEDTEXT
  2
AcDbArcAlignedText
  3
ATEXT|AutoCAD Express Tool|expresstools@autodesk.com
 90
    32768
280
     0
281
     1
  0
CLASS
  1
TABLESTYLE
  2
AcDbTableStyle
  3
ObjectDBX Classes
 90
     2047
280
     0
281
     0
  0
CLASS
  1
AMGSETTINGSOBJ
  2
AmgSettingsObj
  3
"AcadM|Product Description: AutoCAD Mechanical 2000|Company: Autodesk"
 90
        0
280
     0
281
     0
  0
CLASS
  1
ACME_DOCUMENT
  2
AcMeDbDoc
  3
AcMeServices
 90
        0
280
     0
281
     0
  0
CLASS
  1
ACMESCOPE
  2
AcMeScope
  3
AcMeServices
 90
        0
280
     0
281
     0
  0
CLASS
  1
ACMECOMMANDHISTORY
  2
AcMeCommandHistory
  3
AcMeServices
 90
        0
280
     0
281
     0
  0
CLASS
  1
ACIMSYSVARMAN
  2
AcImSysVarManager
  3
AcMeServices
 90
        0
280
     0
281
     0
  0
CLASS
  1
ACIMINTSYSVAR
  2
AcImIntSysVar
  3
AcMeServices
 90
        0
280
     0
281
     0
  0
CLASS
  1
ACMEDRAWINGMAN
  2
AcMeDrawingMan
  3
AcMeServices
 90
        0
280
     0
281
     0
  0
CLASS
  1
ACMEVIEW
  2
AcMeView
  3
AcMeServices
 90
        0
280
     0
281
     0
  0
CLASS
  1
ACDBENTITYCACHE
  2
AcMeEntityCache
  3
AcMeServices
 90
        0
280
     0
281
     0
  0
CLASS
  1
GSMANAGER
  2
AcMeGSManager
  3
AcMeServices
 90
        0
280
     0
281
     0
  0
CLASS
  1
AMDTINTERNALREACTOR
  2
AmdtInternalReactor
  3
AcMeServices
 90
        0
280
     0
281
     0
  0
CLASS
  1
ACMESTATEMGR
  2
AcMeStateMgr
  3
AcMeServices
 90
        0
280
     0
281
     0
  0
CLASS
  1
ACGREFMASTER
  2
AcGrefMaster
  3
AcAttribServices
 90
        0
280
     0
281
     0
  0
CLASS
  1
AM_DRAWING_MGR
  2
AcDmDwgMgr
  3
AcMechDwgViewMgmt
 90
        0
280
     0
281
     0
  0
CLASS
  1
AM_DWG_DOCUMENT
  2
AcDmDwgDocument
  3
AcMechDwgViewMgmt
 90
        0
280
     0
281
     0
  0
CLASS
  1
AM_DWG_SHEET
  2
AcDmSheet
  3
AcMechDwgViewMgmt
 90
        0
280
     0
281
     0
  0
CLASS
  1
AM_VIEWDIMPARMAP
  2
AcDmViewDimParMap
  3
AcMechDwgViewMgmt
 90
        0
280
     0
281
     0
  0
CLASS
  1
ACIMREALSYSVAR
  2
AcImRealSysVar
  3
AcMeServices
 90
        0
280
     0
281
     0
  0
CLASS
  1
AM_DWGMGR_NAME
  2
AcDmDwgMgrName
  3
AcMechDwgViewMgmt
 90
        0
280
     0
281
     0
  0
CLASS
  1
ACME_DATABASE
  2
AcMeDbDatabase
  3
AcMeServices
 90
        0
280
     0
281
     0
  0
CLASS
  1
ACRFINSADJUSTERMGR
  2
AcRfInsAdjusterMgr
  3
AcMeServices
 90
        0
280
     0
281
     0
  0
CLASS
  1
ACGREFACADMASTER
  2
AcGrefacadMaster
  3
AcGrefServices
 90
        0
280
     0
281
     0
  0
CLASS
  1
AMDTMENUSTATEMGR
  2
AmdtMenuStateMgr
  3
McadcomServices
 90
        0
280
     0
281
     0
  0
CLASS
  1
AMDTMCOMMENUSTATE
  2
AmdtMcomMenuState
  3
McadcomServices
 90
        0
280
     0
281
     0
  0
CLASS
  1
AMIMASTER
  2
AmiMaster
  3
AmiServices
 90
        0
280
     0
281
     0
  0
CLASS
  1
MAPIAMMOUDLE
  2
MApiAmModule
  3
MApiAmServices
 90
        0
280
     0
281
     0
  0
CLASS
  1
ACIMSTRSYSVAR
  2
AcImStrSysVar
  3
AcMeServices
 90
        0
280
     0
281
     0
  0
CLASS
  1
AMDTADMENUSTATE
  2
AmdtAdMenuState
  3
DesignerServices
 90
        0
280
     0
281
     0
  0
CLASS
  1
ADAPPL
  2
AcAdAppl
  3
DesignerServices
 90
        0
280
     0
281
     0
  0
CLASS
  1
DEPMGR
  2
AcAdDepMgr
  3
DesignerServices
 90
        0
280
     0
281
     0
  0
CLASS
  1
PARAMMGR
  2
AcAdParamMgr
  3
DesignerServices
 90
        0
280
     0
281
     0
  0
CLASS
  1
PARAMSCOPE
  2
AcAdParamScope
  3
DesignerServices
 90
        0
280
     0
281
     0
  0
CLASS
  1
NAMEDAPPL
  2
AcAdNamedAppl
  3
DesignerServices
 90
        0
280
     0
281
     0
  0
CLASS
  1
AMDTDMMENUSTATE
  2
AmdtDmMenuState
  3
AcMechDwgViewMgmt
 90
        0
280
     0
281
     0
  0
CLASS
  1
AMDTAMMENUSTATE
  2
AmdtAmMenuState
  3
DesignerAssemblies
 90
        0
280
     0
281
     0
  0
CLASS
  1
ACAMPROJECT
  2
AcAmProject
  3
DesignerAssemblies
 90
        0
280
     0
281
     0
  0
CLASS
  1
ACAMGRCOMPDEF
  2
AcAmGrCompDef
  3
DesignerAssemblies
 90
        0
280
     0
281
     0
  0
CLASS
  1
ACCMCONTEXT
  2
AcCmContext
  3
DesignerAssemblies
 90
        0
280
     0
281
     0
  0
CLASS
  1
ACAMCOMPDEF
  2
AcAmCompDef
  3
DesignerAssemblies
 90
        0
280
     0
281
     0
  0
CLASS
  1
ACAMCOMPDEFMGR
  2
AcAmCompDefMgr
  3
DesignerAssemblies
 90
        0
280
     0
281
     0
  0
CLASS
  1
AMCONTEXTMGR
  2
AcAmContextMgr
  3
DesignerAssemblies
 90
        0
280
     0
281
     0
  0
CLASS
  1
ACAMCONTEXTMODELER
  2
AcAmContextModeler
  3
DesignerAssemblies
 90
        0
280
     0
281
     0
  0
CLASS
  1
ACMDATADICTIONARY
  2
AcmDataDictionary
  3
"AcmSymBB|Product Description: AutoCAD Mechanical 2004 DX|Company: Autodesk"
 90
        0
280
     0
281
     0
  0
CLASS
  1
CATALOGSTATE
  2
AcAmCatalogState
  3
DesignerAssemblies
 90
        0
280
     0
281
     0
  0
CLASS
  1
ACAMGRCOMPDEFSET
  2
AcAmGrCompDefSet
  3
DesignerAssemblies
 90
        0
280
     0
281
     0
  0
CLASS
  1
AMDTBROWSERDBTAB
  2
AmdtBrowserDbTab
  3
McadcomServices
 90
        0
280
     0
281
     0
  0
CLASS
  1
CBROWSERAPPOBJECT
  2
CBrowserAppObject
  3
McadcomServices
 90
        0
280
     0
281
     0
  0
CLASS
  1
DM_PLACEHOLDER
  2
AcDmSelsetPlaceholder
  3
AcMechDwgViewMgmt
 90
        0
280
     0
281
     0
  0
CLASS
  1
ACMSTANDARDANSI
  2
AcmStandardANSI
  3
"Amdt_StdImp|Product Description: AutoCAD Mechanical 2004 DX|Company: Autodesk"
 90
        0
280
     0
281
     0
  0
CLASS
  1
AMGOBJPROPCFG
  2
AmgObjPropCfg
  3
"AmgLay|Product Description: AutoCAD Mechanical 2000|Company: Autodesk"
 90
        1
280
     0
281
     0
  0
CLASS
  1
ACMSURFSTANDARDANSI
  2
AcmSurfTextStdANSI
  3
"Amdt_StdImp|Product Description: AutoCAD Mechanical 2004 DX|Company: Autodesk"
 90
        0
280
     0
281
     0
  0
CLASS
  1
ACMFCFSTANDARDANSI
  2
AcmFCFStdANSI
  3
"Amdt_StdImp|Product Description: AutoCAD Mechanical 2004 DX|Company: Autodesk"
 90
        0
280
     0
281
     0
  0
CLASS
  1
ACMWELDSTANDARDANSI
  2
AcmWeldingStdANSI
  3
"Amdt_StdImp|Product Description: AutoCAD Mechanical 2004 DX|Company: Autodesk"
 90
        0
280
     0
281
     0
  0
CLASS
  1
ACMIDSTANDARDANSI
  2
AcmIdStdANSI
  3
"Amdt_StdImp|Product Description: AutoCAD Mechanical 2004 DX|Company: Autodesk"
 90
        0
280
     0
281
     0
  0
CLASS
  1
ACMDATUMSTANDARDANSI
  2
AcmDatumStdANSI
  3
"Amdt_StdImp|Product Description: AutoCAD Mechanical 2004 DX|Company: Autodesk"
 90
        0
280
     0
281
     0
  0
CLASS
  1
ACMBOMSTANDARDANSI
  2
AcmBOMStdANSI
  3
"Amdt_StdImp|Product Description: AutoCAD Mechanical 2004 DX|Company: Autodesk"
 90
        0
280
     0
281
     0
  0
CLASS
  1
ACMDETAILSTANDARDANSI
  2
AmdtDetailSymStdANSI
  3
"Amdt_StdImp|Product Description: AutoCAD Mechanical 2004 DX|Company: Autodesk"
 90
        0
280
     0
281
     0
  0
CLASS
  1
ACMSECTIONSTANDARDANSI
  2
AmdtSectionSymStdANSI
  3
"Amdt_StdImp|Product Description: AutoCAD Mechanical 2004 DX|Company: Autodesk"
 90
        0
280
     0
281
     0
  0
CLASS
  1
ACMCENTERLINESTANDARDANSI
  2
AmdtCenterLineStdANSI
  3
"Amdt_StdImp|Product Description: AutoCAD Mechanical 2004 DX|Company: Autodesk"
 90
        0
280
     0
281
     0
  0
CLASS
  1
ACMTHREADLINESTANDARDANSI
  2
AmdtThreadLineStdANSI
  3
"Amdt_StdImp|Product Description: AutoCAD Mechanical 2004 DX|Company: Autodesk"
 90
        0
280
     0
281
     0
  0
CLASS
  1
ACMNOTESTANDARDANSI
  2
AmdtNoteStdANSI
  3
"Amdt_StdImp|Product Description: AutoCAD Mechanical 2004 DX|Company: Autodesk"
 90
        0
280
     0
281
     0
  0
CLASS
  1
AMDTNOTETEMPLATEDB
  2
AmdtNoteTemplateDB
  3
AMDT_STDIMP_MODULE_NAME
 90
        0
280
     0
281
     0
  0
CLASS
  1
ACAMGLAYSTD
  2
AcAmgLayStd
  3
"AcAmgLayStd|Product Description: AutoCAD Mechanical 2000|Company: Autodesk"
 90
        0
280
     0
281
     0
  0
CLASS
  1
ACAMGDIMSTD
  2
AcAmgDimStd
  3
"AcAmgDimStd|Product Description: AutoCAD Mechanical 2000|Company: Autodesk"
 90
        0
280
     0
281
     0
  0
CLASS
  1
ACAMGHOLECHARTSTDANSI
  2
AcAmgHoleChartStdANSI
  3
ACMSYMBB_MODULE_NAME
 90
        0
280
     0
281
     0
  0
CLASS
  1
ACAMGTITLESTD
  2
AcAmgTitleStd
  3
"TITLEAPP"
 90
        0
280
     0
281
     0
  0
CLASS
  1
ACAMGFILTERDAT
  2
AcAmgFilterDat
  3
"AcadM|Product Description: AutoCAD Mechanical 2000|Company: Autodesk"
 90
    32768
280
     0
281
     0
  0
ENDSEC
  0
SECTION
  2
TABLES
  0
TABLE
  2
VPORT
  5
7
330
0
100
AcDbSymbolTable
 70
     3
  0
VPORT
  5
76B
330
7
100
AcDbSymbolTableRecord
100
AcDbViewportTableRecord
  2
*Active
 70
     0
 10
0.0
 20
0.0
 11
1.0
 21
1.0
 12
114.8781694428645
 22
130.6520187039567
 13
0.0
 23
0.0
 14
1.0
 24
1.0
 15
0.0
 25
0.0
 16
0.0
 26
0.0
 36
1.0
 17
0.0
 27
0.0
 37
0.0
 40
107.349887465427
 41
1.181318681318681
 42
50.0
 43
0.0
 44
0.0
 50
0.0
 51
0.0
 71
     0
 72
   100
 73
     1
 74
     1
 75
     0
 76
     0
 77
     0
 78
     0
281
     0
 65
     0
110
0.0
120
0.0
130
0.0
111
1.0
121
0.0
131
0.0
112
0.0
122
1.0
132
0.0
 79
     0
146
0.0
  0
ENDTAB
  0
TABLE
  2
LTYPE
  5
4
330
0
100
AcDbSymbolTable
 70
    17
  0
LTYPE
  5
11
330
4
100
AcDbSymbolTableRecord
100
AcDbLinetypeTableRecord
  2
BYBLOCK
 70
     0
  3

 72
    65
 73
     0
 40
0.0
  0
LTYPE
  5
12
330
4
100
AcDbSymbolTableRecord
100
AcDbLinetypeTableRecord
  2
BYLAYER
 70
     0
  3

 72
    65
 73
     0
 40
0.0
  0
LTYPE
  5
13
330
4
100
AcDbSymbolTableRecord
100
AcDbLinetypeTableRecord
  2
CONTINUOUS
 70
     0
  3
Solid line
 72
    65
 73
     0
 40
0.0
  0
LTYPE
  5
2C2
330
4
100
AcDbSymbolTableRecord
100
AcDbLinetypeTableRecord
  2
AI9-LTYPE1
 70
     0
  3
Illustrator Dash Style No.1
 72
    65
 73
     1
 40
0.352778
 49
0.352778
 74
     0
  0
LTYPE
  5
659
330
4
100
AcDbSymbolTableRecord
100
AcDbLinetypeTableRecord
  2
HIDDEN
 70
     0
  3
Hidden __ __ __ __ __ __ __ __ __ __ __ __ __ _
 72
    65
 73
     2
 40
0.375
 49
0.25
 74
     0
 49
-0.125
 74
     0
  0
LTYPE
  5
65A
330
4
100
AcDbSymbolTableRecord
100
AcDbLinetypeTableRecord
  2
PHANTOM2
 70
     0
  3
Phantom (.5x) ___ _ _ ___ _ _ ___ _ _ ___ _ _
 72
    65
 73
     6
 40
1.25
 49
0.625
 74
     0
 49
-0.125
 74
     0
 49
0.125
 74
     0
 49
-0.125
 74
     0
 49
0.125
 74
     0
 49
-0.125
 74
     0
  0
LTYPE
  5
65B
330
4
100
AcDbSymbolTableRecord
100
AcDbLinetypeTableRecord
  2
CENTER
 70
     0
  3
Center ____ _ ____ _ ____ _ ____ _ ____ _ ____
 72
    65
 73
     4
 40
2.0
 49
1.25
 74
     0
 49
-0.25
 74
     0
 49
0.25
 74
     0
 49
-0.25
 74
     0
  0
LTYPE
  5
68F
330
4
100
AcDbSymbolTableRecord
100
AcDbLinetypeTableRecord
  2
AM_ISO02W050
 70
     0
  3
__ __ __ __ __ __ __ __ __ __ __ __ __ __ __
 72
    65
 73
     2
 40
7.5
 49
6.0
 74
     0
 49
-1.5
 74
     0
  0
LTYPE
  5
690
330
4
100
AcDbSymbolTableRecord
100
AcDbLinetypeTableRecord
  2
AM_ISO08W050
 70
     0
  3
____ . ____ . ____ . ____ . ____ . ____ . ____
 72
    65
 73
     4
 40
18.0
 49
12.0
 74
     0
 49
-1.5
 74
     0
 49
3.0
 74
     0
 49
-1.5
 74
     0
  0
LTYPE
  5
691
330
4
100
AcDbSymbolTableRecord
100
AcDbLinetypeTableRecord
  2
AM_ISO09W050
 70
     0
  3
_____ . . _____ . . _____ . . ____ .. ____
 72
    65
 73
     6
 40
22.5
 49
12.0
 74
     0
 49
-1.5
 74
     0
 49
3.0
 74
     0
 49
-1.5
 74
     0
 49
3.0
 74
     0
 49
-1.5
 74
     0
  0
LTYPE
  5
692
330
4
100
AcDbSymbolTableRecord
100
AcDbLinetypeTableRecord
  2
Amconstr
 70
     0
  3
_______________________
 72
    65
 73
     2
 40
9999.0
 49
9999.0
 74
     0
 49
0.0
 74
     0
  0
LTYPE
  5
693
330
4
100
AcDbSymbolTableRecord
100
AcDbLinetypeTableRecord
  2
AM_ISO08W050x2
 70
     0
  3
__ . __ . __ . __ . __ . __
 72
    65
 73
     4
 40
9.0
 49
6.0
 74
     0
 49
-0.75
 74
     0
 49
1.5
 74
     0
 49
-0.75
 74
     0
  0
LTYPE
  5
694
330
4
100
AcDbSymbolTableRecord
100
AcDbLinetypeTableRecord
  2
AM_ISO02W050x2
 70
     0
  3
 _ _ _ _ _ _ _ _ _ _ _ _
 72
    65
 73
     2
 40
3.75
 49
3.0
 74
     0
 49
-0.75
 74
     0
  0
LTYPE
  5
697
330
4
100
AcDbSymbolTableRecord
100
AcDbLinetypeTableRecord
  2
Amzigzag
 70
     0
  3
/\/-/\/-/\/-/\/-/\/-/\/
 72
    65
 73
     2
 40
11.0001
 49
0.0001
 74
     4
 75
   136
340
696
 46
0.04
 50
0.0
 44
0.0
 45
0.0
 49
-11.0
 74
     0
  0
LTYPE
  5
698
330
4
100
AcDbSymbolTableRecord
100
AcDbLinetypeTableRecord
  2
CENTER2
 70
     0
  3
Center (.5x) ___ _ ___ _ ___ _ ___ _ ___ _ ___
 72
    65
 73
     4
 40
1.125
 49
0.75
 74
     0
 49
-0.125
 74
     0
 49
0.125
 74
     0
 49
-0.125
 74
     0
  0
LTYPE
  5
699
330
4
100
AcDbSymbolTableRecord
100
AcDbLinetypeTableRecord
  2
HIDDEN2
 70
     0
  3
Hidden (.5x) _ _ _ _ _ _ _ _ _ _ _ _ _ _ _ _ _
 72
    65
 73
     2
 40
0.1875
 49
0.125
 74
     0
 49
-0.0625
 74
     0
  0
LTYPE
  5
69A
330
4
100
AcDbSymbolTableRecord
100
AcDbLinetypeTableRecord
  2
Amzigzag2
 70
     0
  3
/\/-/\/-/\/-/\/-/\/-/\/
 72
    65
 73
     2
 40
0.4401
 49
0.0001
 74
     4
 75
   136
340
696
 46
0.0016
 50
0.0
 44
0.0
 45
0.0
 49
-0.4400000000000002
 74
     0
  0
LTYPE
  5
6A8
330
4
100
AcDbSymbolTableRecord
100
AcDbLinetypeTableRecord
  2
ACANSTGB
 70
     0
  3
__ . . __ . .
 72
    65
 73
     6
 40
0.35433070866
 49
0.15748031496
 74
     0
 49
-0.03937007874
 74
     0
 49
0.03937007874
 74
     0
 49
-0.03937007874
 74
     0
 49
0.03937007874
 74
     0
 49
-0.03937007874
 74
     0
  0
LTYPE
  5
6A9
330
4
100
AcDbSymbolTableRecord
100
AcDbLinetypeTableRecord
  2
ACANSTGL
 70
     0
  3
_ _ _ _ _
 72
    65
 73
     2
 40
0.11811023622
 49
0.07874015748
 74
     0
 49
-0.03937007874
 74
     0
  0
ENDTAB
  0
TABLE
  2
LAYER
  5
2
330
0
100
AcDbSymbolTable
 70
     2
  0
LAYER
  5
14
330
2
100
AcDbSymbolTableRecord
100
AcDbLayerTableRecord
  2
0
 70
     0
 62
     7
  6
CONTINUOUS
370
    -3
390
61B
  0
LAYER
  5
21
330
2
100
AcDbSymbolTableRecord
100
AcDbLayerTableRecord
  2
LAYER_1
 70
     0
 62
     5
  6
CONTINUOUS
370
    -3
390
61B
  0
ENDTAB
  0
TABLE
  2
STYLE
  5
3
330
0
100
AcDbSymbolTable
 70
     8
  0
STYLE
  5
17
330
3
100
AcDbSymbolTableRecord
100
AcDbTextStyleTableRecord
  2
STANDARD
 70
     0
 40
0.0
 41
1.0
 50
0.0
 71
     0
 42
0.0
  3
txt
  4

  0
STYLE
  5
1D
330
3
100
AcDbSymbolTableRecord
100
AcDbTextStyleTableRecord
  2
STD
 70
     0
 40
0.0
 41
1.0
 50
0.0
 71
     0
 42
0.0
  3
txt
  4

  0
STYLE
  5
1E
330
3
100
AcDbSymbolTableRecord
100
AcDbTextStyleTableRecord
  2
TATESTD
 70
     4
 40
0.0
 41
1.0
 50
0.0
 71
     0
 42
0.0
  3
txt
  4

  0
STYLE
  5
1F
330
3
100
AcDbSymbolTableRecord
100
AcDbTextStyleTableRecord
  2
KANJISTD
 70
     0
 40
0.0
 41
1.0
 50
0.0
 71
     0
 42
0.0
  3
txt
  4
extfont
  0
STYLE
  5
20
330
3
100
AcDbSymbolTableRecord
100
AcDbTextStyleTableRecord
  2
KANJITATE
 70
     4
 40
0.0
 41
1.0
 50
0.0
 71
     0
 42
0.0
  3
txt
  4
extfont
  0
STYLE
  5
696
330
3
100
AcDbSymbolTableRecord
100
AcDbTextStyleTableRecord
  2

 70
     1
 40
0.0
 41
1.0
 50
0.0
 71
     0
 42
0.2
  3
genltshp.shx
  4

  0
STYLE
  5
69B
330
3
100
AcDbSymbolTableRecord
100
AcDbTextStyleTableRecord
  2
ACANSTS
 70
     0
 40
1.0
 41
1.0
 50
0.0
 71
     0
 42
0.2
  3
romans.shx
  4

  0
STYLE
  5
6A7
330
3
100
AcDbSymbolTableRecord
100
AcDbTextStyleTableRecord
  2
ACANSGDT
 70
     0
 40
0.0
 41
1.0
 50
0.0
 71
     0
 42
0.2
  3
AMGDT
  4

  0
ENDTAB
  0
TABLE
  2
VIEW
  5
5
330
0
100
AcDbSymbolTable
 70
     0
  0
ENDTAB
  0
TABLE
  2
UCS
  5
6
330
0
100
AcDbSymbolTable
 70
     0
  0
ENDTAB
  0
TABLE
  2
APPID
  5
8
330
0
100
AcDbSymbolTable
 70
    11
  0
APPID
  5
16
330
8
100
AcDbSymbolTableRecord
100
AcDbRegAppTableRecord
  2
ACAD
 70
     0
  0
APPID
  5
62C
330
8
100
AcDbSymbolTableRecord
100
AcDbRegAppTableRecord
  2
MCAD_NO_VIS
 70
     0
  0
APPID
  5
62D
330
8
100
AcDbSymbolTableRecord
100
AcDbRegAppTableRecord
  2
ACAD_TEMP_GRAPHIC
 70
     0
  0
APPID
  5
65D
330
8
100
AcDbSymbolTableRecord
100
AcDbRegAppTableRecord
  2
AD_DRAW
 70
     0
  0
APPID
  5
660
330
8
100
AcDbSymbolTableRecord
100
AcDbRegAppTableRecord
  2
ACATTRIBSERVICES
 70
     0
  0
APPID
  5
680
330
8
100
AcDbSymbolTableRecord
100
AcDbRegAppTableRecord
  2
DESIGNERASSEMBLIES
 70
     0
  0
APPID
  5
686
330
8
100
AcDbSymbolTableRecord
100
AcDbRegAppTableRecord
  2
ACADM_DIM_EDIT
 70
     0
  0
APPID
  5
687
330
8
100
AcDbSymbolTableRecord
100
AcDbRegAppTableRecord
  2
AMDT_DM_ADJ
 70
     0
  0
APPID
  5
6B5
330
8
100
AcDbSymbolTableRecord
100
AcDbRegAppTableRecord
  2
ACAD_DSTYLE_DIMARC_LENGTH_SYMBOL
 70
     0
  0
APPID
  5
6B6
330
8
100
AcDbSymbolTableRecord
100
AcDbRegAppTableRecord
  2
ACAD_DSTYLE_DIMJOGGED_JOGANGLE_SYMBOL
 70
     0
  0
APPID
  5
6DE
330
8
100
AcDbSymbolTableRecord
100
AcDbRegAppTableRecord
  2
DCO15
 70
     0
  0
ENDTAB
  0
TABLE
  2
DIMSTYLE
  5
9
330
0
100
AcDbSymbolTable
 70
     7
100
AcDbDimStyleTable
 71
     0
  0
DIMSTYLE
105
18
330
9
100
AcDbSymbolTableRecord
100
AcDbDimStyleTableRecord
  2
STANDARD
 70
     0
340
17
  0
DIMSTYLE
105
6B4
330
9
100
AcDbSymbolTableRecord
100
AcDbDimStyleTableRecord
  2
AM_ANSI
 70
     0
  4
mm
 41
0.1
 42
0.05
 43
0.5
 44
0.1
 47
0.1
 48
0.1
 78
     7
 79
     2
140
0.12
141
0.0
146
0.71
147
0.06
176
   256
177
   256
178
     2
274
     4
284
     7
340
17
371
    -1
372
    -1
1001
ACAD_DSTYLE_DIMARC_LENGTH_SYMBOL
1070
   379
1070
     1
1001
ACAD_DSTYLE_DIMJOGGED_JOGANGLE_SYMBOL
1070
   384
1040
0.7853981633974483
  0
DIMSTYLE
105
6BD
330
9
100
AcDbSymbolTableRecord
100
AcDbDimStyleTableRecord
  2
AM_ANSI$3
 70
     0
  4
mm
 41
0.1
 42
0.05
 43
0.5
 44
0.1
 47
0.1
 48
0.1
 78
     7
 79
     2
140
0.12
141
0.0
146
0.71
147
0.06
176
   256
177
   256
178
     2
274
     4
284
     7
288
     1
289
     0
340
17
371
    -1
372
    -1
1001
ACAD_DSTYLE_DIMARC_LENGTH_SYMBOL
1070
   379
1070
     1
1001
ACAD_DSTYLE_DIMJOGGED_JOGANGLE_SYMBOL
1070
   384
1040
0.7853981633974483
  0
DIMSTYLE
105
6C0
330
9
100
AcDbSymbolTableRecord
100
AcDbDimStyleTableRecord
  2
AM_ANSI$4
 70
     0
  4
mm
 41
0.1
 42
0.05
 43
0.5
 44
0.1
 47
0.1
 48
0.1
 78
     7
 79
     2
140
0.12
141
0.0
146
0.71
147
0.06
176
   256
177
   256
178
     2
274
     4
284
     7
288
     1
289
     0
340
17
371
    -1
372
    -1
1001
ACAD_DSTYLE_DIMARC_LENGTH_SYMBOL
1070
   379
1070
     1
1001
ACAD_DSTYLE_DIMJOGGED_JOGANGLE_SYMBOL
1070
   384
1040
0.7853981633974483
  0
DIMSTYLE
105
6C5
330
9
100
AcDbSymbolTableRecord
100
AcDbDimStyleTableRecord
  2
AM_ANSI$7
 70
     0
  4
mm
 41
0.1
 42
0.05
 43
0.5
 44
0.1
 47
0.1
 48
0.1
 78
     7
 79
     2
140
0.24
141
0.0
146
0.71
147
0.06
176
   256
177
   256
178
     2
274
     4
284
     7
340
17
371
    -1
372
    -1
1001
ACAD_DSTYLE_DIMARC_LENGTH_SYMBOL
1070
   379
1070
     1
1001
ACAD_DSTYLE_DIMJOGGED_JOGANGLE_SYMBOL
1070
   384
1040
0.7853981633974483
  0
DIMSTYLE
105
6C8
330
9
100
AcDbSymbolTableRecord
100
AcDbDimStyleTableRecord
  2
AM_ANSI$SF
 70
     0
  4
mm
 41
0.1
 42
0.05
 43
0.5
 44
0.1
 47
0.1
 48
0.1
 75
     1
 76
     1
 78
     7
 79
     2
140
0.12
141
0.0
146
0.71
147
0.06
176
   256
177
   256
178
     2
274
     4
284
     7
340
17
371
    -1
372
    -1
1001
ACAD_DSTYLE_DIMARC_LENGTH_SYMBOL
1070
   379
1070
     1
1001
ACAD_DSTYLE_DIMJOGGED_JOGANGLE_SYMBOL
1070
   384
1040
0.7853981633974483
  0
DIMSTYLE
105
6CF
330
9
100
AcDbSymbolTableRecord
100
AcDbDimStyleTableRecord
  2
AM_ANSI$SH
 70
     0
  4
mm
 41
0.1
 42
0.05
 43
0.5
 44
0.1
 47
0.1
 48
0.1
 75
     1
 76
     1
 78
     7
 79
     2
140
0.12
141
0.0
146
0.71
147
0.06
173
     1
176
   256
177
   256
178
     2
274
     4
284
     7
340
17
343
6C9
371
    -1
372
    -1
1001
ACAD_DSTYLE_DIMARC_LENGTH_SYMBOL
1070
   379
1070
     1
1001
ACAD_DSTYLE_DIMJOGGED_JOGANGLE_SYMBOL
1070
   384
1040
0.7853981633974483
  0
ENDTAB
  0
TABLE
  2
BLOCK_RECORD
  5
1
330
0
100
AcDbSymbolTable
 70
     4
  0
BLOCK_RECORD
  5
A
330
1
100
AcDbSymbolTableRecord
100
AcDbBlockTableRecord
  2
*MODEL_SPACE
340
622
  0
BLOCK_RECORD
  5
B
330
1
100
AcDbSymbolTableRecord
100
AcDbBlockTableRecord
  2
*PAPER_SPACE
340
623
  0
BLOCK_RECORD
  5
28
330
1
100
AcDbSymbolTableRecord
100
AcDbBlockTableRecord
  2
AI9-BLK1
340
0
102
{BLKREFS
331
29
102
}
  0
BLOCK_RECORD
  5
3D9
330
1
100
AcDbSymbolTableRecord
100
AcDbBlockTableRecord
  2
AI9-BLK2
340
0
102
{BLKREFS
331
3DA
102
}
  0
BLOCK_RECORD
  5
6C9
330
1
100
AcDbSymbolTableRecord
100
AcDbBlockTableRecord
  2
GENAXEH
340
0
  0
ENDTAB
  0
ENDSEC
  0
SECTION
  2
BLOCKS
  0
BLOCK
  5
D
330
A
100
AcDbEntity
  8
0
100
AcDbBlockBegin
  2
*MODEL_SPACE
 70
     0
 10
0.0
 20
0.0
 30
0.0
  3
*MODEL_SPACE
  1

  0
ENDBLK
  5
E
330
A
100
AcDbEntity
  8
0
100
AcDbBlockEnd
  0
BLOCK
  5
F
330
B
100
AcDbEntity
 67
     1
  8
0
100
AcDbBlockBegin
  2
*PAPER_SPACE
 70
     0
 10
0.0
 20
0.0
 30
0.0
  3
*PAPER_SPACE
  1

  0
ENDBLK
  5
10
330
B
100
AcDbEntity
 67
     1
  8
0
100
AcDbBlockEnd
  0
BLOCK
  5
2A
330
28
100
AcDbEntity
  8
0
 62
     7
100
AcDbBlockBegin
  2
AI9-BLK1
 70
     0
 10
0.0
 20
0.0
 30
0.0
  3
AI9-BLK1
  1

  0
POLYLINE
  5
3D2
330
28
100
AcDbEntity
  8
LAYER_1
 62
     7
100
AcDb2dPolyline
 66
     1
 10
0.0
 20
0.0
 30
0.0
 70
     1
  0
VERTEX
  5
3D3
330
3D2
100
AcDbEntity
  8
LAYER_1
 62
     7
100
AcDbVertex
100
AcDb2dVertex
 10
10.408409
 20
14.305587
 30
0.0
  0
VERTEX
  5
3D4
330
3D2
100
AcDbEntity
  8
LAYER_1
 62
     7
100
AcDbVertex
100
AcDb2dVertex
 10
10.037372
 20
15.690515
 30
0.0
  0
VERTEX
  5
3D5
330
3D2
100
AcDbEntity
  8
LAYER_1
 62
     7
100
AcDbVertex
100
AcDb2dVertex
 10
9.666335
 20
14.305587
 30
0.0
  0
SEQEND
  5
3D6
330
3D2
100
AcDbEntity
  8
LAYER_1
 62
     7
  0
POLYLINE
  5
3CD
330
28
100
AcDbEntity
  8
LAYER_1
 62
     7
100
AcDb2dPolyline
 66
     1
 10
0.0
 20
0.0
 30
0.0
 70
     1
  0
VERTEX
  5
3CE
330
3CD
100
AcDbEntity
  8
LAYER_1
 62
     7
100
AcDbVertex
100
AcDb2dVertex
 10
9.674431
 20
-4.853451
 30
0.0
  0
VERTEX
  5
3CF
330
3CD
100
AcDbEntity
  8
LAYER_1
 62
     7
100
AcDbVertex
100
AcDb2dVertex
 10
10.045468
 20
-6.238207
 30
0.0
  0
VERTEX
  5
3D0
330
3CD
100
AcDbEntity
  8
LAYER_1
 62
     7
100
AcDbVertex
100
AcDb2dVertex
 10
10.416677
 20
-4.853451
 30
0.0
  0
SEQEND
  5
3D1
330
3CD
100
AcDbEntity
  8
LAYER_1
 62
     7
  0
POLYLINE
  5
3C8
330
28
100
AcDbEntity
  8
LAYER_1
 62
     7
100
AcDb2dPolyline
 66
     1
 10
0.0
 20
0.0
 30
0.0
 70
     1
  0
VERTEX
  5
3C9
330
3C8
100
AcDbEntity
  8
LAYER_1
 62
     7
100
AcDbVertex
100
AcDb2dVertex
 10
17.822599
 20
-12.536875
 30
0.0
  0
VERTEX
  5
3CA
330
3C8
100
AcDbEntity
  8
LAYER_1
 62
     7
100
AcDbVertex
100
AcDb2dVertex
 10
19.207527
 20
-12.165838
 30
0.0
  0
VERTEX
  5
3CB
330
3C8
100
AcDbEntity
  8
LAYER_1
 62
     7
100
AcDbVertex
100
AcDb2dVertex
 10
17.822599
 20
-11.794801
 30
0.0
  0
SEQEND
  5
3CC
330
3C8
100
AcDbEntity
  8
LAYER_1
 62
     7
  0
POLYLINE
  5
3C3
330
28
100
AcDbEntity
  8
LAYER_1
 62
     7
100
AcDb2dPolyline
 66
     1
 10
0.0
 20
0.0
 30
0.0
 70
     1
  0
VERTEX
  5
3C4
330
3C3
100
AcDbEntity
  8
LAYER_1
 62
     7
100
AcDbVertex
100
AcDb2dVertex
 10
16.486591
 20
-11.803242
 30
0.0
  0
VERTEX
  5
3C5
330
3C3
100
AcDbEntity
  8
LAYER_1
 62
     7
100
AcDbVertex
100
AcDb2dVertex
 10
15.101662
 20
-12.174278
 30
0.0
  0
VERTEX
  5
3C6
330
3C3
100
AcDbEntity
  8
LAYER_1
 62
     7
100
AcDbVertex
100
AcDb2dVertex
 10
16.486591
 20
-12.545487
 30
0.0
  0
SEQEND
  5
3C7
330
3C3
100
AcDbEntity
  8
LAYER_1
 62
     7
  0
POLYLINE
  5
3BE
330
28
100
AcDbEntity
  8
LAYER_1
 62
     7
100
AcDb2dPolyline
 66
     1
 10
0.0
 20
0.0
 30
0.0
 70
     1
  0
VERTEX
  5
3BF
330
3BE
100
AcDbEntity
  8
LAYER_1
 62
     7
100
AcDbVertex
100
AcDb2dVertex
 10
13.633362
 20
-9.576503999999999
 30
0.0
  0
VERTEX
  5
3C0
330
3BE
100
AcDbEntity
  8
LAYER_1
 62
     7
100
AcDbVertex
100
AcDb2dVertex
 10
15.018291
 20
-9.205467
 30
0.0
  0
VERTEX
  5
3C1
330
3BE
100
AcDbEntity
  8
LAYER_1
 62
     7
100
AcDbVertex
100
AcDb2dVertex
 10
13.633362
 20
-8.834431
 30
0.0
  0
SEQEND
  5
3C2
330
3BE
100
AcDbEntity
  8
LAYER_1
 62
     7
  0
POLYLINE
  5
3B9
330
28
100
AcDbEntity
  8
LAYER_1
 62
     7
100
AcDb2dPolyline
 66
     1
 10
0.0
 20
0.0
 30
0.0
 70
     1
  0
VERTEX
  5
3BA
330
3B9
100
AcDbEntity
  8
LAYER_1
 62
     7
100
AcDbVertex
100
AcDb2dVertex
 10
18.106302
 20
-8.842871
 30
0.0
  0
VERTEX
  5
3BB
330
3B9
100
AcDbEntity
  8
LAYER_1
 62
     7
100
AcDbVertex
100
AcDb2dVertex
 10
16.721546
 20
-9.213907999999999
 30
0.0
  0
VERTEX
  5
3BC
330
3B9
100
AcDbEntity
  8
LAYER_1
 62
     7
100
AcDbVertex
100
AcDb2dVertex
 10
18.106302
 20
-9.584944999999999
 30
0.0
  0
SEQEND
  5
3BD
330
3B9
100
AcDbEntity
  8
LAYER_1
 62
     7
  0
POLYLINE
  5
3B4
330
28
100
AcDbEntity
  8
LAYER_1
 62
     7
100
AcDb2dPolyline
 66
     1
 10
0.0
 20
0.0
 30
0.0
 70
     1
  0
VERTEX
  5
3B5
330
3B4
100
AcDbEntity
  8
LAYER_1
 62
     7
100
AcDbVertex
100
AcDb2dVertex
 10
-34.516842
 20
18.645029
 30
0.0
  0
VERTEX
  5
3B6
330
3B4
100
AcDbEntity
  8
LAYER_1
 62
     7
100
AcDbVertex
100
AcDb2dVertex
 10
-32.97809
 20
19.057235
 30
0.0
  0
VERTEX
  5
3B7
330
3B4
100
AcDbEntity
  8
LAYER_1
 62
     7
100
AcDbVertex
100
AcDb2dVertex
 10
-34.516842
 20
19.469613
 30
0.0
  0
SEQEND
  5
3B8
330
3B4
100
AcDbEntity
  8
LAYER_1
 62
     7
  0
POLYLINE
  5
3AF
330
28
100
AcDbEntity
  8
LAYER_1
 62
     7
100
AcDb2dPolyline
 66
     1
 10
0.0
 20
0.0
 30
0.0
 70
     1
  0
VERTEX
  5
3B0
330
3AF
100
AcDbEntity
  8
LAYER_1
 62
     7
100
AcDbVertex
100
AcDb2dVertex
 10
-36.06437899999999
 20
19.45945
 30
0.0
  0
VERTEX
  5
3B1
330
3AF
100
AcDbEntity
  8
LAYER_1
 62
     7
100
AcDbVertex
100
AcDb2dVertex
 10
-37.603131
 20
19.047244
 30
0.0
  0
VERTEX
  5
3B2
330
3AF
100
AcDbEntity
  8
LAYER_1
 62
     7
100
AcDbVertex
100
AcDb2dVertex
 10
-36.06437899999999
 20
18.634866
 30
0.0
  0
SEQEND
  5
3B3
330
3AF
100
AcDbEntity
  8
LAYER_1
 62
     7
  0
POLYLINE
  5
3AA
330
28
100
AcDbEntity
  8
LAYER_1
 62
     7
100
AcDb2dPolyline
 66
     1
 10
0.0
 20
0.0
 30
0.0
 70
     1
  0
VERTEX
  5
3AB
330
3AA
100
AcDbEntity
  8
LAYER_1
 62
     7
100
AcDbVertex
100
AcDb2dVertex
 10
-39.24403
 20
15.077633
 30
0.0
  0
VERTEX
  5
3AC
330
3AA
100
AcDbEntity
  8
LAYER_1
 62
     7
100
AcDbVertex
100
AcDb2dVertex
 10
-37.705278
 20
15.489838
 30
0.0
  0
VERTEX
  5
3AD
330
3AA
100
AcDbEntity
  8
LAYER_1
 62
     7
100
AcDbVertex
100
AcDb2dVertex
 10
-39.24403
 20
15.902216
 30
0.0
  0
SEQEND
  5
3AE
330
3AA
100
AcDbEntity
  8
LAYER_1
 62
     7
  0
POLYLINE
  5
3A5
330
28
100
AcDbEntity
  8
LAYER_1
 62
     7
100
AcDb2dPolyline
 66
     1
 10
0.0
 20
0.0
 30
0.0
 70
     1
  0
VERTEX
  5
3A6
330
3A5
100
AcDbEntity
  8
LAYER_1
 62
     7
100
AcDbVertex
100
AcDb2dVertex
 10
-34.405049
 20
15.901183
 30
0.0
  0
VERTEX
  5
3A7
330
3A5
100
AcDbEntity
  8
LAYER_1
 62
     7
100
AcDbVertex
100
AcDb2dVertex
 10
-35.943801
 20
15.488977
 30
0.0
  0
VERTEX
  5
3A8
330
3A5
100
AcDbEntity
  8
LAYER_1
 62
     7
100
AcDbVertex
100
AcDb2dVertex
 10
-34.405049
 20
15.076599
 30
0.0
  0
SEQEND
  5
3A9
330
3A5
100
AcDbEntity
  8
LAYER_1
 62
     7
  0
POLYLINE
  5
3A0
330
28
100
AcDbEntity
  8
LAYER_1
 62
     7
100
AcDb2dPolyline
 66
     1
 10
0.0
 20
0.0
 30
0.0
 70
     1
  0
VERTEX
  5
3A1
330
3A0
100
AcDbEntity
  8
LAYER_1
 62
     7
100
AcDbVertex
100
AcDb2dVertex
 10
-41.021355
 20
14.807193
 30
0.0
  0
VERTEX
  5
3A2
330
3A0
100
AcDbEntity
  8
LAYER_1
 62
     7
100
AcDbVertex
100
AcDb2dVertex
 10
-40.609149
 20
13.268441
 30
0.0
  0
VERTEX
  5
3A3
330
3A0
100
AcDbEntity
  8
LAYER_1
 62
     7
100
AcDbVertex
100
AcDb2dVertex
 10
-40.196771
 20
14.807193
 30
0.0
  0
SEQEND
  5
3A4
330
3A0
100
AcDbEntity
  8
LAYER_1
 62
     7
  0
POLYLINE
  5
39B
330
28
100
AcDbEntity
  8
LAYER_1
 62
     7
100
AcDb2dPolyline
 66
     1
 10
0.0
 20
0.0
 30
0.0
 70
     1
  0
VERTEX
  5
39C
330
39B
100
AcDbEntity
  8
LAYER_1
 62
     7
100
AcDbVertex
100
AcDb2dVertex
 10
-40.205556
 20
10.417624
 30
0.0
  0
VERTEX
  5
39D
330
39B
100
AcDbEntity
  8
LAYER_1
 62
     7
100
AcDbVertex
100
AcDb2dVertex
 10
-40.61776199999999
 20
11.956376
 30
0.0
  0
VERTEX
  5
39E
330
39B
100
AcDbEntity
  8
LAYER_1
 62
     7
100
AcDbVertex
100
AcDb2dVertex
 10
-41.03014
 20
10.417624
 30
0.0
  0
SEQEND
  5
39F
330
39B
100
AcDbEntity
  8
LAYER_1
 62
     7
  0
POLYLINE
  5
396
330
28
100
AcDbEntity
  8
LAYER_1
 62
     7
100
AcDb2dPolyline
 66
     1
 10
0.0
 20
0.0
 30
0.0
 70
     1
  0
VERTEX
  5
397
330
396
100
AcDbEntity
  8
LAYER_1
 62
     7
100
AcDbVertex
100
AcDb2dVertex
 10
-40.205556
 20
-10.193349
 30
0.0
  0
VERTEX
  5
398
330
396
100
AcDbEntity
  8
LAYER_1
 62
     7
100
AcDbVertex
100
AcDb2dVertex
 10
-40.61776199999999
 20
-8.654597
 30
0.0
  0
VERTEX
  5
399
330
396
100
AcDbEntity
  8
LAYER_1
 62
     7
100
AcDbVertex
100
AcDb2dVertex
 10
-41.03014
 20
-10.193349
 30
0.0
  0
SEQEND
  5
39A
330
396
100
AcDbEntity
  8
LAYER_1
 62
     7
  0
POLYLINE
  5
391
330
28
100
AcDbEntity
  8
LAYER_1
 62
     7
100
AcDb2dPolyline
 66
     1
 10
0.0
 20
0.0
 30
0.0
 70
     1
  0
VERTEX
  5
392
330
391
100
AcDbEntity
  8
LAYER_1
 62
     7
100
AcDbVertex
100
AcDb2dVertex
 10
-41.076993
 20
-5.538162999999999
 30
0.0
  0
VERTEX
  5
393
330
391
100
AcDbEntity
  8
LAYER_1
 62
     7
100
AcDbVertex
100
AcDb2dVertex
 10
-40.664615
 20
-7.076914999999998
 30
0.0
  0
VERTEX
  5
394
330
391
100
AcDbEntity
  8
LAYER_1
 62
     7
100
AcDbVertex
100
AcDb2dVertex
 10
-40.25241
 20
-5.538162999999999
 30
0.0
  0
SEQEND
  5
395
330
391
100
AcDbEntity
  8
LAYER_1
 62
     7
  0
POLYLINE
  5
38C
330
28
100
AcDbEntity
  8
LAYER_1
 62
     7
100
AcDb2dPolyline
 66
     1
 10
0.0
 20
0.0
 30
0.0
 70
     1
  0
VERTEX
  5
38D
330
38C
100
AcDbEntity
  8
LAYER_1
 62
     7
100
AcDbVertex
100
AcDb2dVertex
 10
-24.917601
 20
0.7641220000000001
 30
0.0
  0
VERTEX
  5
38E
330
38C
100
AcDbEntity
  8
LAYER_1
 62
     7
100
AcDbVertex
100
AcDb2dVertex
 10
-25.329806
 20
2.302874
 30
0.0
  0
VERTEX
  5
38F
330
38C
100
AcDbEntity
  8
LAYER_1
 62
     7
100
AcDbVertex
100
AcDb2dVertex
 10
-25.742184
 20
0.7641220000000001
 30
0.0
  0
SEQEND
  5
390
330
38C
100
AcDbEntity
  8
LAYER_1
 62
     7
  0
POLYLINE
  5
387
330
28
100
AcDbEntity
  8
LAYER_1
 62
     7
100
AcDb2dPolyline
 66
     1
 10
0.0
 20
0.0
 30
0.0
 70
     1
  0
VERTEX
  5
388
330
387
100
AcDbEntity
  8
LAYER_1
 62
     7
100
AcDbVertex
100
AcDb2dVertex
 10
-25.732021
 20
-6.719313999999998
 30
0.0
  0
VERTEX
  5
389
330
387
100
AcDbEntity
  8
LAYER_1
 62
     7
100
AcDbVertex
100
AcDb2dVertex
 10
-25.319643
 20
-8.257894
 30
0.0
  0
VERTEX
  5
38A
330
387
100
AcDbEntity
  8
LAYER_1
 62
     7
100
AcDbVertex
100
AcDb2dVertex
 10
-24.907437
 20
-6.719141999999998
 30
0.0
  0
SEQEND
  5
38B
330
387
100
AcDbEntity
  8
LAYER_1
 62
     7
  0
POLYLINE
  5
382
330
28
100
AcDbEntity
  8
LAYER_1
 62
     7
100
AcDb2dPolyline
 66
     1
 10
0.0
 20
0.0
 30
0.0
 70
     1
  0
VERTEX
  5
383
330
382
100
AcDbEntity
  8
LAYER_1
 62
     7
100
AcDbVertex
100
AcDb2dVertex
 10
-24.952051
 20
11.570009
 30
0.0
  0
VERTEX
  5
384
330
382
100
AcDbEntity
  8
LAYER_1
 62
     7
100
AcDbVertex
100
AcDb2dVertex
 10
-25.364429
 20
13.108761
 30
0.0
  0
VERTEX
  5
385
330
382
100
AcDbEntity
  8
LAYER_1
 62
     7
100
AcDbVertex
100
AcDb2dVertex
 10
-25.776635
 20
11.570009
 30
0.0
  0
SEQEND
  5
386
330
382
100
AcDbEntity
  8
LAYER_1
 62
     7
  0
POLYLINE
  5
37D
330
28
100
AcDbEntity
  8
LAYER_1
 62
     7
100
AcDb2dPolyline
 66
     1
 10
0.0
 20
0.0
 30
0.0
 70
     1
  0
VERTEX
  5
37E
330
37D
100
AcDbEntity
  8
LAYER_1
 62
     7
100
AcDbVertex
100
AcDb2dVertex
 10
-25.766472
 20
4.081576999999998
 30
0.0
  0
VERTEX
  5
37F
330
37D
100
AcDbEntity
  8
LAYER_1
 62
     7
100
AcDbVertex
100
AcDb2dVertex
 10
-25.354266
 20
2.542825
 30
0.0
  0
VERTEX
  5
380
330
37D
100
AcDbEntity
  8
LAYER_1
 62
     7
100
AcDbVertex
100
AcDb2dVertex
 10
-24.941888
 20
4.081576999999998
 30
0.0
  0
SEQEND
  5
381
330
37D
100
AcDbEntity
  8
LAYER_1
 62
     7
  0
POLYLINE
  5
378
330
28
100
AcDbEntity
  8
LAYER_1
 62
     7
100
AcDb2dPolyline
 66
     1
 10
0.0
 20
0.0
 30
0.0
 70
     1
  0
VERTEX
  5
379
330
378
100
AcDbEntity
  8
LAYER_1
 62
     7
100
AcDbVertex
100
AcDb2dVertex
 10
-29.662875
 20
11.539692
 30
0.0
  0
VERTEX
  5
37A
330
378
100
AcDbEntity
  8
LAYER_1
 62
     7
100
AcDbVertex
100
AcDb2dVertex
 10
-30.075081
 20
13.078444
 30
0.0
  0
VERTEX
  5
37B
330
378
100
AcDbEntity
  8
LAYER_1
 62
     7
100
AcDbVertex
100
AcDb2dVertex
 10
-30.487459
 20
11.539692
 30
0.0
  0
SEQEND
  5
37C
330
378
100
AcDbEntity
  8
LAYER_1
 62
     7
  0
POLYLINE
  5
373
330
28
100
AcDbEntity
  8
LAYER_1
 62
     7
100
AcDb2dPolyline
 66
     1
 10
0.0
 20
0.0
 30
0.0
 70
     1
  0
VERTEX
  5
374
330
373
100
AcDbEntity
  8
LAYER_1
 62
     7
100
AcDbVertex
100
AcDb2dVertex
 10
-30.478501
 20
-6.725688
 30
0.0
  0
VERTEX
  5
375
330
373
100
AcDbEntity
  8
LAYER_1
 62
     7
100
AcDbVertex
100
AcDb2dVertex
 10
-30.066123
 20
-8.264439999999996
 30
0.0
  0
VERTEX
  5
376
330
373
100
AcDbEntity
  8
LAYER_1
 62
     7
100
AcDbVertex
100
AcDb2dVertex
 10
-29.653918
 20
-6.725688
 30
0.0
  0
SEQEND
  5
377
330
373
100
AcDbEntity
  8
LAYER_1
 62
     7
  0
POLYLINE
  5
36E
330
28
100
AcDbEntity
  8
LAYER_1
 62
     7
100
AcDb2dPolyline
 66
     1
 10
0.0
 20
0.0
 30
0.0
 70
     1
  0
VERTEX
  5
36F
330
36E
100
AcDbEntity
  8
LAYER_1
 62
     7
100
AcDbVertex
100
AcDb2dVertex
 10
-20.376792
 20
-12.024589
 30
0.0
  0
VERTEX
  5
370
330
36E
100
AcDbEntity
  8
LAYER_1
 62
     7
100
AcDbVertex
100
AcDb2dVertex
 10
-18.838041
 20
-11.612211
 30
0.0
  0
VERTEX
  5
371
330
36E
100
AcDbEntity
  8
LAYER_1
 62
     7
100
AcDbVertex
100
AcDb2dVertex
 10
-20.376792
 20
-11.199833
 30
0.0
  0
SEQEND
  5
372
330
36E
100
AcDbEntity
  8
LAYER_1
 62
     7
  0
POLYLINE
  5
369
330
28
100
AcDbEntity
  8
LAYER_1
 62
     7
100
AcDb2dPolyline
 66
     1
 10
0.0
 20
0.0
 30
0.0
 70
     1
  0
VERTEX
  5
36A
330
369
100
AcDbEntity
  8
LAYER_1
 62
     7
100
AcDbVertex
100
AcDb2dVertex
 10
-21.918989
 20
-11.209996
 30
0.0
  0
VERTEX
  5
36B
330
369
100
AcDbEntity
  8
LAYER_1
 62
     7
100
AcDbVertex
100
AcDb2dVertex
 10
-23.457741
 20
-11.622202
 30
0.0
  0
VERTEX
  5
36C
330
369
100
AcDbEntity
  8
LAYER_1
 62
     7
100
AcDbVertex
100
AcDb2dVertex
 10
-21.918989
 20
-12.03458
 30
0.0
  0
SEQEND
  5
36D
330
369
100
AcDbEntity
  8
LAYER_1
 62
     7
  0
POLYLINE
  5
364
330
28
100
AcDbEntity
  8
LAYER_1
 62
     7
100
AcDb2dPolyline
 66
     1
 10
0.0
 20
0.0
 30
0.0
 70
     1
  0
VERTEX
  5
365
330
364
100
AcDbEntity
  8
LAYER_1
 62
     7
100
AcDbVertex
100
AcDb2dVertex
 10
24.775318
 20
7.916828999999999
 30
0.0
  0
VERTEX
  5
366
330
364
100
AcDbEntity
  8
LAYER_1
 62
     7
100
AcDbVertex
100
AcDb2dVertex
 10
24.36294
 20
9.455408999999999
 30
0.0
  0
VERTEX
  5
367
330
364
100
AcDbEntity
  8
LAYER_1
 62
     7
100
AcDbVertex
100
AcDb2dVertex
 10
23.950562
 20
7.916828999999999
 30
0.0
  0
SEQEND
  5
368
330
364
100
AcDbEntity
  8
LAYER_1
 62
     7
  0
POLYLINE
  5
35F
330
28
100
AcDbEntity
  8
LAYER_1
 62
     7
100
AcDb2dPolyline
 66
     1
 10
0.0
 20
0.0
 30
0.0
 70
     1
  0
VERTEX
  5
360
330
35F
100
AcDbEntity
  8
LAYER_1
 62
     7
100
AcDbVertex
100
AcDb2dVertex
 10
23.959519
 20
-3.061139999999998
 30
0.0
  0
VERTEX
  5
361
330
35F
100
AcDbEntity
  8
LAYER_1
 62
     7
100
AcDbVertex
100
AcDb2dVertex
 10
24.371725
 20
-4.599719
 30
0.0
  0
VERTEX
  5
362
330
35F
100
AcDbEntity
  8
LAYER_1
 62
     7
100
AcDbVertex
100
AcDb2dVertex
 10
24.784103
 20
-3.061139999999998
 30
0.0
  0
SEQEND
  5
363
330
35F
100
AcDbEntity
  8
LAYER_1
 62
     7
  0
POLYLINE
  5
35A
330
28
100
AcDbEntity
  8
LAYER_1
 62
     7
100
AcDb2dPolyline
 66
     1
 10
0.0
 20
0.0
 30
0.0
 70
     1
  0
VERTEX
  5
35B
330
35A
100
AcDbEntity
  8
LAYER_1
 62
     7
100
AcDbVertex
100
AcDb2dVertex
 10
24.77549
 20
-8.018460000000001
 30
0.0
  0
VERTEX
  5
35C
330
35A
100
AcDbEntity
  8
LAYER_1
 62
     7
100
AcDbVertex
100
AcDb2dVertex
 10
24.363285
 20
-6.47988
 30
0.0
  0
VERTEX
  5
35D
330
35A
100
AcDbEntity
  8
LAYER_1
 62
     7
100
AcDbVertex
100
AcDb2dVertex
 10
23.950907
 20
-8.018460000000001
 30
0.0
  0
SEQEND
  5
35E
330
35A
100
AcDbEntity
  8
LAYER_1
 62
     7
  0
POLYLINE
  5
355
330
28
100
AcDbEntity
  8
LAYER_1
 62
     7
100
AcDb2dPolyline
 66
     1
 10
0.0
 20
0.0
 30
0.0
 70
     1
  0
VERTEX
  5
356
330
355
100
AcDbEntity
  8
LAYER_1
 62
     7
100
AcDbVertex
100
AcDb2dVertex
 10
26.734716
 20
-9.755477
 30
0.0
  0
VERTEX
  5
357
330
355
100
AcDbEntity
  8
LAYER_1
 62
     7
100
AcDbVertex
100
AcDb2dVertex
 10
28.273296
 20
-9.343099
 30
0.0
  0
VERTEX
  5
358
330
355
100
AcDbEntity
  8
LAYER_1
 62
     7
100
AcDbVertex
100
AcDb2dVertex
 10
26.734544
 20
-8.930721
 30
0.0
  0
SEQEND
  5
359
330
355
100
AcDbEntity
  8
LAYER_1
 62
     7
  0
POLYLINE
  5
350
330
28
100
AcDbEntity
  8
LAYER_1
 62
     7
100
AcDb2dPolyline
 66
     1
 10
0.0
 20
0.0
 30
0.0
 70
     1
  0
VERTEX
  5
351
330
350
100
AcDbEntity
  8
LAYER_1
 62
     7
100
AcDbVertex
100
AcDb2dVertex
 10
30.686585
 20
-9.719647999999999
 30
0.0
  0
VERTEX
  5
352
330
350
100
AcDbEntity
  8
LAYER_1
 62
     7
100
AcDbVertex
100
AcDb2dVertex
 10
32.071341
 20
-9.348439
 30
0.0
  0
VERTEX
  5
353
330
350
100
AcDbEntity
  8
LAYER_1
 62
     7
100
AcDbVertex
100
AcDb2dVertex
 10
30.686585
 20
-8.977401999999997
 30
0.0
  0
SEQEND
  5
354
330
350
100
AcDbEntity
  8
LAYER_1
 62
     7
  0
POLYLINE
  5
34B
330
28
100
AcDbEntity
  8
LAYER_1
 62
     7
100
AcDb2dPolyline
 66
     1
 10
0.0
 20
0.0
 30
0.0
 70
     1
  0
VERTEX
  5
34C
330
34B
100
AcDbEntity
  8
LAYER_1
 62
     7
100
AcDbVertex
100
AcDb2dVertex
 10
34.528556
 20
-8.982742
 30
0.0
  0
VERTEX
  5
34D
330
34B
100
AcDbEntity
  8
LAYER_1
 62
     7
100
AcDbVertex
100
AcDb2dVertex
 10
33.1438
 20
-9.353778999999999
 30
0.0
  0
VERTEX
  5
34E
330
34B
100
AcDbEntity
  8
LAYER_1
 62
     7
100
AcDbVertex
100
AcDb2dVertex
 10
34.528556
 20
-9.724816
 30
0.0
  0
SEQEND
  5
34F
330
34B
100
AcDbEntity
  8
LAYER_1
 62
     7
  0
POLYLINE
  5
346
330
28
100
AcDbEntity
  8
LAYER_1
 62
     7
100
AcDb2dPolyline
 66
     1
 10
0.0
 20
0.0
 30
0.0
 70
     1
  0
VERTEX
  5
347
330
346
100
AcDbEntity
  8
LAYER_1
 62
     7
100
AcDbVertex
100
AcDb2dVertex
 10
30.490042
 20
-9.024255
 30
0.0
  0
VERTEX
  5
348
330
346
100
AcDbEntity
  8
LAYER_1
 62
     7
100
AcDbVertex
100
AcDb2dVertex
 10
29.243607
 20
-9.358085
 30
0.0
  0
VERTEX
  5
349
330
346
100
AcDbEntity
  8
LAYER_1
 62
     7
100
AcDbVertex
100
AcDb2dVertex
 10
30.490042
 20
-9.692087
 30
0.0
  0
SEQEND
  5
34A
330
346
100
AcDbEntity
  8
LAYER_1
 62
     7
  0
POLYLINE
  5
341
330
28
100
AcDbEntity
  8
LAYER_1
 62
     7
100
AcDb2dPolyline
 66
     1
 10
0.0
 20
0.0
 30
0.0
 70
     1
  0
VERTEX
  5
342
330
341
100
AcDbEntity
  8
LAYER_1
 62
     7
100
AcDbVertex
100
AcDb2dVertex
 10
27.545692
 20
-13.050194
 30
0.0
  0
VERTEX
  5
343
330
341
100
AcDbEntity
  8
LAYER_1
 62
     7
100
AcDbVertex
100
AcDb2dVertex
 10
29.084443
 20
-12.637988
 30
0.0
  0
VERTEX
  5
344
330
341
100
AcDbEntity
  8
LAYER_1
 62
     7
100
AcDbVertex
100
AcDb2dVertex
 10
27.545692
 20
-12.22561
 30
0.0
  0
SEQEND
  5
345
330
341
100
AcDbEntity
  8
LAYER_1
 62
     7
  0
POLYLINE
  5
33C
330
28
100
AcDbEntity
  8
LAYER_1
 62
     7
100
AcDb2dPolyline
 66
     1
 10
0.0
 20
0.0
 30
0.0
 70
     1
  0
VERTEX
  5
33D
330
33C
100
AcDbEntity
  8
LAYER_1
 62
     7
100
AcDbVertex
100
AcDb2dVertex
 10
33.590628
 20
-12.277459
 30
0.0
  0
VERTEX
  5
33E
330
33C
100
AcDbEntity
  8
LAYER_1
 62
     7
100
AcDbVertex
100
AcDb2dVertex
 10
32.205872
 20
-12.648668
 30
0.0
  0
VERTEX
  5
33F
330
33C
100
AcDbEntity
  8
LAYER_1
 62
     7
100
AcDbVertex
100
AcDb2dVertex
 10
33.590801
 20
-13.019705
 30
0.0
  0
SEQEND
  5
340
330
33C
100
AcDbEntity
  8
LAYER_1
 62
     7
  0
POLYLINE
  5
337
330
28
100
AcDbEntity
  8
LAYER_1
 62
     7
100
AcDb2dPolyline
 66
     1
 10
0.0
 20
0.0
 30
0.0
 70
     1
  0
VERTEX
  5
338
330
337
100
AcDbEntity
  8
LAYER_1
 62
     7
100
AcDbVertex
100
AcDb2dVertex
 10
31.44467800000001
 20
-16.80931
 30
0.0
  0
VERTEX
  5
339
330
337
100
AcDbEntity
  8
LAYER_1
 62
     7
100
AcDbVertex
100
AcDb2dVertex
 10
32.98343
 20
-16.396932
 30
0.0
  0
VERTEX
  5
33A
330
337
100
AcDbEntity
  8
LAYER_1
 62
     7
100
AcDbVertex
100
AcDb2dVertex
 10
31.44467800000001
 20
-15.984726
 30
0.0
  0
SEQEND
  5
33B
330
337
100
AcDbEntity
  8
LAYER_1
 62
     7
  0
POLYLINE
  5
332
330
28
100
AcDbEntity
  8
LAYER_1
 62
     7
100
AcDb2dPolyline
 66
     1
 10
0.0
 20
0.0
 30
0.0
 70
     1
  0
VERTEX
  5
333
330
332
100
AcDbEntity
  8
LAYER_1
 62
     7
100
AcDbVertex
100
AcDb2dVertex
 10
29.929698
 20
-15.994717
 30
0.0
  0
VERTEX
  5
334
330
332
100
AcDbEntity
  8
LAYER_1
 62
     7
100
AcDbVertex
100
AcDb2dVertex
 10
28.39094600000001
 20
-16.406923
 30
0.0
  0
VERTEX
  5
335
330
332
100
AcDbEntity
  8
LAYER_1
 62
     7
100
AcDbVertex
100
AcDb2dVertex
 10
29.929698
 20
-16.819301
 30
0.0
  0
SEQEND
  5
336
330
332
100
AcDbEntity
  8
LAYER_1
 62
     7
  0
POLYLINE
  5
32D
330
28
100
AcDbEntity
  8
LAYER_1
 62
     7
100
AcDb2dPolyline
 66
     1
 10
0.0
 20
0.0
 30
0.0
 70
     1
  0
VERTEX
  5
32E
330
32D
100
AcDbEntity
  8
LAYER_1
 62
     7
100
AcDbVertex
100
AcDb2dVertex
 10
26.609487
 20
1.596973999999999
 30
0.0
  0
VERTEX
  5
32F
330
32D
100
AcDbEntity
  8
LAYER_1
 62
     7
100
AcDbVertex
100
AcDb2dVertex
 10
28.148239
 20
2.009352
 30
0.0
  0
VERTEX
  5
330
330
32D
100
AcDbEntity
  8
LAYER_1
 62
     7
100
AcDbVertex
100
AcDb2dVertex
 10
26.609487
 20
2.421729999999999
 30
0.0
  0
SEQEND
  5
331
330
32D
100
AcDbEntity
  8
LAYER_1
 62
     7
  0
POLYLINE
  5
328
330
28
100
AcDbEntity
  8
LAYER_1
 62
     7
100
AcDb2dPolyline
 66
     1
 10
0.0
 20
0.0
 30
0.0
 70
     1
  0
VERTEX
  5
329
330
328
100
AcDbEntity
  8
LAYER_1
 62
     7
100
AcDbVertex
100
AcDb2dVertex
 10
33.028561
 20
2.420868999999999
 30
0.0
  0
VERTEX
  5
32A
330
328
100
AcDbEntity
  8
LAYER_1
 62
     7
100
AcDbVertex
100
AcDb2dVertex
 10
31.489981
 20
2.008663
 30
0.0
  0
VERTEX
  5
32B
330
328
100
AcDbEntity
  8
LAYER_1
 62
     7
100
AcDbVertex
100
AcDb2dVertex
 10
33.028561
 20
1.596284999999999
 30
0.0
  0
SEQEND
  5
32C
330
328
100
AcDbEntity
  8
LAYER_1
 62
     7
  0
POLYLINE
  5
323
330
28
100
AcDbEntity
  8
LAYER_1
 62
     7
100
AcDb2dPolyline
 66
     1
 10
0.0
 20
0.0
 30
0.0
 70
     1
  0
VERTEX
  5
324
330
323
100
AcDbEntity
  8
LAYER_1
 62
     7
100
AcDbVertex
100
AcDb2dVertex
 10
38.272169
 20
4.107070999999998
 30
0.0
  0
VERTEX
  5
325
330
323
100
AcDbEntity
  8
LAYER_1
 62
     7
100
AcDbVertex
100
AcDb2dVertex
 10
37.859791
 20
5.645821999999999
 30
0.0
  0
VERTEX
  5
326
330
323
100
AcDbEntity
  8
LAYER_1
 62
     7
100
AcDbVertex
100
AcDb2dVertex
 10
37.447585
 20
4.107070999999998
 30
0.0
  0
SEQEND
  5
327
330
323
100
AcDbEntity
  8
LAYER_1
 62
     7
  0
POLYLINE
  5
31E
330
28
100
AcDbEntity
  8
LAYER_1
 62
     7
100
AcDb2dPolyline
 66
     1
 10
0.0
 20
0.0
 30
0.0
 70
     1
  0
VERTEX
  5
31F
330
31E
100
AcDbEntity
  8
LAYER_1
 62
     7
100
AcDbVertex
100
AcDb2dVertex
 10
37.45774799999999
 20
-4.725292999999998
 30
0.0
  0
VERTEX
  5
320
330
31E
100
AcDbEntity
  8
LAYER_1
 62
     7
100
AcDbVertex
100
AcDb2dVertex
 10
37.869954
 20
-6.264044999999998
 30
0.0
  0
VERTEX
  5
321
330
31E
100
AcDbEntity
  8
LAYER_1
 62
     7
100
AcDbVertex
100
AcDb2dVertex
 10
38.28233200000001
 20
-4.725292999999998
 30
0.0
  0
SEQEND
  5
322
330
31E
100
AcDbEntity
  8
LAYER_1
 62
     7
  0
POLYLINE
  5
319
330
28
100
AcDbEntity
  8
LAYER_1
 62
     7
100
AcDb2dPolyline
 66
     1
 10
0.0
 20
0.0
 30
0.0
 70
     1
  0
VERTEX
  5
31A
330
319
100
AcDbEntity
  8
LAYER_1
 62
     7
100
AcDbVertex
100
AcDb2dVertex
 10
13.136752
 20
4.107070999999998
 30
0.0
  0
VERTEX
  5
31B
330
319
100
AcDbEntity
  8
LAYER_1
 62
     7
100
AcDbVertex
100
AcDb2dVertex
 10
12.724546
 20
5.645821999999999
 30
0.0
  0
VERTEX
  5
31C
330
319
100
AcDbEntity
  8
LAYER_1
 62
     7
100
AcDbVertex
100
AcDb2dVertex
 10
12.312168
 20
4.107070999999998
 30
0.0
  0
SEQEND
  5
31D
330
319
100
AcDbEntity
  8
LAYER_1
 62
     7
  0
POLYLINE
  5
314
330
28
100
AcDbEntity
  8
LAYER_1
 62
     7
100
AcDb2dPolyline
 66
     1
 10
0.0
 20
0.0
 30
0.0
 70
     1
  0
VERTEX
  5
315
330
314
100
AcDbEntity
  8
LAYER_1
 62
     7
100
AcDbVertex
100
AcDb2dVertex
 10
12.322331
 20
-4.725292999999998
 30
0.0
  0
VERTEX
  5
316
330
314
100
AcDbEntity
  8
LAYER_1
 62
     7
100
AcDbVertex
100
AcDb2dVertex
 10
12.734709
 20
-6.264044999999998
 30
0.0
  0
VERTEX
  5
317
330
314
100
AcDbEntity
  8
LAYER_1
 62
     7
100
AcDbVertex
100
AcDb2dVertex
 10
13.146915
 20
-4.725292999999998
 30
0.0
  0
SEQEND
  5
318
330
314
100
AcDbEntity
  8
LAYER_1
 62
     7
  0
POLYLINE
  5
30F
330
28
100
AcDbEntity
  8
LAYER_1
 62
     7
100
AcDb2dPolyline
 66
     1
 10
0.0
 20
0.0
 30
0.0
 70
     1
  0
VERTEX
  5
310
330
30F
100
AcDbEntity
  8
LAYER_1
 62
     7
100
AcDbVertex
100
AcDb2dVertex
 10
-22.018553
 20
18.645029
 30
0.0
  0
VERTEX
  5
311
330
30F
100
AcDbEntity
  8
LAYER_1
 62
     7
100
AcDbVertex
100
AcDb2dVertex
 10
-23.557305
 20
19.057235
 30
0.0
  0
VERTEX
  5
312
330
30F
100
AcDbEntity
  8
LAYER_1
 62
     7
100
AcDbVertex
100
AcDb2dVertex
 10
-22.018553
 20
19.469613
 30
0.0
  0
SEQEND
  5
313
330
30F
100
AcDbEntity
  8
LAYER_1
 62
     7
  0
POLYLINE
  5
30A
330
28
100
AcDbEntity
  8
LAYER_1
 62
     7
100
AcDb2dPolyline
 66
     1
 10
0.0
 20
0.0
 30
0.0
 70
     1
  0
VERTEX
  5
30B
330
30A
100
AcDbEntity
  8
LAYER_1
 62
     7
100
AcDbVertex
100
AcDb2dVertex
 10
-20.471188
 20
19.45945
 30
0.0
  0
VERTEX
  5
30C
330
30A
100
AcDbEntity
  8
LAYER_1
 62
     7
100
AcDbVertex
100
AcDb2dVertex
 10
-18.932436
 20
19.047244
 30
0.0
  0
VERTEX
  5
30D
330
30A
100
AcDbEntity
  8
LAYER_1
 62
     7
100
AcDbVertex
100
AcDb2dVertex
 10
-20.471188
 20
18.634866
 30
0.0
  0
SEQEND
  5
30E
330
30A
100
AcDbEntity
  8
LAYER_1
 62
     7
  0
POLYLINE
  5
305
330
28
100
AcDbEntity
  8
LAYER_1
 62
     7
100
AcDb2dPolyline
 66
     1
 10
0.0
 20
0.0
 30
0.0
 70
     1
  0
VERTEX
  5
306
330
305
100
AcDbEntity
  8
LAYER_1
 62
     7
100
AcDbVertex
100
AcDb2dVertex
 10
-17.291537
 20
15.077633
 30
0.0
  0
VERTEX
  5
307
330
305
100
AcDbEntity
  8
LAYER_1
 62
     7
100
AcDbVertex
100
AcDb2dVertex
 10
-18.830117
 20
15.489838
 30
0.0
  0
VERTEX
  5
308
330
305
100
AcDbEntity
  8
LAYER_1
 62
     7
100
AcDbVertex
100
AcDb2dVertex
 10
-17.291537
 20
15.902216
 30
0.0
  0
SEQEND
  5
309
330
305
100
AcDbEntity
  8
LAYER_1
 62
     7
  0
POLYLINE
  5
300
330
28
100
AcDbEntity
  8
LAYER_1
 62
     7
100
AcDb2dPolyline
 66
     1
 10
0.0
 20
0.0
 30
0.0
 70
     1
  0
VERTEX
  5
301
330
300
100
AcDbEntity
  8
LAYER_1
 62
     7
100
AcDbVertex
100
AcDb2dVertex
 10
-22.130518
 20
15.901183
 30
0.0
  0
VERTEX
  5
302
330
300
100
AcDbEntity
  8
LAYER_1
 62
     7
100
AcDbVertex
100
AcDb2dVertex
 10
-20.591766
 20
15.488977
 30
0.0
  0
VERTEX
  5
303
330
300
100
AcDbEntity
  8
LAYER_1
 62
     7
100
AcDbVertex
100
AcDb2dVertex
 10
-22.130518
 20
15.076599
 30
0.0
  0
SEQEND
  5
304
330
300
100
AcDbEntity
  8
LAYER_1
 62
     7
  0
POLYLINE
  5
2FB
330
28
100
AcDbEntity
  8
LAYER_1
 62
     7
100
AcDb2dPolyline
 66
     1
 10
0.0
 20
0.0
 30
0.0
 70
     1
  0
VERTEX
  5
2FC
330
2FB
100
AcDbEntity
  8
LAYER_1
 62
     7
100
AcDbVertex
100
AcDb2dVertex
 10
-16.276957
 20
14.807193
 30
0.0
  0
VERTEX
  5
2FD
330
2FB
100
AcDbEntity
  8
LAYER_1
 62
     7
100
AcDbVertex
100
AcDb2dVertex
 10
-15.864751
 20
13.268441
 30
0.0
  0
VERTEX
  5
2FE
330
2FB
100
AcDbEntity
  8
LAYER_1
 62
     7
100
AcDbVertex
100
AcDb2dVertex
 10
-15.452373
 20
14.807193
 30
0.0
  0
SEQEND
  5
2FF
330
2FB
100
AcDbEntity
  8
LAYER_1
 62
     7
  0
POLYLINE
  5
2F6
330
28
100
AcDbEntity
  8
LAYER_1
 62
     7
100
AcDb2dPolyline
 66
     1
 10
0.0
 20
0.0
 30
0.0
 70
     1
  0
VERTEX
  5
2F7
330
2F6
100
AcDbEntity
  8
LAYER_1
 62
     7
100
AcDbVertex
100
AcDb2dVertex
 10
-15.461158
 20
10.417624
 30
0.0
  0
VERTEX
  5
2F8
330
2F6
100
AcDbEntity
  8
LAYER_1
 62
     7
100
AcDbVertex
100
AcDb2dVertex
 10
-15.873364
 20
11.956376
 30
0.0
  0
VERTEX
  5
2F9
330
2F6
100
AcDbEntity
  8
LAYER_1
 62
     7
100
AcDbVertex
100
AcDb2dVertex
 10
-16.285742
 20
10.417624
 30
0.0
  0
SEQEND
  5
2FA
330
2F6
100
AcDbEntity
  8
LAYER_1
 62
     7
  0
POLYLINE
  5
2F1
330
28
100
AcDbEntity
  8
LAYER_1
 62
     7
100
AcDb2dPolyline
 66
     1
 10
0.0
 20
0.0
 30
0.0
 70
     1
  0
VERTEX
  5
2F2
330
2F1
100
AcDbEntity
  8
LAYER_1
 62
     7
100
AcDbVertex
100
AcDb2dVertex
 10
-15.461158
 20
-10.193349
 30
0.0
  0
VERTEX
  5
2F3
330
2F1
100
AcDbEntity
  8
LAYER_1
 62
     7
100
AcDbVertex
100
AcDb2dVertex
 10
-15.873364
 20
-8.654597
 30
0.0
  0
VERTEX
  5
2F4
330
2F1
100
AcDbEntity
  8
LAYER_1
 62
     7
100
AcDbVertex
100
AcDb2dVertex
 10
-16.285742
 20
-10.193349
 30
0.0
  0
SEQEND
  5
2F5
330
2F1
100
AcDbEntity
  8
LAYER_1
 62
     7
  0
POLYLINE
  5
2EC
330
28
100
AcDbEntity
  8
LAYER_1
 62
     7
100
AcDb2dPolyline
 66
     1
 10
0.0
 20
0.0
 30
0.0
 70
     1
  0
VERTEX
  5
2ED
330
2EC
100
AcDbEntity
  8
LAYER_1
 62
     7
100
AcDbVertex
100
AcDb2dVertex
 10
-16.332595
 20
-5.538162999999999
 30
0.0
  0
VERTEX
  5
2EE
330
2EC
100
AcDbEntity
  8
LAYER_1
 62
     7
100
AcDbVertex
100
AcDb2dVertex
 10
-15.920389
 20
-7.076914999999998
 30
0.0
  0
VERTEX
  5
2EF
330
2EC
100
AcDbEntity
  8
LAYER_1
 62
     7
100
AcDbVertex
100
AcDb2dVertex
 10
-15.508011
 20
-5.538162999999999
 30
0.0
  0
SEQEND
  5
2F0
330
2EC
100
AcDbEntity
  8
LAYER_1
 62
     7
  0
MTEXT
  5
2EB
330
28
100
AcDbEntity
  8
LAYER_1
  6
AI9-LTYPE1
 62
     7
100
AcDbMText
 10
7.816088999999998
 20
-0.287149
 30
0.0
 40
1.745515
 41
0.0
 71
     1
 72
     2
  1
\fGill Sans|b0|i0;84 (3.31)
  7
STD
 11
0.0
 21
1.0
 31
0.0
 73
     1
 44
1.0
1001
ACAD
1000
MTEXTBEGIN
1070
    73
1070
     1
1070
    44
1040
1.0
1070
    74
1070
     0
1000
MTEXTEND
  0
MTEXT
  5
2EA
330
28
100
AcDbEntity
  8
LAYER_1
  6
AI9-LTYPE1
 62
     7
100
AcDbMText
 10
14.528743
 20
-12.183006
 30
0.0
 40
1.745515
 41
0.0
 71
     1
 72
     2
  1
\fGill Sans|b0|i0;(0.63)
  7
STD
 73
     1
 44
1.0
1001
ACAD
1000
MTEXTBEGIN
1070
    73
1070
     1
1070
    44
1040
1.0
1070
    74
1070
     0
1000
MTEXTEND
  0
MTEXT
  5
2E9
330
28
100
AcDbEntity
  8
LAYER_1
  6
AI9-LTYPE1
 62
     7
100
AcDbMText
 10
16.129851
 20
-9.837067999999996
 30
0.0
 40
1.745515
 41
0.0
 71
     1
 72
     2
  1
\fGill Sans|b0|i0;16
  7
STD
 73
     1
 44
1.0
1001
ACAD
1000
MTEXTBEGIN
1070
    73
1070
     1
1070
    44
1040
1.0
1070
    74
1070
     0
1000
MTEXTEND
  0
MTEXT
  5
2E8
330
28
100
AcDbEntity
  8
LAYER_1
  6
AI9-LTYPE1
 62
     7
100
AcDbMText
 10
6.187305
 20
-9.557843
 30
0.0
 40
1.745515
 41
0.0
 71
     1
 72
     2
  1
\fGill Sans|b0|i0;6 (0.24)
  7
STD
 73
     1
 44
1.0
1001
ACAD
1000
MTEXTBEGIN
1070
    73
1070
     1
1070
    44
1040
1.0
1070
    74
1070
     0
1000
MTEXTEND
  0
MTEXT
  5
2E7
330
28
100
AcDbEntity
  8
LAYER_1
  6
AI9-LTYPE1
 62
     7
100
AcDbMText
 10
21.853475
 20
-2.577793
 30
0.0
 40
1.745515
 41
0.0
 71
     1
 72
     2
  1
\fGill Sans|b0|i0;54 (2.13)
  7
STD
 11
0.0
 21
1.0
 31
0.0
 73
     1
 44
1.0
1001
ACAD
1000
MTEXTBEGIN
1070
    73
1070
     1
1070
    44
1040
1.0
1070
    74
1070
     0
1000
MTEXTEND
  0
MTEXT
  5
2E6
330
28
100
AcDbEntity
  8
LAYER_1
  6
AI9-LTYPE1
 62
     7
100
AcDbMText
 10
28.053326
 20
-13.197414
 30
0.0
 40
1.745515
 41
0.0
 71
     1
 72
     2
  1
\fGill Sans|b0|i0;(0.43)
  7
STD
 73
     1
 44
1.0
1001
ACAD
1000
MTEXTBEGIN
1070
    73
1070
     1
1070
    44
1040
1.0
1070
    74
1070
     0
1000
MTEXTEND
  0
MTEXT
  5
2E5
330
28
100
AcDbEntity
  8
LAYER_1
  6
AI9-LTYPE1
 62
     7
100
AcDbMText
 10
29.654435
 20
-10.851477
 30
0.0
 40
1.745515
 41
0.0
 71
     1
 72
     2
  1
\fGill Sans|b0|i0;11
  7
STD
 73
     1
 44
1.0
1001
ACAD
1000
MTEXTBEGIN
1070
    73
1070
     1
1070
    44
1040
1.0
1070
    74
1070
     0
1000
MTEXTEND
  0
MTEXT
  5
2E4
330
28
100
AcDbEntity
  8
LAYER_1
  6
AI9-LTYPE1
 62
     7
100
AcDbMText
 10
26.554365
 20
-17.721858
 30
0.0
 40
1.745515
 41
0.0
 71
     1
 72
     2
  1
\fGill Sans|b0|i0;19 (0.75)
  7
STD
 73
     1
 44
1.0
1001
ACAD
1000
MTEXTBEGIN
1070
    73
1070
     1
1070
    44
1040
1.0
1070
    74
1070
     0
1000
MTEXTEND
  0
MTEXT
  5
2E3
330
28
100
AcDbEntity
  8
LAYER_1
  6
AI9-LTYPE1
 62
     7
100
AcDbMText
 10
25.69251700000001
 20
-1.319987999999999
 30
0.0
 40
1.745515
 41
0.0
 71
     1
 72
     2
  1
\fGill Sans|b0|i0;12   (0.47)
  7
STD
 11
0.0
 21
1.0
 31
0.0
 73
     1
 44
1.0
1001
ACAD
1000
MTEXTBEGIN
1070
    73
1070
     1
1070
    44
1040
1.0
1070
    74
1070
     0
1000
MTEXTEND
  0
MTEXT
  5
2E2
330
28
100
AcDbEntity
  8
LAYER_1
  6
AI9-LTYPE1
 62
     7
100
AcDbMText
 10
10.394743
 20
-4.793849999999999
 30
0.0
 40
1.745515
 41
0.0
 71
     1
 72
     2
  1
\fGill Sans|b0|i0;46 (1.81)
  7
STD
 11
0.0
 21
1.0
 31
0.0
 73
     1
 44
1.0
1001
ACAD
1000
MTEXTBEGIN
1070
    73
1070
     1
1070
    44
1040
1.0
1070
    74
1070
     0
1000
MTEXTEND
  0
MTEXT
  5
2E1
330
28
100
AcDbEntity
  8
LAYER_1
  6
AI9-LTYPE1
 62
     7
100
AcDbMText
 10
-47.265763
 20
-8.018057999999998
 30
0.0
 40
1.745515
 41
0.0
 71
     1
 72
     2
  1
\fGill Sans|b0|i0;(0.18)
  7
STD
 73
     1
 44
1.0
1001
ACAD
1000
MTEXTBEGIN
1070
    73
1070
     1
1070
    44
1040
1.0
1070
    74
1070
     0
1000
MTEXTEND
  0
MTEXT
  5
2E0
330
28
100
AcDbEntity
  8
LAYER_1
  6
AI9-LTYPE1
 62
     7
100
AcDbMText
 10
-45.921486
 20
-5.672119999999998
 30
0.0
 40
1.745515
 41
0.0
 71
     1
 72
     2
  1
\fGill Sans|b0|i0;4.5
  7
STD
 73
     1
 44
1.0
1001
ACAD
1000
MTEXTBEGIN
1070
    73
1070
     1
1070
    44
1040
1.0
1070
    74
1070
     0
1000
MTEXTEND
  0
MTEXT
  5
2DF
330
28
100
AcDbEntity
  8
LAYER_1
  6
AI9-LTYPE1
 62
     7
100
AcDbMText
 10
-43.184071
 20
-2.283754
 30
0.0
 40
1.745515
 41
0.0
 71
     1
 72
     2
  1
\fGill Sans|b0|i0;73 (2.87)
  7
STD
 11
0.0
 21
1.0
 31
0.0
 73
     1
 44
1.0
1001
ACAD
1000
MTEXTBEGIN
1070
    73
1070
     1
1070
    44
1040
1.0
1070
    74
1070
     0
1000
MTEXTEND
  0
MTEXT
  5
2DE
330
28
100
AcDbEntity
  8
LAYER_1
  6
AI9-LTYPE1
 62
     7
100
AcDbMText
 10
-27.393993
 20
-4.037651999999998
 30
0.0
 40
1.745515
 41
0.0
 71
     1
 72
     2
  1
\fGill Sans|b0|i0;=
  7
STD
 11
0.0
 21
1.0
 31
0.0
 73
     1
 44
1.0
1001
ACAD
1000
MTEXTBEGIN
1070
    73
1070
     1
1070
    44
1040
1.0
1070
    74
1070
     0
1000
MTEXTEND
  0
MTEXT
  5
2DD
330
28
100
AcDbEntity
  8
LAYER_1
  6
AI9-LTYPE1
 62
     7
100
AcDbMText
 10
-27.428444
 20
6.740328999999999
 30
0.0
 40
1.745515
 41
0.0
 71
     1
 72
     2
  1
\fGill Sans|b0|i0;=
  7
STD
 11
0.0
 21
1.0
 31
0.0
 73
     1
 44
1.0
1001
ACAD
1000
MTEXTBEGIN
1070
    73
1070
     1
1070
    44
1040
1.0
1070
    74
1070
     0
1000
MTEXTEND
  0
MTEXT
  5
2DC
330
28
100
AcDbEntity
  8
LAYER_1
  6
AI9-LTYPE1
 62
     7
100
AcDbMText
 10
-32.250888
 20
-1.811431
 30
0.0
 40
1.745515
 41
0.0
 71
     1
 72
     2
  1
\fGill Sans|b0|i0;82 (3.23)
  7
STD
 11
0.0
 21
1.0
 31
0.0
 73
     1
 44
1.0
1001
ACAD
1000
MTEXTBEGIN
1070
    73
1070
     1
1070
    44
1040
1.0
1070
    74
1070
     0
1000
MTEXTEND
  0
MTEXT
  5
2DB
330
28
100
AcDbEntity
  8
LAYER_1
  6
AI9-LTYPE1
 62
     7
100
AcDbMText
 10
-23.779513
 20
-9.406947999999999
 30
0.0
 40
1.745515
 41
0.0
 71
     1
 72
     2
  1
\fGill Sans|b0|i0;=
  7
STD
 73
     1
 44
1.0
1001
ACAD
1000
MTEXTBEGIN
1070
    73
1070
     1
1070
    44
1040
1.0
1070
    74
1070
     0
1000
MTEXTEND
  0
MTEXT
  5
2DA
330
28
100
AcDbEntity
  8
LAYER_1
  6
AI9-LTYPE1
 62
     7
100
AcDbMText
 10
-21.414283
 20
-9.406947999999999
 30
0.0
 40
1.745515
 41
0.0
 71
     1
 72
     2
  1
\fGill Sans|b0|i0;=
  7
STD
 73
     1
 44
1.0
1001
ACAD
1000
MTEXTBEGIN
1070
    73
1070
     1
1070
    44
1040
1.0
1070
    74
1070
     0
1000
MTEXTEND
  0
LINE
  5
2D9
330
28
100
AcDbEntity
  8
LAYER_1
  6
AI9-LTYPE1
 62
     7
100
AcDbLine
 10
15.084953
 20
11.2286
 30
0.0
 11
16.136569
 21
11.2286
 31
0.0
  0
LINE
  5
2D8
330
28
100
AcDbEntity
  8
LAYER_1
  6
AI9-LTYPE1
 62
     7
100
AcDbLine
 10
16.136569
 20
11.2286
 30
0.0
 11
16.136569
 21
7.811753999999998
 31
0.0
  0
LINE
  5
2D7
330
28
100
AcDbEntity
  8
LAYER_1
  6
AI9-LTYPE1
 62
     7
100
AcDbLine
 10
16.136569
 20
7.811753999999998
 30
0.0
 11
15.084953
 21
7.811753999999998
 31
0.0
  0
LINE
  5
2D6
330
28
100
AcDbEntity
  8
LAYER_1
  6
AI9-LTYPE1
 62
     7
100
AcDbLine
 10
19.29124299999999
 20
10.704428
 30
0.0
 11
16.136569
 21
10.704428
 31
0.0
  0
LINE
  5
2D5
330
28
100
AcDbEntity
  8
LAYER_1
  6
AI9-LTYPE1
 62
     7
100
AcDbLine
 10
19.29124299999999
 20
8.339197999999999
 30
0.0
 11
16.136569
 21
8.339025999999996
 31
0.0
  0
LINE
  5
2D4
330
28
100
AcDbEntity
  8
LAYER_1
  6
AI9-LTYPE1
 62
     7
100
AcDbLine
 10
19.291587
 20
-5.855629
 30
0.0
 11
16.136741
 21
-5.855801
 31
0.0
  0
LINE
  5
2D3
330
28
100
AcDbEntity
  8
LAYER_1
  6
AI9-LTYPE1
 62
     7
100
AcDbLine
 10
19.291415
 20
-3.490398
 30
0.0
 11
16.136741
 21
-3.490398
 31
0.0
  0
LINE
  5
2D2
330
28
100
AcDbEntity
  8
LAYER_1
  6
AI9-LTYPE1
 62
     7
100
AcDbLine
 10
-32.95897
 20
12.542731
 30
0.0
 11
-34.272585
 21
12.542731
 31
0.0
  0
LINE
  5
2D1
330
28
100
AcDbEntity
  8
LAYER_1
  6
AI9-LTYPE1
 62
     7
100
AcDbLine
 10
-32.95897
 20
11.491116
 30
0.0
 11
-34.272585
 21
11.491116
 31
0.0
  0
LINE
  5
2D0
330
28
100
AcDbEntity
  8
LAYER_1
  6
AI9-LTYPE1
 62
     7
100
AcDbLine
 10
-32.959315
 20
-6.644899999999998
 30
0.0
 11
-34.27293000000001
 21
-6.644899999999998
 31
0.0
  0
LINE
  5
2CF
330
28
100
AcDbEntity
  8
LAYER_1
  6
AI9-LTYPE1
 62
     7
100
AcDbLine
 10
-32.959315
 20
-7.696515999999999
 30
0.0
 11
-34.27293000000001
 21
-7.696342999999998
 31
0.0
  0
LINE
  5
2CE
330
28
100
AcDbEntity
  8
LAYER_1
 62
     7
100
AcDbLine
 10
-32.169527
 20
12.01856
 30
0.0
 11
-37.43363200000001
 21
12.01856
 31
0.0
  0
LINE
  5
2CD
330
28
100
AcDbEntity
  8
LAYER_1
 62
     7
100
AcDbLine
 10
-35.982558
 20
12.783027
 30
0.0
 11
-35.98273
 21
11.222915
 31
0.0
  0
LINE
  5
2CC
330
28
100
AcDbEntity
  8
LAYER_1
 62
     7
100
AcDbLine
 10
-35.982558
 20
-6.340869999999998
 30
0.0
 11
-35.98273
 21
-7.900982
 31
0.0
  0
LINE
  5
2CB
330
28
100
AcDbEntity
  8
LAYER_1
 62
     7
100
AcDbLine
 10
-32.169699
 20
-7.172171999999998
 30
0.0
 11
-37.440178
 21
-7.172171999999998
 31
0.0
  0
LINE
  5
2CA
330
28
100
AcDbEntity
  8
LAYER_1
 62
     7
100
AcDbLine
 10
-21.15969
 20
0.05805
 30
0.0
 11
-21.15969
 21
2.030194999999999
 31
0.0
  0
LINE
  5
2C9
330
28
100
AcDbEntity
  8
LAYER_1
 62
     7
100
AcDbLine
 10
-19.073685
 20
2.423452
 30
0.0
 11
-20.766605
 21
2.423452
 31
0.0
  0
LINE
  5
2C8
330
28
100
AcDbEntity
  8
LAYER_1
 62
     7
100
AcDbLine
 10
-21.15969
 20
4.788682999999998
 30
0.0
 11
-21.15969
 21
2.816537999999998
 31
0.0
  0
LINE
  5
2C7
330
28
100
AcDbEntity
  8
LAYER_1
 62
     7
100
AcDbLine
 10
-23.248969
 20
2.423452
 30
0.0
 11
-26.929536
 21
2.423452
 31
0.0
  0
LINE
  5
2C6
330
28
100
AcDbEntity
  8
LAYER_1
  6
AI9-LTYPE1
 62
     7
100
AcDbLine
 10
-20.108419
 20
12.542904
 30
0.0
 11
-18.794632
 21
12.543076
 31
0.0
  0
LINE
  5
2C5
330
28
100
AcDbEntity
  8
LAYER_1
  6
AI9-LTYPE1
 62
     7
100
AcDbLine
 10
-20.108419
 20
11.491461
 30
0.0
 11
-18.794632
 21
11.491461
 31
0.0
  0
LINE
  5
2C4
330
28
100
AcDbEntity
  8
LAYER_1
  6
AI9-LTYPE1
 62
     7
100
AcDbLine
 10
-20.108075
 20
-6.644555999999998
 30
0.0
 11
-18.794288
 21
-6.644555999999998
 31
0.0
  0
LINE
  5
2C3
330
28
100
AcDbEntity
  8
LAYER_1
  6
AI9-LTYPE1
 62
     7
100
AcDbLine
 10
-20.108075
 20
-7.696171
 30
0.0
 11
-18.794288
 21
-7.696171
 31
0.0
  0
LINE
  5
2C1
330
28
100
AcDbEntity
  8
LAYER_1
 62
     7
100
AcDbLine
 10
-23.212795
 20
-7.172
 30
0.0
 11
-18.004844
 21
-7.171827999999998
 31
0.0
  0
LINE
  5
2C0
330
28
100
AcDbEntity
  8
LAYER_1
 62
     7
100
AcDbLine
 10
-21.812364
 20
-6.301251999999998
 30
0.0
 11
-21.812364
 21
-8.020699
 31
0.0
  0
LINE
  5
2BF
330
28
100
AcDbEntity
  8
LAYER_1
 62
     7
100
AcDbLine
 10
-23.212795
 20
12.059557
 30
0.0
 11
-18.563466
 21
12.059557
 31
0.0
  0
LINE
  5
2BE
330
28
100
AcDbEntity
  8
LAYER_1
 62
     7
100
AcDbLine
 10
29.738667
 20
5.708867999999998
 30
0.0
 11
31.055383
 21
5.708867999999998
 31
0.0
  0
LINE
  5
2BD
330
28
100
AcDbEntity
  8
LAYER_1
 62
     7
100
AcDbLine
 10
31.448468
 20
7.418841
 30
0.0
 11
31.448468
 21
6.105053999999999
 31
0.0
  0
LINE
  5
2BC
330
28
100
AcDbEntity
  8
LAYER_1
 62
     7
100
AcDbLine
 10
33.027528
 20
5.708867999999998
 30
0.0
 11
31.841726
 21
5.708867999999998
 31
0.0
  0
LINE
  5
2BB
330
28
100
AcDbEntity
  8
LAYER_1
 62
     7
100
AcDbLine
 10
31.44864
 20
4.001822999999999
 30
0.0
 11
31.448468
 21
5.315609999999998
 31
0.0
  0
LINE
  5
2BA
330
28
100
AcDbEntity
  8
LAYER_1
 62
     7
100
AcDbLine
 10
29.214324
 20
11.574487
 30
0.0
 11
29.214324
 21
7.611594
 31
0.0
  0
LINE
  5
2B9
330
28
100
AcDbEntity
  8
LAYER_1
 62
     7
100
AcDbLine
 10
28.518414
 20
9.521898999999999
 30
0.0
 11
29.988092
 21
9.521898999999999
 31
0.0
  0
LINE
  5
2B8
330
28
100
AcDbEntity
  8
LAYER_1
 62
     7
100
AcDbLine
 10
32.10717000000001
 20
-2.598119
 30
0.0
 11
32.10717000000001
 21
-6.24458
 31
0.0
  0
LINE
  5
2B7
330
28
100
AcDbEntity
  8
LAYER_1
 62
     7
100
AcDbLine
 10
31.364408
 20
-4.672927999999998
 30
0.0
 11
32.82788400000001
 21
-4.672927999999998
 31
0.0
  0
LINE
  5
2B6
330
28
100
AcDbEntity
  8
LAYER_1
 62
     7
100
AcDbLine
 10
-21.812364
 20
12.930132
 30
0.0
 11
-21.812364
 21
11.210685
 31
0.0
  0
LINE
  5
2B5
330
28
100
AcDbEntity
  8
LAYER_1
 62
     7
100
AcDbLine
 10
15.104246
 20
5.708867999999998
 30
0.0
 11
16.25353
 21
5.708867999999998
 31
0.0
  0
LINE
  5
2B4
330
28
100
AcDbEntity
  8
LAYER_1
 62
     7
100
AcDbLine
 10
16.646615
 20
7.418841
 30
0.0
 11
16.646615
 21
6.105053999999999
 31
0.0
  0
LINE
  5
2B3
330
28
100
AcDbEntity
  8
LAYER_1
 62
     7
100
AcDbLine
 10
18.225503
 20
5.708867999999998
 30
0.0
 11
17.039873
 21
5.708867999999998
 31
0.0
  0
LINE
  5
2B2
330
28
100
AcDbEntity
  8
LAYER_1
 62
     7
100
AcDbLine
 10
16.646615
 20
4.001822999999999
 30
0.0
 11
16.646615
 21
5.315609999999998
 31
0.0
  0
LINE
  5
2B1
330
28
100
AcDbEntity
  8
LAYER_1
 62
     7
100
AcDbLine
 10
14.645187
 20
-6.383244999999998
 30
0.0
 11
9.639119
 21
-6.383244999999998
 31
0.0
  0
LINE
  5
2B0
330
28
100
AcDbEntity
  8
LAYER_1
 62
     7
100
AcDbLine
 10
10.041678
 20
-5.744524
 30
0.0
 11
10.041334
 21
15.242308
 31
0.0
  0
LINE
  5
2AF
330
28
100
AcDbEntity
  8
LAYER_1
 62
     7
100
AcDbLine
 10
9.638773999999999
 20
15.759245
 30
0.0
 11
14.64467
 21
15.759245
 31
0.0
  0
LINE
  5
2AE
330
28
100
AcDbEntity
  8
LAYER_1
 62
     7
100
AcDbLine
 10
15.085298
 20
-6.94893
 30
0.0
 11
15.085298
 21
-12.572359
 31
0.0
  0
LINE
  5
2AD
330
28
100
AcDbEntity
  8
LAYER_1
 62
     7
100
AcDbLine
 10
15.663041
 20
-12.1698
 30
0.0
 11
18.531255
 21
-12.1698
 31
0.0
  0
LINE
  5
2AC
330
28
100
AcDbEntity
  8
LAYER_1
 62
     7
100
AcDbLine
 10
19.291587
 20
-12.572187
 30
0.0
 11
19.291587
 21
-6.94893
 31
0.0
  0
LINE
  5
2AB
330
28
100
AcDbEntity
  8
LAYER_1
 62
     7
100
AcDbLine
 10
-37.708207
 20
14.549155
 30
0.0
 11
-37.708379
 21
19.45411
 31
0.0
  0
LINE
  5
2AA
330
28
100
AcDbEntity
  8
LAYER_1
 62
     7
100
AcDbLine
 10
-36.978535
 20
19.05155
 30
0.0
 11
-33.75340900000001
 21
19.051723
 31
0.0
  0
LINE
  5
2A9
330
28
100
AcDbEntity
  8
LAYER_1
 62
     7
100
AcDbLine
 10
-32.977746
 20
19.45411
 30
0.0
 11
-32.977746
 21
14.549327
 31
0.0
  0
LINE
  5
2A8
330
28
100
AcDbEntity
  8
LAYER_1
 62
     7
100
AcDbLine
 10
-36.025105
 20
13.780037
 30
0.0
 11
-36.025105
 21
16.002813
 31
0.0
  0
LINE
  5
2A7
330
28
100
AcDbEntity
  8
LAYER_1
 62
     7
100
AcDbLine
 10
-40.613456
 20
12.01856
 30
0.0
 11
-40.613456
 21
13.201261
 31
0.0
  0
LINE
  5
2A6
330
28
100
AcDbEntity
  8
LAYER_1
 62
     7
100
AcDbLine
 10
-40.613456
 20
14.04531
 30
0.0
 11
-40.613456
 21
18.611267
 31
0.0
  0
LINE
  5
2A5
330
28
100
AcDbEntity
  8
LAYER_1
 62
     7
100
AcDbLine
 10
-38.08492800000001
 20
13.201261
 30
0.0
 11
-41.086467
 21
13.201261
 31
0.0
  0
LINE
  5
2A4
330
28
100
AcDbEntity
  8
LAYER_1
 62
     7
100
AcDbLine
 10
-37.678923
 20
-7.172
 30
0.0
 11
-40.992588
 21
-7.172
 31
0.0
  0
LINE
  5
2A3
330
28
100
AcDbEntity
  8
LAYER_1
 62
     7
100
AcDbLine
 10
-37.678923
 20
-8.400864999999999
 30
0.0
 11
-40.992588
 21
-8.400864999999999
 31
0.0
  0
LINE
  5
2A2
330
28
100
AcDbEntity
  8
LAYER_1
 62
     7
100
AcDbLine
 10
-40.613111
 20
-12.388047
 30
0.0
 11
-40.613456
 21
11.357102
 31
0.0
  0
LINE
  5
2A1
330
28
100
AcDbEntity
  8
LAYER_1
 62
     7
100
AcDbLine
 10
-40.992933
 20
12.01856
 30
0.0
 11
-37.888385
 21
12.01856
 31
0.0
  0
LINE
  5
2A0
330
28
100
AcDbEntity
  8
LAYER_1
 62
     7
100
AcDbLine
 10
-38.338142
 20
15.537381
 30
0.0
 11
-31.828118
 21
15.537381
 31
0.0
  0
LINE
  5
29F
330
28
100
AcDbEntity
  8
LAYER_1
 62
     7
100
AcDbLine
 10
-23.827572
 20
-8.354700999999996
 30
0.0
 11
-25.727887
 21
-8.354700999999996
 31
0.0
  0
LINE
  5
29E
330
28
100
AcDbEntity
  8
LAYER_1
 62
     7
100
AcDbLine
 10
-25.325328
 20
-7.761455999999999
 30
0.0
 11
-25.3255
 21
1.830206999999998
 31
0.0
  0
LINE
  5
29D
330
28
100
AcDbEntity
  8
LAYER_1
 62
     7
100
AcDbLine
 10
-25.728059
 20
2.42328
 30
0.0
 11
-23.852721
 21
2.42328
 31
0.0
  0
LINE
  5
29C
330
28
100
AcDbEntity
  8
LAYER_1
 62
     7
100
AcDbLine
 10
-25.359951
 20
3.267329
 30
0.0
 11
-25.360123
 21
12.585451
 31
0.0
  0
LINE
  5
29B
330
28
100
AcDbEntity
  8
LAYER_1
 62
     7
100
AcDbLine
 10
-25.76251
 20
13.201261
 30
0.0
 11
-24.09939
 21
13.201261
 31
0.0
  0
LINE
  5
29A
330
28
100
AcDbEntity
  8
LAYER_1
 62
     7
100
AcDbLine
 10
-32.656318
 20
-8.354528999999999
 30
0.0
 11
-29.66787
 21
-8.354528999999999
 31
0.0
  0
LINE
  5
299
330
28
100
AcDbEntity
  8
LAYER_1
 62
     7
100
AcDbLine
 10
-30.07043
 20
-7.715807999999999
 30
0.0
 11
-30.070947
 21
12.63127
 31
0.0
  0
LINE
  5
298
330
28
100
AcDbEntity
  8
LAYER_1
 62
     7
100
AcDbLine
 10
-29.668215
 20
13.201434
 30
0.0
 11
-32.648912
 21
13.201434
 31
0.0
  0
LINE
  5
297
330
28
100
AcDbEntity
  8
LAYER_1
 62
     7
100
AcDbLine
 10
-23.528366
 20
-12.164632
 30
0.0
 11
-23.528366
 21
-8.868708999999997
 31
0.0
  0
LINE
  5
296
330
28
100
AcDbEntity
  8
LAYER_1
 62
     7
100
AcDbLine
 10
-22.935293
 20
-11.617206
 30
0.0
 11
-19.537912
 21
-11.617206
 31
0.0
  0
LINE
  5
295
330
28
100
AcDbEntity
  8
LAYER_1
 62
     7
100
AcDbLine
 10
-21.160035
 20
-0.54622
 30
0.0
 11
-21.159863
 21
-12.365826
 31
0.0
  0
LINE
  5
294
330
28
100
AcDbEntity
  8
LAYER_1
 62
     7
100
AcDbLine
 10
-18.794632
 20
-8.868708999999997
 30
0.0
 11
-18.794632
 21
-12.16446
 31
0.0
  0
LINE
  5
293
330
28
100
AcDbEntity
  8
LAYER_1
 62
     7
100
AcDbLine
 10
29.214324
 20
7.209724
 30
0.0
 11
29.214324
 21
4.664658999999998
 31
0.0
  0
LINE
  5
292
330
28
100
AcDbEntity
  8
LAYER_1
 62
     7
100
AcDbLine
 10
24.367419
 20
-4.186308
 30
0.0
 11
24.367247
 21
8.974474
 31
0.0
  0
LINE
  5
291
330
28
100
AcDbEntity
  8
LAYER_1
 62
     7
100
AcDbLine
 10
23.964687
 20
9.521898999999999
 30
0.0
 11
27.85213300000001
 21
9.521898999999999
 31
0.0
  0
LINE
  5
290
330
28
100
AcDbEntity
  8
LAYER_1
 62
     7
100
AcDbLine
 10
28.019392
 20
-6.382901
 30
0.0
 11
23.965032
 21
-6.382901
 31
0.0
  0
LINE
  5
28F
330
28
100
AcDbEntity
  8
LAYER_1
 62
     7
100
AcDbLine
 10
24.367591
 20
-10.25226
 30
0.0
 11
24.367591
 21
-6.960814999999998
 31
0.0
  0
LINE
  5
28E
330
28
100
AcDbEntity
  8
LAYER_1
 62
     7
100
AcDbLine
 10
24.367591
 20
-6.382901
 30
0.0
 11
24.367419
 21
-4.672927999999998
 31
0.0
  0
LINE
  5
28D
330
28
100
AcDbEntity
  8
LAYER_1
 62
     7
100
AcDbLine
 10
28.771457
 20
-4.672927999999998
 30
0.0
 11
24.10852
 21
-4.672927999999998
 31
0.0
  0
LINE
  5
28C
330
28
100
AcDbEntity
  8
LAYER_1
 62
     7
100
AcDbLine
 10
29.214496
 20
0.5849770000000003
 30
0.0
 11
29.214496
 21
-12.919453
 31
0.0
  0
LINE
  5
28B
330
28
100
AcDbEntity
  8
LAYER_1
 62
     7
100
AcDbLine
 10
29.265311
 20
-12.618179
 30
0.0
 11
32.021043
 21
-12.618179
 31
0.0
  0
LINE
  5
28A
330
28
100
AcDbEntity
  8
LAYER_1
 62
     7
100
AcDbLine
 10
32.10717000000001
 20
-12.91928
 30
0.0
 11
32.10717000000001
 21
-6.835414
 31
0.0
  0
LINE
  5
289
330
28
100
AcDbEntity
  8
LAYER_1
 62
     7
100
AcDbLine
 10
25.460548
 20
-9.348611
 30
0.0
 11
36.125357
 21
-9.348611
 31
0.0
  0
LINE
  5
288
330
28
100
AcDbEntity
  8
LAYER_1
 62
     7
100
AcDbLine
 10
26.317171
 20
-12.643673
 30
0.0
 11
28.435904
 21
-12.643673
 31
0.0
  0
LINE
  5
287
330
28
100
AcDbEntity
  8
LAYER_1
 62
     7
100
AcDbLine
 10
32.789471
 20
-12.6435
 30
0.0
 11
35.025683
 21
-12.6435
 31
0.0
  0
LINE
  5
286
330
28
100
AcDbEntity
  8
LAYER_1
 62
     7
100
AcDbLine
 10
28.293966
 20
-6.725171
 30
0.0
 11
28.294139
 21
-17.008092
 31
0.0
  0
LINE
  5
285
330
28
100
AcDbEntity
  8
LAYER_1
 62
     7
100
AcDbLine
 10
28.872053
 20
-16.402789
 30
0.0
 11
32.267367
 21
-16.402616
 31
0.0
  0
LINE
  5
284
330
28
100
AcDbEntity
  8
LAYER_1
 62
     7
100
AcDbLine
 10
33.02770000000001
 20
-17.00792
 30
0.0
 11
33.02770000000001
 21
-6.725171
 31
0.0
  0
LINE
  5
283
330
28
100
AcDbEntity
  8
LAYER_1
 62
     7
100
AcDbLine
 10
28.405415
 20
2.005046
 30
0.0
 11
31.468966
 21
2.005046
 31
0.0
  0
LINE
  5
282
330
28
100
AcDbEntity
  8
LAYER_1
 62
     7
100
AcDbLine
 10
25.029911
 20
2.005046
 30
0.0
 11
27.870047
 21
2.005046
 31
0.0
  0
LINE
  5
281
330
28
100
AcDbEntity
  8
LAYER_1
 62
     7
100
AcDbLine
 10
34.551638
 20
2.013658
 30
0.0
 11
31.767312
 21
2.013658
 31
0.0
  0
LINE
  5
280
330
28
100
AcDbEntity
  8
LAYER_1
 62
     7
100
AcDbLine
 10
31.44864
 20
0.8878009999999999
 30
0.0
 11
31.448468
 21
3.426491999999998
 31
0.0
  0
LINE
  5
27F
330
28
100
AcDbEntity
  8
LAYER_1
 62
     7
100
AcDbLine
 10
33.725332
 20
-6.382901
 30
0.0
 11
38.266829
 21
-6.382728
 31
0.0
  0
LINE
  5
27E
330
28
100
AcDbEntity
  8
LAYER_1
 62
     7
100
AcDbLine
 10
37.864442
 20
-5.683201999999998
 30
0.0
 11
37.864097
 21
5.131124999999999
 31
0.0
  0
LINE
  5
27D
330
28
100
AcDbEntity
  8
LAYER_1
 62
     7
100
AcDbLine
 10
38.266829
 20
5.708867999999998
 30
0.0
 11
33.72515900000002
 21
5.708867999999998
 31
0.0
  0
POLYLINE
  5
278
330
28
100
AcDbEntity
  8
LAYER_1
 62
     7
100
AcDb2dPolyline
 66
     1
 10
0.0
 20
0.0
 30
0.0
 70
     1
  0
VERTEX
  5
279
330
278
100
AcDbEntity
  8
LAYER_1
 62
     7
100
AcDbVertex
100
AcDb2dVertex
 10
38.272169
 20
18.406456
 30
0.0
  0
VERTEX
  5
27A
330
278
100
AcDbEntity
  8
LAYER_1
 62
     7
100
AcDbVertex
100
AcDb2dVertex
 10
37.859791
 20
19.945208
 30
0.0
  0
VERTEX
  5
27B
330
278
100
AcDbEntity
  8
LAYER_1
 62
     7
100
AcDbVertex
100
AcDb2dVertex
 10
37.447585
 20
18.406456
 30
0.0
  0
SEQEND
  5
27C
330
278
100
AcDbEntity
  8
LAYER_1
 62
     7
  0
POLYLINE
  5
273
330
28
100
AcDbEntity
  8
LAYER_1
 62
     7
100
AcDb2dPolyline
 66
     1
 10
0.0
 20
0.0
 30
0.0
 70
     1
  0
VERTEX
  5
274
330
273
100
AcDbEntity
  8
LAYER_1
 62
     7
100
AcDbVertex
100
AcDb2dVertex
 10
37.45774799999999
 20
17.505391
 30
0.0
  0
VERTEX
  5
275
330
273
100
AcDbEntity
  8
LAYER_1
 62
     7
100
AcDbVertex
100
AcDb2dVertex
 10
37.869954
 20
15.96664
 30
0.0
  0
VERTEX
  5
276
330
273
100
AcDbEntity
  8
LAYER_1
 62
     7
100
AcDbVertex
100
AcDb2dVertex
 10
38.28233200000001
 20
17.505391
 30
0.0
  0
SEQEND
  5
277
330
273
100
AcDbEntity
  8
LAYER_1
 62
     7
  0
LINE
  5
272
330
28
100
AcDbEntity
  8
LAYER_1
 62
     7
100
AcDbLine
 10
33.725332
 20
15.847956
 30
0.0
 11
38.266829
 21
15.847956
 31
0.0
  0
LINE
  5
271
330
28
100
AcDbEntity
  8
LAYER_1
 62
     7
100
AcDbLine
 10
37.864442
 20
16.547483
 30
0.0
 11
37.864097
 21
19.430339
 31
0.0
  0
LINE
  5
270
330
28
100
AcDbEntity
  8
LAYER_1
 62
     7
100
AcDbLine
 10
38.266829
 20
20.008081
 30
0.0
 11
32.691803
 21
20.008081
 31
0.0
  0
LINE
  5
26F
330
28
100
AcDbEntity
  8
LAYER_1
 62
     7
100
AcDbLine
 10
11.473804
 20
-9.209429
 30
0.0
 11
14.342019
 21
-9.209429
 31
0.0
  0
LINE
  5
26E
330
28
100
AcDbEntity
  8
LAYER_1
 62
     7
100
AcDbLine
 10
17.282924
 20
-9.209429
 30
0.0
 11
18.978084
 21
-9.209429
 31
0.0
  0
LINE
  5
26D
330
28
100
AcDbEntity
  8
LAYER_1
 62
     7
100
AcDbLine
 10
12.729025
 20
-5.683201999999998
 30
0.0
 11
12.728853
 21
5.131124999999999
 31
0.0
  0
LINE
  5
26C
330
28
100
AcDbEntity
  8
LAYER_1
 62
     7
100
AcDbLine
 10
14.583692
 20
5.708867999999998
 30
0.0
 11
11.997114
 21
5.708867999999998
 31
0.0
  0
LINE
  5
26B
330
28
100
AcDbEntity
  8
LAYER_1
 62
     7
100
AcDbLine
 10
-18.827361
 20
14.549155
 30
0.0
 11
-18.827188
 21
19.45411
 31
0.0
  0
LINE
  5
26A
330
28
100
AcDbEntity
  8
LAYER_1
 62
     7
100
AcDbLine
 10
-19.557032
 20
19.05155
 30
0.0
 11
-22.782158
 21
19.051723
 31
0.0
  0
LINE
  5
269
330
28
100
AcDbEntity
  8
LAYER_1
 62
     7
100
AcDbLine
 10
-23.557821
 20
19.45411
 30
0.0
 11
-23.557821
 21
14.549327
 31
0.0
  0
LINE
  5
268
330
28
100
AcDbEntity
  8
LAYER_1
 62
     7
100
AcDbLine
 10
-20.51029
 20
13.780037
 30
0.0
 11
-20.51029
 21
16.002813
 31
0.0
  0
LINE
  5
267
330
28
100
AcDbEntity
  8
LAYER_1
 62
     7
100
AcDbLine
 10
-18.615487
 20
15.425587
 30
0.0
 11
-25.12534
 21
15.425587
 31
0.0
  0
LINE
  5
266
330
28
100
AcDbEntity
  8
LAYER_1
 62
     7
100
AcDbLine
 10
-15.869057
 20
14.04531
 30
0.0
 11
-15.869229
 21
18.611267
 31
0.0
  0
LINE
  5
265
330
28
100
AcDbEntity
  8
LAYER_1
 62
     7
100
AcDbLine
 10
-18.479406
 20
13.201261
 30
0.0
 11
-15.448411
 21
13.201261
 31
0.0
  0
LINE
  5
264
330
28
100
AcDbEntity
  8
LAYER_1
 62
     7
100
AcDbLine
 10
-18.52023
 20
-7.172
 30
0.0
 11
-15.466153
 21
-7.172
 31
0.0
  0
LINE
  5
263
330
28
100
AcDbEntity
  8
LAYER_1
 62
     7
100
AcDbLine
 10
-18.52023
 20
-8.400864999999999
 30
0.0
 11
-15.466153
 21
-8.400864999999999
 31
0.0
  0
LINE
  5
262
330
28
100
AcDbEntity
  8
LAYER_1
 62
     7
100
AcDbLine
 10
-15.868885
 20
-12.388047
 30
0.0
 11
-15.869057
 21
11.357102
 31
0.0
  0
LINE
  5
261
330
28
100
AcDbEntity
  8
LAYER_1
 62
     7
100
AcDbLine
 10
-15.466498
 20
12.01856
 30
0.0
 11
-18.338674
 21
12.01856
 31
0.0
  0
LINE
  5
260
330
28
100
AcDbEntity
  8
LAYER_1
 62
     7
100
AcDbLine
 10
-15.869057
 20
12.01856
 30
0.0
 11
-15.869057
 21
13.201261
 31
0.0
  0
LINE
  5
25F
330
28
100
AcDbEntity
  8
LAYER_1
 62
     7
100
AcDbLine
 10
16.646788
 20
-9.669176999999999
 30
0.0
 11
16.646615
 21
3.426491999999998
 31
0.0
  0
LINE
  5
25E
330
28
100
AcDbEntity
  8
LAYER_1
 62
     7
100
AcDbLine
 10
18.763799
 20
15.759417
 30
0.0
 11
15.612225
 21
15.759417
 31
0.0
  0
LINE
  5
25D
330
28
100
AcDbEntity
  8
LAYER_1
 62
     7
100
AcDbLine
 10
15.612225
 20
15.759417
 30
0.0
 11
15.346953
 21
15.759417
 31
0.0
  0
POLYLINE
  5
254
330
28
100
AcDbEntity
  8
LAYER_1
 62
     7
100
AcDb2dPolyline
 66
     1
 10
0.0
 20
0.0
 30
0.0
  0
VERTEX
  5
255
330
254
100
AcDbEntity
  8
LAYER_1
 62
     7
100
AcDbVertex
100
AcDb2dVertex
 10
15.346953
 20
15.759417
 30
0.0
  0
VERTEX
  5
256
330
254
100
AcDbEntity
  8
LAYER_1
 62
     7
100
AcDbVertex
100
AcDb2dVertex
 10
15.281496
 20
15.749943
 30
0.0
  0
VERTEX
  5
257
330
254
100
AcDbEntity
  8
LAYER_1
 62
     7
100
AcDbVertex
100
AcDb2dVertex
 10
15.215867
 20
15.724966
 30
0.0
  0
VERTEX
  5
258
330
254
100
AcDbEntity
  8
LAYER_1
 62
     7
100
AcDbVertex
100
AcDb2dVertex
 10
15.162985
 20
15.681386
 30
0.0
  0
VERTEX
  5
259
330
254
100
AcDbEntity
  8
LAYER_1
 62
     7
100
AcDbVertex
100
AcDb2dVertex
 10
15.119232
 20
15.628331
 30
0.0
  0
VERTEX
  5
25A
330
254
100
AcDbEntity
  8
LAYER_1
 62
     7
100
AcDbVertex
100
AcDb2dVertex
 10
15.094255
 20
15.562702
 30
0.0
  0
VERTEX
  5
25B
330
254
100
AcDbEntity
  8
LAYER_1
 62
     7
100
AcDbVertex
100
AcDb2dVertex
 10
15.084953
 20
15.497245
 30
0.0
  0
SEQEND
  5
25C
330
254
100
AcDbEntity
  8
LAYER_1
 62
     7
  0
LINE
  5
253
330
28
100
AcDbEntity
  8
LAYER_1
 62
     7
100
AcDbLine
 10
15.084953
 20
15.497245
 30
0.0
 11
15.085126
 21
-6.121072999999999
 31
0.0
  0
LINE
  5
252
330
28
100
AcDbEntity
  8
LAYER_1
 62
     7
100
AcDbLine
 10
19.029071
 20
15.759417
 30
0.0
 11
18.763799
 21
15.759417
 31
0.0
  0
POLYLINE
  5
249
330
28
100
AcDbEntity
  8
LAYER_1
 62
     7
100
AcDb2dPolyline
 66
     1
 10
0.0
 20
0.0
 30
0.0
  0
VERTEX
  5
24A
330
249
100
AcDbEntity
  8
LAYER_1
 62
     7
100
AcDbVertex
100
AcDb2dVertex
 10
19.29124299999999
 20
15.497245
 30
0.0
  0
VERTEX
  5
24B
330
249
100
AcDbEntity
  8
LAYER_1
 62
     7
100
AcDbVertex
100
AcDb2dVertex
 10
19.281769
 20
15.562702
 30
0.0
  0
VERTEX
  5
24C
330
249
100
AcDbEntity
  8
LAYER_1
 62
     7
100
AcDbVertex
100
AcDb2dVertex
 10
19.256964
 20
15.628331
 30
0.0
  0
VERTEX
  5
24D
330
249
100
AcDbEntity
  8
LAYER_1
 62
     7
100
AcDbVertex
100
AcDb2dVertex
 10
19.213211
 20
15.681386
 30
0.0
  0
VERTEX
  5
24E
330
249
100
AcDbEntity
  8
LAYER_1
 62
     7
100
AcDbVertex
100
AcDb2dVertex
 10
19.160157
 20
15.725138
 30
0.0
  0
VERTEX
  5
24F
330
249
100
AcDbEntity
  8
LAYER_1
 62
     7
100
AcDbVertex
100
AcDb2dVertex
 10
19.097801
 20
15.750115
 30
0.0
  0
VERTEX
  5
250
330
249
100
AcDbEntity
  8
LAYER_1
 62
     7
100
AcDbVertex
100
AcDb2dVertex
 10
19.029071
 20
15.759417
 30
0.0
  0
SEQEND
  5
251
330
249
100
AcDbEntity
  8
LAYER_1
 62
     7
  0
LINE
  5
248
330
28
100
AcDbEntity
  8
LAYER_1
 62
     7
100
AcDbLine
 10
19.291587
 20
-6.120900999999999
 30
0.0
 11
19.29124299999999
 21
15.497245
 31
0.0
  0
LINE
  5
247
330
28
100
AcDbEntity
  8
LAYER_1
 62
     7
100
AcDbLine
 10
16.136741
 20
-2.966226999999998
 30
0.0
 11
15.085126
 21
-2.966226999999998
 31
0.0
  0
LINE
  5
246
330
28
100
AcDbEntity
  8
LAYER_1
 62
     7
100
AcDbLine
 10
16.136741
 20
-6.383073
 30
0.0
 11
16.136741
 21
-2.966226999999998
 31
0.0
  0
POLYLINE
  5
23D
330
28
100
AcDbEntity
  8
LAYER_1
 62
     7
100
AcDb2dPolyline
 66
     1
 10
0.0
 20
0.0
 30
0.0
  0
VERTEX
  5
23E
330
23D
100
AcDbEntity
  8
LAYER_1
 62
     7
100
AcDbVertex
100
AcDb2dVertex
 10
15.085126
 20
-6.121072999999999
 30
0.0
  0
VERTEX
  5
23F
330
23D
100
AcDbEntity
  8
LAYER_1
 62
     7
100
AcDbVertex
100
AcDb2dVertex
 10
15.0946
 20
-6.18653
 30
0.0
  0
VERTEX
  5
240
330
23D
100
AcDbEntity
  8
LAYER_1
 62
     7
100
AcDbVertex
100
AcDb2dVertex
 10
15.119577
 20
-6.251987
 30
0.0
  0
VERTEX
  5
241
330
23D
100
AcDbEntity
  8
LAYER_1
 62
     7
100
AcDbVertex
100
AcDb2dVertex
 10
15.163157
 20
-6.305042
 30
0.0
  0
VERTEX
  5
242
330
23D
100
AcDbEntity
  8
LAYER_1
 62
     7
100
AcDbVertex
100
AcDb2dVertex
 10
15.216212
 20
-6.345693999999999
 30
0.0
  0
VERTEX
  5
243
330
23D
100
AcDbEntity
  8
LAYER_1
 62
     7
100
AcDbVertex
100
AcDb2dVertex
 10
15.281841
 20
-6.373770999999998
 30
0.0
  0
VERTEX
  5
244
330
23D
100
AcDbEntity
  8
LAYER_1
 62
     7
100
AcDbVertex
100
AcDb2dVertex
 10
15.347297
 20
-6.383073
 30
0.0
  0
SEQEND
  5
245
330
23D
100
AcDbEntity
  8
LAYER_1
 62
     7
  0
LINE
  5
23C
330
28
100
AcDbEntity
  8
LAYER_1
 62
     7
100
AcDbLine
 10
15.347297
 20
-6.383073
 30
0.0
 11
19.029416
 21
-6.383073
 31
0.0
  0
POLYLINE
  5
233
330
28
100
AcDbEntity
  8
LAYER_1
 62
     7
100
AcDb2dPolyline
 66
     1
 10
0.0
 20
0.0
 30
0.0
  0
VERTEX
  5
234
330
233
100
AcDbEntity
  8
LAYER_1
 62
     7
100
AcDbVertex
100
AcDb2dVertex
 10
19.029416
 20
-6.383073
 30
0.0
  0
VERTEX
  5
235
330
233
100
AcDbEntity
  8
LAYER_1
 62
     7
100
AcDbVertex
100
AcDb2dVertex
 10
19.097973
 20
-6.373770999999998
 30
0.0
  0
VERTEX
  5
236
330
233
100
AcDbEntity
  8
LAYER_1
 62
     7
100
AcDbVertex
100
AcDb2dVertex
 10
19.160501
 20
-6.345520999999998
 30
0.0
  0
VERTEX
  5
237
330
233
100
AcDbEntity
  8
LAYER_1
 62
     7
100
AcDbVertex
100
AcDb2dVertex
 10
19.213556
 20
-6.305042
 30
0.0
  0
VERTEX
  5
238
330
233
100
AcDbEntity
  8
LAYER_1
 62
     7
100
AcDbVertex
100
AcDb2dVertex
 10
19.257136
 20
-6.251987
 30
0.0
  0
VERTEX
  5
239
330
233
100
AcDbEntity
  8
LAYER_1
 62
     7
100
AcDbVertex
100
AcDb2dVertex
 10
19.282113
 20
-6.18653
 30
0.0
  0
VERTEX
  5
23A
330
233
100
AcDbEntity
  8
LAYER_1
 62
     7
100
AcDbVertex
100
AcDb2dVertex
 10
19.291587
 20
-6.120900999999999
 30
0.0
  0
SEQEND
  5
23B
330
233
100
AcDbEntity
  8
LAYER_1
 62
     7
  0
POLYLINE
  5
22D
330
28
100
AcDbEntity
  8
LAYER_1
 62
     7
100
AcDb2dPolyline
 66
     1
 10
0.0
 20
0.0
 30
0.0
 70
     1
  0
VERTEX
  5
22E
330
22D
100
AcDbEntity
  8
LAYER_1
 62
     7
100
AcDbVertex
100
AcDb2dVertex
 10
-37.182657
 20
11.491116
 30
0.0
  0
VERTEX
  5
22F
330
22D
100
AcDbEntity
  8
LAYER_1
 62
     7
100
AcDbVertex
100
AcDb2dVertex
 10
-34.737845
 20
11.491116
 30
0.0
  0
VERTEX
  5
230
330
22D
100
AcDbEntity
  8
LAYER_1
 62
     7
100
AcDbVertex
100
AcDb2dVertex
 10
-34.737673
 20
12.542731
 30
0.0
  0
VERTEX
  5
231
330
22D
100
AcDbEntity
  8
LAYER_1
 62
     7
100
AcDbVertex
100
AcDb2dVertex
 10
-37.182657
 20
12.542731
 30
0.0
  0
SEQEND
  5
232
330
22D
100
AcDbEntity
  8
LAYER_1
 62
     7
  0
LINE
  5
22C
330
28
100
AcDbEntity
  8
LAYER_1
 62
     7
100
AcDbLine
 10
-34.272585
 20
12.93909
 30
0.0
 11
-34.272757
 21
11.098031
 31
0.0
  0
POLYLINE
  5
223
330
28
100
AcDbEntity
  8
LAYER_1
 62
     7
100
AcDb2dPolyline
 66
     1
 10
0.0
 20
0.0
 30
0.0
  0
VERTEX
  5
224
330
223
100
AcDbEntity
  8
LAYER_1
 62
     7
100
AcDbVertex
100
AcDb2dVertex
 10
-34.272585
 20
12.93909
 30
0.0
  0
VERTEX
  5
225
330
223
100
AcDbEntity
  8
LAYER_1
 62
     7
100
AcDbVertex
100
AcDb2dVertex
 10
-34.263283
 20
13.004546
 30
0.0
  0
VERTEX
  5
226
330
223
100
AcDbEntity
  8
LAYER_1
 62
     7
100
AcDbVertex
100
AcDb2dVertex
 10
-34.238306
 20
13.070176
 30
0.0
  0
VERTEX
  5
227
330
223
100
AcDbEntity
  8
LAYER_1
 62
     7
100
AcDbVertex
100
AcDb2dVertex
 10
-34.19472600000001
 20
13.123058
 30
0.0
  0
VERTEX
  5
228
330
223
100
AcDbEntity
  8
LAYER_1
 62
     7
100
AcDbVertex
100
AcDb2dVertex
 10
-34.141671
 20
13.16681
 30
0.0
  0
VERTEX
  5
229
330
223
100
AcDbEntity
  8
LAYER_1
 62
     7
100
AcDbVertex
100
AcDb2dVertex
 10
-34.079143
 20
13.191787
 30
0.0
  0
VERTEX
  5
22A
330
223
100
AcDbEntity
  8
LAYER_1
 62
     7
100
AcDbVertex
100
AcDb2dVertex
 10
-34.010413
 20
13.201089
 30
0.0
  0
SEQEND
  5
22B
330
223
100
AcDbEntity
  8
LAYER_1
 62
     7
  0
LINE
  5
222
330
28
100
AcDbEntity
  8
LAYER_1
 62
     7
100
AcDbLine
 10
-33.239745
 20
13.201261
 30
0.0
 11
-37.446207
 21
13.201089
 31
0.0
  0
POLYLINE
  5
219
330
28
100
AcDbEntity
  8
LAYER_1
 62
     7
100
AcDb2dPolyline
 66
     1
 10
0.0
 20
0.0
 30
0.0
  0
VERTEX
  5
21A
330
219
100
AcDbEntity
  8
LAYER_1
 62
     7
100
AcDbVertex
100
AcDb2dVertex
 10
-37.446207
 20
13.201089
 30
0.0
  0
VERTEX
  5
21B
330
219
100
AcDbEntity
  8
LAYER_1
 62
     7
100
AcDbVertex
100
AcDb2dVertex
 10
-37.514764
 20
13.191787
 30
0.0
  0
VERTEX
  5
21C
330
219
100
AcDbEntity
  8
LAYER_1
 62
     7
100
AcDbVertex
100
AcDb2dVertex
 10
-37.57712100000001
 20
13.16681
 30
0.0
  0
VERTEX
  5
21D
330
219
100
AcDbEntity
  8
LAYER_1
 62
     7
100
AcDbVertex
100
AcDb2dVertex
 10
-37.630175
 20
13.123058
 30
0.0
  0
VERTEX
  5
21E
330
219
100
AcDbEntity
  8
LAYER_1
 62
     7
100
AcDbVertex
100
AcDb2dVertex
 10
-37.673928
 20
13.070003
 30
0.0
  0
VERTEX
  5
21F
330
219
100
AcDbEntity
  8
LAYER_1
 62
     7
100
AcDbVertex
100
AcDb2dVertex
 10
-37.698905
 20
13.004546
 30
0.0
  0
VERTEX
  5
220
330
219
100
AcDbEntity
  8
LAYER_1
 62
     7
100
AcDbVertex
100
AcDb2dVertex
 10
-37.708207
 20
12.93909
 30
0.0
  0
SEQEND
  5
221
330
219
100
AcDbEntity
  8
LAYER_1
 62
     7
  0
LINE
  5
218
330
28
100
AcDbEntity
  8
LAYER_1
 62
     7
100
AcDbLine
 10
-37.708207
 20
12.93909
 30
0.0
 11
-37.707862
 21
-8.092702
 31
0.0
  0
POLYLINE
  5
20F
330
28
100
AcDbEntity
  8
LAYER_1
 62
     7
100
AcDb2dPolyline
 66
     1
 10
0.0
 20
0.0
 30
0.0
  0
VERTEX
  5
210
330
20F
100
AcDbEntity
  8
LAYER_1
 62
     7
100
AcDbVertex
100
AcDb2dVertex
 10
-34.272757
 20
11.098031
 30
0.0
  0
VERTEX
  5
211
330
20F
100
AcDbEntity
  8
LAYER_1
 62
     7
100
AcDbVertex
100
AcDb2dVertex
 10
-34.282059
 20
11.029301
 30
0.0
  0
VERTEX
  5
212
330
20F
100
AcDbEntity
  8
LAYER_1
 62
     7
100
AcDbVertex
100
AcDb2dVertex
 10
-34.307036
 20
10.966945
 30
0.0
  0
VERTEX
  5
213
330
20F
100
AcDbEntity
  8
LAYER_1
 62
     7
100
AcDbVertex
100
AcDb2dVertex
 10
-34.350616
 20
10.91079
 30
0.0
  0
VERTEX
  5
214
330
20F
100
AcDbEntity
  8
LAYER_1
 62
     7
100
AcDbVertex
100
AcDb2dVertex
 10
-34.403843
 20
10.87031
 30
0.0
  0
VERTEX
  5
215
330
20F
100
AcDbEntity
  8
LAYER_1
 62
     7
100
AcDbVertex
100
AcDb2dVertex
 10
-34.4693
 20
10.845161
 30
0.0
  0
VERTEX
  5
216
330
20F
100
AcDbEntity
  8
LAYER_1
 62
     7
100
AcDbVertex
100
AcDb2dVertex
 10
-34.534757
 20
10.835859
 30
0.0
  0
SEQEND
  5
217
330
20F
100
AcDbEntity
  8
LAYER_1
 62
     7
  0
LINE
  5
20E
330
28
100
AcDbEntity
  8
LAYER_1
 62
     7
100
AcDbLine
 10
-34.534757
 20
10.835859
 30
0.0
 11
-37.427431
 21
10.836031
 31
0.0
  0
POLYLINE
  5
205
330
28
100
AcDbEntity
  8
LAYER_1
 62
     7
100
AcDb2dPolyline
 66
     1
 10
0.0
 20
0.0
 30
0.0
  0
VERTEX
  5
206
330
205
100
AcDbEntity
  8
LAYER_1
 62
     7
100
AcDbVertex
100
AcDb2dVertex
 10
-37.68960300000002
 20
10.573859
 30
0.0
  0
VERTEX
  5
207
330
205
100
AcDbEntity
  8
LAYER_1
 62
     7
100
AcDbVertex
100
AcDb2dVertex
 10
-37.680129
 20
10.639316
 30
0.0
  0
VERTEX
  5
208
330
205
100
AcDbEntity
  8
LAYER_1
 62
     7
100
AcDbVertex
100
AcDb2dVertex
 10
-37.655324
 20
10.704945
 30
0.0
  0
VERTEX
  5
209
330
205
100
AcDbEntity
  8
LAYER_1
 62
     7
100
AcDbVertex
100
AcDb2dVertex
 10
-37.614672
 20
10.757827
 30
0.0
  0
VERTEX
  5
20A
330
205
100
AcDbEntity
  8
LAYER_1
 62
     7
100
AcDbVertex
100
AcDb2dVertex
 10
-37.558517
 20
10.79848
 30
0.0
  0
VERTEX
  5
20B
330
205
100
AcDbEntity
  8
LAYER_1
 62
     7
100
AcDbVertex
100
AcDb2dVertex
 10
-37.496161
 20
10.826557
 30
0.0
  0
VERTEX
  5
20C
330
205
100
AcDbEntity
  8
LAYER_1
 62
     7
100
AcDbVertex
100
AcDb2dVertex
 10
-37.427431
 20
10.836031
 30
0.0
  0
SEQEND
  5
20D
330
205
100
AcDbEntity
  8
LAYER_1
 62
     7
  0
LINE
  5
204
330
28
100
AcDbEntity
  8
LAYER_1
 62
     7
100
AcDbLine
 10
-32.977401
 20
-8.092702
 30
0.0
 11
-32.977746
 21
12.93909
 31
0.0
  0
POLYLINE
  5
1FB
330
28
100
AcDbEntity
  8
LAYER_1
 62
     7
100
AcDb2dPolyline
 66
     1
 10
0.0
 20
0.0
 30
0.0
  0
VERTEX
  5
1FC
330
1FB
100
AcDbEntity
  8
LAYER_1
 62
     7
100
AcDbVertex
100
AcDb2dVertex
 10
-32.977746
 20
12.93909
 30
0.0
  0
VERTEX
  5
1FD
330
1FB
100
AcDbEntity
  8
LAYER_1
 62
     7
100
AcDbVertex
100
AcDb2dVertex
 10
-32.987048
 20
13.004719
 30
0.0
  0
VERTEX
  5
1FE
330
1FB
100
AcDbEntity
  8
LAYER_1
 62
     7
100
AcDbVertex
100
AcDb2dVertex
 10
-33.012025
 20
13.070176
 30
0.0
  0
VERTEX
  5
1FF
330
1FB
100
AcDbEntity
  8
LAYER_1
 62
     7
100
AcDbVertex
100
AcDb2dVertex
 10
-33.052504
 20
13.12323
 30
0.0
  0
VERTEX
  5
200
330
1FB
100
AcDbEntity
  8
LAYER_1
 62
     7
100
AcDbVertex
100
AcDb2dVertex
 10
-33.10866
 20
13.16681
 30
0.0
  0
VERTEX
  5
201
330
1FB
100
AcDbEntity
  8
LAYER_1
 62
     7
100
AcDbVertex
100
AcDb2dVertex
 10
-33.171188
 20
13.19196
 30
0.0
  0
VERTEX
  5
202
330
1FB
100
AcDbEntity
  8
LAYER_1
 62
     7
100
AcDbVertex
100
AcDb2dVertex
 10
-33.239745
 20
13.201261
 30
0.0
  0
SEQEND
  5
203
330
1FB
100
AcDbEntity
  8
LAYER_1
 62
     7
  0
LINE
  5
1FA
330
28
100
AcDbEntity
  8
LAYER_1
 62
     7
100
AcDbLine
 10
-34.27293000000001
 20
-6.251642999999998
 30
0.0
 11
-34.27293000000001
 21
-8.092702
 31
0.0
  0
POLYLINE
  5
1F1
330
28
100
AcDbEntity
  8
LAYER_1
 62
     7
100
AcDb2dPolyline
 66
     1
 10
0.0
 20
0.0
 30
0.0
  0
VERTEX
  5
1F2
330
1F1
100
AcDbEntity
  8
LAYER_1
 62
     7
100
AcDbVertex
100
AcDb2dVertex
 10
-34.010758
 20
-8.354700999999996
 30
0.0
  0
VERTEX
  5
1F3
330
1F1
100
AcDbEntity
  8
LAYER_1
 62
     7
100
AcDbVertex
100
AcDb2dVertex
 10
-34.079487
 20
-8.345399
 30
0.0
  0
VERTEX
  5
1F4
330
1F1
100
AcDbEntity
  8
LAYER_1
 62
     7
100
AcDbVertex
100
AcDb2dVertex
 10
-34.142016
 20
-8.317322
 30
0.0
  0
VERTEX
  5
1F5
330
1F1
100
AcDbEntity
  8
LAYER_1
 62
     7
100
AcDbVertex
100
AcDb2dVertex
 10
-34.194898
 20
-8.276842
 30
0.0
  0
VERTEX
  5
1F6
330
1F1
100
AcDbEntity
  8
LAYER_1
 62
     7
100
AcDbVertex
100
AcDb2dVertex
 10
-34.238651
 20
-8.223786999999997
 30
0.0
  0
VERTEX
  5
1F7
330
1F1
100
AcDbEntity
  8
LAYER_1
 62
     7
100
AcDbVertex
100
AcDb2dVertex
 10
-34.26362800000001
 20
-8.158331
 30
0.0
  0
VERTEX
  5
1F8
330
1F1
100
AcDbEntity
  8
LAYER_1
 62
     7
100
AcDbVertex
100
AcDb2dVertex
 10
-34.27293000000001
 20
-8.092702
 30
0.0
  0
SEQEND
  5
1F9
330
1F1
100
AcDbEntity
  8
LAYER_1
 62
     7
  0
POLYLINE
  5
1E8
330
28
100
AcDbEntity
  8
LAYER_1
 62
     7
100
AcDb2dPolyline
 66
     1
 10
0.0
 20
0.0
 30
0.0
  0
VERTEX
  5
1E9
330
1E8
100
AcDbEntity
  8
LAYER_1
 62
     7
100
AcDbVertex
100
AcDb2dVertex
 10
-37.707862
 20
-8.092702
 30
0.0
  0
VERTEX
  5
1EA
330
1E8
100
AcDbEntity
  8
LAYER_1
 62
     7
100
AcDbVertex
100
AcDb2dVertex
 10
-37.69856
 20
-8.158331
 30
0.0
  0
VERTEX
  5
1EB
330
1E8
100
AcDbEntity
  8
LAYER_1
 62
     7
100
AcDbVertex
100
AcDb2dVertex
 10
-37.673583
 20
-8.223786999999997
 30
0.0
  0
VERTEX
  5
1EC
330
1E8
100
AcDbEntity
  8
LAYER_1
 62
     7
100
AcDbVertex
100
AcDb2dVertex
 10
-37.629831
 20
-8.276842
 30
0.0
  0
VERTEX
  5
1ED
330
1E8
100
AcDbEntity
  8
LAYER_1
 62
     7
100
AcDbVertex
100
AcDb2dVertex
 10
-37.576948
 20
-8.317322
 30
0.0
  0
VERTEX
  5
1EE
330
1E8
100
AcDbEntity
  8
LAYER_1
 62
     7
100
AcDbVertex
100
AcDb2dVertex
 10
-37.51442
 20
-8.345399
 30
0.0
  0
VERTEX
  5
1EF
330
1E8
100
AcDbEntity
  8
LAYER_1
 62
     7
100
AcDbVertex
100
AcDb2dVertex
 10
-37.445862
 20
-8.354872999999999
 30
0.0
  0
SEQEND
  5
1F0
330
1E8
100
AcDbEntity
  8
LAYER_1
 62
     7
  0
LINE
  5
1E7
330
28
100
AcDbEntity
  8
LAYER_1
 62
     7
100
AcDbLine
 10
-37.445862
 20
-8.354872999999999
 30
0.0
 11
-33.239401
 21
-8.354700999999996
 31
0.0
  0
LINE
  5
1E6
330
28
100
AcDbEntity
  8
LAYER_1
 62
     7
100
AcDbLine
 10
-37.427603
 20
-5.989470999999999
 30
0.0
 11
-34.535101
 21
-5.989470999999999
 31
0.0
  0
POLYLINE
  5
1DD
330
28
100
AcDbEntity
  8
LAYER_1
 62
     7
100
AcDb2dPolyline
 66
     1
 10
0.0
 20
0.0
 30
0.0
  0
VERTEX
  5
1DE
330
1DD
100
AcDbEntity
  8
LAYER_1
 62
     7
100
AcDbVertex
100
AcDb2dVertex
 10
-34.535101
 20
-5.989470999999999
 30
0.0
  0
VERTEX
  5
1DF
330
1DD
100
AcDbEntity
  8
LAYER_1
 62
     7
100
AcDbVertex
100
AcDb2dVertex
 10
-34.469645
 20
-5.995671999999999
 30
0.0
  0
VERTEX
  5
1E0
330
1DD
100
AcDbEntity
  8
LAYER_1
 62
     7
100
AcDbVertex
100
AcDb2dVertex
 10
-34.404015
 20
-6.023748999999998
 30
0.0
  0
VERTEX
  5
1E1
330
1DD
100
AcDbEntity
  8
LAYER_1
 62
     7
100
AcDbVertex
100
AcDb2dVertex
 10
-34.350961
 20
-6.064401999999998
 30
0.0
  0
VERTEX
  5
1E2
330
1DD
100
AcDbEntity
  8
LAYER_1
 62
     7
100
AcDbVertex
100
AcDb2dVertex
 10
-34.307208
 20
-6.120556999999998
 30
0.0
  0
VERTEX
  5
1E3
330
1DD
100
AcDbEntity
  8
LAYER_1
 62
     7
100
AcDbVertex
100
AcDb2dVertex
 10
-34.282231
 20
-6.182913
 30
0.0
  0
VERTEX
  5
1E4
330
1DD
100
AcDbEntity
  8
LAYER_1
 62
     7
100
AcDbVertex
100
AcDb2dVertex
 10
-34.27293000000001
 20
-6.251642999999998
 30
0.0
  0
SEQEND
  5
1E5
330
1DD
100
AcDbEntity
  8
LAYER_1
 62
     7
  0
POLYLINE
  5
1D4
330
28
100
AcDbEntity
  8
LAYER_1
 62
     7
100
AcDb2dPolyline
 66
     1
 10
0.0
 20
0.0
 30
0.0
  0
VERTEX
  5
1D5
330
1D4
100
AcDbEntity
  8
LAYER_1
 62
     7
100
AcDbVertex
100
AcDb2dVertex
 10
-37.427603
 20
-5.989470999999999
 30
0.0
  0
VERTEX
  5
1D6
330
1D4
100
AcDbEntity
  8
LAYER_1
 62
     7
100
AcDbVertex
100
AcDb2dVertex
 10
-37.496333
 20
-5.979997
 30
0.0
  0
VERTEX
  5
1D7
330
1D4
100
AcDbEntity
  8
LAYER_1
 62
     7
100
AcDbVertex
100
AcDb2dVertex
 10
-37.558862
 20
-5.951919
 30
0.0
  0
VERTEX
  5
1D8
330
1D4
100
AcDbEntity
  8
LAYER_1
 62
     7
100
AcDbVertex
100
AcDb2dVertex
 10
-37.615017
 20
-5.911438999999998
 30
0.0
  0
VERTEX
  5
1D9
330
1D4
100
AcDbEntity
  8
LAYER_1
 62
     7
100
AcDbVertex
100
AcDb2dVertex
 10
-37.655497
 20
-5.855283999999998
 30
0.0
  0
VERTEX
  5
1DA
330
1D4
100
AcDbEntity
  8
LAYER_1
 62
     7
100
AcDbVertex
100
AcDb2dVertex
 10
-37.680473
 20
-5.792927999999998
 30
0.0
  0
VERTEX
  5
1DB
330
1D4
100
AcDbEntity
  8
LAYER_1
 62
     7
100
AcDbVertex
100
AcDb2dVertex
 10
-37.689775
 20
-5.724198
 30
0.0
  0
SEQEND
  5
1DC
330
1D4
100
AcDbEntity
  8
LAYER_1
 62
     7
  0
POLYLINE
  5
1CB
330
28
100
AcDbEntity
  8
LAYER_1
 62
     7
100
AcDb2dPolyline
 66
     1
 10
0.0
 20
0.0
 30
0.0
  0
VERTEX
  5
1CC
330
1CB
100
AcDbEntity
  8
LAYER_1
 62
     7
100
AcDbVertex
100
AcDb2dVertex
 10
-33.239401
 20
-8.354700999999996
 30
0.0
  0
VERTEX
  5
1CD
330
1CB
100
AcDbEntity
  8
LAYER_1
 62
     7
100
AcDbVertex
100
AcDb2dVertex
 10
-33.17084400000001
 20
-8.345399
 30
0.0
  0
VERTEX
  5
1CE
330
1CB
100
AcDbEntity
  8
LAYER_1
 62
     7
100
AcDbVertex
100
AcDb2dVertex
 10
-33.108487
 20
-8.317322
 30
0.0
  0
VERTEX
  5
1CF
330
1CB
100
AcDbEntity
  8
LAYER_1
 62
     7
100
AcDbVertex
100
AcDb2dVertex
 10
-33.05216
 20
-8.276669999999999
 30
0.0
  0
VERTEX
  5
1D0
330
1CB
100
AcDbEntity
  8
LAYER_1
 62
     7
100
AcDbVertex
100
AcDb2dVertex
 10
-33.01168
 20
-8.223614999999997
 30
0.0
  0
VERTEX
  5
1D1
330
1CB
100
AcDbEntity
  8
LAYER_1
 62
     7
100
AcDbVertex
100
AcDb2dVertex
 10
-32.98670300000001
 20
-8.158158
 30
0.0
  0
VERTEX
  5
1D2
330
1CB
100
AcDbEntity
  8
LAYER_1
 62
     7
100
AcDbVertex
100
AcDb2dVertex
 10
-32.977401
 20
-8.092702
 30
0.0
  0
SEQEND
  5
1D3
330
1CB
100
AcDbEntity
  8
LAYER_1
 62
     7
  0
POLYLINE
  5
1C5
330
28
100
AcDbEntity
  8
LAYER_1
 62
     7
100
AcDb2dPolyline
 66
     1
 10
0.0
 20
0.0
 30
0.0
 70
     1
  0
VERTEX
  5
1C6
330
1C5
100
AcDbEntity
  8
LAYER_1
 62
     7
100
AcDbVertex
100
AcDb2dVertex
 10
-37.182829
 20
-7.696342999999998
 30
0.0
  0
VERTEX
  5
1C7
330
1C5
100
AcDbEntity
  8
LAYER_1
 62
     7
100
AcDbVertex
100
AcDb2dVertex
 10
-34.738017
 20
-7.696342999999998
 30
0.0
  0
VERTEX
  5
1C8
330
1C5
100
AcDbEntity
  8
LAYER_1
 62
     7
100
AcDbVertex
100
AcDb2dVertex
 10
-34.738017
 20
-6.644727999999998
 30
0.0
  0
VERTEX
  5
1C9
330
1C5
100
AcDbEntity
  8
LAYER_1
 62
     7
100
AcDbVertex
100
AcDb2dVertex
 10
-37.182829
 20
-6.644727999999998
 30
0.0
  0
SEQEND
  5
1CA
330
1C5
100
AcDbEntity
  8
LAYER_1
 62
     7
  0
LINE
  5
1C4
330
28
100
AcDbEntity
  8
LAYER_1
 62
     7
100
AcDbLine
 10
-23.528366
 20
12.939262
 30
0.0
 11
-23.528021
 21
-8.092528999999997
 31
0.0
  0
LINE
  5
1C3
330
28
100
AcDbEntity
  8
LAYER_1
 62
     7
100
AcDbLine
 10
-18.794288
 20
-8.092528999999997
 30
0.0
 11
-18.794632
 21
12.939262
 31
0.0
  0
POLYLINE
  5
1BA
330
28
100
AcDbEntity
  8
LAYER_1
 62
     7
100
AcDb2dPolyline
 66
     1
 10
0.0
 20
0.0
 30
0.0
  0
VERTEX
  5
1BB
330
1BA
100
AcDbEntity
  8
LAYER_1
 62
     7
100
AcDbVertex
100
AcDb2dVertex
 10
-23.263093
 20
13.201434
 30
0.0
  0
VERTEX
  5
1BC
330
1BA
100
AcDbEntity
  8
LAYER_1
 62
     7
100
AcDbVertex
100
AcDb2dVertex
 10
-23.331651
 20
13.19196
 30
0.0
  0
VERTEX
  5
1BD
330
1BA
100
AcDbEntity
  8
LAYER_1
 62
     7
100
AcDbVertex
100
AcDb2dVertex
 10
-23.394179
 20
13.166983
 30
0.0
  0
VERTEX
  5
1BE
330
1BA
100
AcDbEntity
  8
LAYER_1
 62
     7
100
AcDbVertex
100
AcDb2dVertex
 10
-23.450334
 20
13.123402
 30
0.0
  0
VERTEX
  5
1BF
330
1BA
100
AcDbEntity
  8
LAYER_1
 62
     7
100
AcDbVertex
100
AcDb2dVertex
 10
-23.490986
 20
13.070348
 30
0.0
  0
VERTEX
  5
1C0
330
1BA
100
AcDbEntity
  8
LAYER_1
 62
     7
100
AcDbVertex
100
AcDb2dVertex
 10
-23.518892
 20
13.004719
 30
0.0
  0
VERTEX
  5
1C1
330
1BA
100
AcDbEntity
  8
LAYER_1
 62
     7
100
AcDbVertex
100
AcDb2dVertex
 10
-23.528366
 20
12.939262
 30
0.0
  0
SEQEND
  5
1C2
330
1BA
100
AcDbEntity
  8
LAYER_1
 62
     7
  0
LINE
  5
1B9
330
28
100
AcDbEntity
  8
LAYER_1
 62
     7
100
AcDbLine
 10
-19.056804
 20
13.201434
 30
0.0
 11
-23.263093
 21
13.201434
 31
0.0
  0
POLYLINE
  5
1B0
330
28
100
AcDbEntity
  8
LAYER_1
 62
     7
100
AcDb2dPolyline
 66
     1
 10
0.0
 20
0.0
 30
0.0
  0
VERTEX
  5
1B1
330
1B0
100
AcDbEntity
  8
LAYER_1
 62
     7
100
AcDbVertex
100
AcDb2dVertex
 10
-18.794632
 20
12.939262
 30
0.0
  0
VERTEX
  5
1B2
330
1B0
100
AcDbEntity
  8
LAYER_1
 62
     7
100
AcDbVertex
100
AcDb2dVertex
 10
-18.804106
 20
13.004891
 30
0.0
  0
VERTEX
  5
1B3
330
1B0
100
AcDbEntity
  8
LAYER_1
 62
     7
100
AcDbVertex
100
AcDb2dVertex
 10
-18.828911
 20
13.070348
 30
0.0
  0
VERTEX
  5
1B4
330
1B0
100
AcDbEntity
  8
LAYER_1
 62
     7
100
AcDbVertex
100
AcDb2dVertex
 10
-18.872664
 20
13.123402
 30
0.0
  0
VERTEX
  5
1B5
330
1B0
100
AcDbEntity
  8
LAYER_1
 62
     7
100
AcDbVertex
100
AcDb2dVertex
 10
-18.925718
 20
13.167155
 30
0.0
  0
VERTEX
  5
1B6
330
1B0
100
AcDbEntity
  8
LAYER_1
 62
     7
100
AcDbVertex
100
AcDb2dVertex
 10
-18.991347
 20
13.19196
 30
0.0
  0
VERTEX
  5
1B7
330
1B0
100
AcDbEntity
  8
LAYER_1
 62
     7
100
AcDbVertex
100
AcDb2dVertex
 10
-19.056804
 20
13.201434
 30
0.0
  0
SEQEND
  5
1B8
330
1B0
100
AcDbEntity
  8
LAYER_1
 62
     7
  0
POLYLINE
  5
1A7
330
28
100
AcDbEntity
  8
LAYER_1
 62
     7
100
AcDb2dPolyline
 66
     1
 10
0.0
 20
0.0
 30
0.0
  0
VERTEX
  5
1A8
330
1A7
100
AcDbEntity
  8
LAYER_1
 62
     7
100
AcDbVertex
100
AcDb2dVertex
 10
-19.846248
 20
13.201434
 30
0.0
  0
VERTEX
  5
1A9
330
1A7
100
AcDbEntity
  8
LAYER_1
 62
     7
100
AcDbVertex
100
AcDb2dVertex
 10
-19.91480499999999
 20
13.19196
 30
0.0
  0
VERTEX
  5
1AA
330
1A7
100
AcDbEntity
  8
LAYER_1
 62
     7
100
AcDbVertex
100
AcDb2dVertex
 10
-19.977334
 20
13.167155
 30
0.0
  0
VERTEX
  5
1AB
330
1A7
100
AcDbEntity
  8
LAYER_1
 62
     7
100
AcDbVertex
100
AcDb2dVertex
 10
-20.033489
 20
13.123402
 30
0.0
  0
VERTEX
  5
1AC
330
1A7
100
AcDbEntity
  8
LAYER_1
 62
     7
100
AcDbVertex
100
AcDb2dVertex
 10
-20.073969
 20
13.070348
 30
0.0
  0
VERTEX
  5
1AD
330
1A7
100
AcDbEntity
  8
LAYER_1
 62
     7
100
AcDbVertex
100
AcDb2dVertex
 10
-20.102046
 20
13.004891
 30
0.0
  0
VERTEX
  5
1AE
330
1A7
100
AcDbEntity
  8
LAYER_1
 62
     7
100
AcDbVertex
100
AcDb2dVertex
 10
-20.108419
 20
12.939262
 30
0.0
  0
SEQEND
  5
1AF
330
1A7
100
AcDbEntity
  8
LAYER_1
 62
     7
  0
LINE
  5
1A6
330
28
100
AcDbEntity
  8
LAYER_1
 62
     7
100
AcDbLine
 10
-20.108419
 20
12.939262
 30
0.0
 11
-20.108419
 21
11.098203
 31
0.0
  0
POLYLINE
  5
19D
330
28
100
AcDbEntity
  8
LAYER_1
 62
     7
100
AcDb2dPolyline
 66
     1
 10
0.0
 20
0.0
 30
0.0
  0
VERTEX
  5
19E
330
19D
100
AcDbEntity
  8
LAYER_1
 62
     7
100
AcDbVertex
100
AcDb2dVertex
 10
-20.37352
 20
10.836203
 30
0.0
  0
VERTEX
  5
19F
330
19D
100
AcDbEntity
  8
LAYER_1
 62
     7
100
AcDbVertex
100
AcDb2dVertex
 10
-20.304962
 20
10.845505
 30
0.0
  0
VERTEX
  5
1A0
330
19D
100
AcDbEntity
  8
LAYER_1
 62
     7
100
AcDbVertex
100
AcDb2dVertex
 10
-20.242434
 20
10.870482
 30
0.0
  0
VERTEX
  5
1A1
330
19D
100
AcDbEntity
  8
LAYER_1
 62
     7
100
AcDbVertex
100
AcDb2dVertex
 10
-20.186279
 20
10.910962
 30
0.0
  0
VERTEX
  5
1A2
330
19D
100
AcDbEntity
  8
LAYER_1
 62
     7
100
AcDbVertex
100
AcDb2dVertex
 10
-20.145799
 20
10.967117
 30
0.0
  0
VERTEX
  5
1A3
330
19D
100
AcDbEntity
  8
LAYER_1
 62
     7
100
AcDbVertex
100
AcDb2dVertex
 10
-20.117721
 20
11.029645
 30
0.0
  0
VERTEX
  5
1A4
330
19D
100
AcDbEntity
  8
LAYER_1
 62
     7
100
AcDbVertex
100
AcDb2dVertex
 10
-20.108419
 20
11.098203
 30
0.0
  0
SEQEND
  5
1A5
330
19D
100
AcDbEntity
  8
LAYER_1
 62
     7
  0
LINE
  5
19C
330
28
100
AcDbEntity
  8
LAYER_1
 62
     7
100
AcDbLine
 10
-20.37352
 20
10.836203
 30
0.0
 11
-23.263093
 21
10.836031
 31
0.0
  0
POLYLINE
  5
193
330
28
100
AcDbEntity
  8
LAYER_1
 62
     7
100
AcDb2dPolyline
 66
     1
 10
0.0
 20
0.0
 30
0.0
  0
VERTEX
  5
194
330
193
100
AcDbEntity
  8
LAYER_1
 62
     7
100
AcDbVertex
100
AcDb2dVertex
 10
-23.263093
 20
10.836031
 30
0.0
  0
VERTEX
  5
195
330
193
100
AcDbEntity
  8
LAYER_1
 62
     7
100
AcDbVertex
100
AcDb2dVertex
 10
-23.331651
 20
10.826729
 30
0.0
  0
VERTEX
  5
196
330
193
100
AcDbEntity
  8
LAYER_1
 62
     7
100
AcDbVertex
100
AcDb2dVertex
 10
-23.394179
 20
10.798652
 30
0.0
  0
VERTEX
  5
197
330
193
100
AcDbEntity
  8
LAYER_1
 62
     7
100
AcDbVertex
100
AcDb2dVertex
 10
-23.450334
 20
10.758
 30
0.0
  0
VERTEX
  5
198
330
193
100
AcDbEntity
  8
LAYER_1
 62
     7
100
AcDbVertex
100
AcDb2dVertex
 10
-23.490814
 20
10.704945
 30
0.0
  0
VERTEX
  5
199
330
193
100
AcDbEntity
  8
LAYER_1
 62
     7
100
AcDbVertex
100
AcDb2dVertex
 10
-23.518892
 20
10.639488
 30
0.0
  0
VERTEX
  5
19A
330
193
100
AcDbEntity
  8
LAYER_1
 62
     7
100
AcDbVertex
100
AcDb2dVertex
 10
-23.528193
 20
10.573859
 30
0.0
  0
SEQEND
  5
19B
330
193
100
AcDbEntity
  8
LAYER_1
 62
     7
  0
POLYLINE
  5
18D
330
28
100
AcDbEntity
  8
LAYER_1
 62
     7
100
AcDb2dPolyline
 66
     1
 10
0.0
 20
0.0
 30
0.0
 70
     1
  0
VERTEX
  5
18E
330
18D
100
AcDbEntity
  8
LAYER_1
 62
     7
100
AcDbVertex
100
AcDb2dVertex
 10
-23.02142
 20
12.542904
 30
0.0
  0
VERTEX
  5
18F
330
18D
100
AcDbEntity
  8
LAYER_1
 62
     7
100
AcDbVertex
100
AcDb2dVertex
 10
-20.573335
 20
12.542904
 30
0.0
  0
VERTEX
  5
190
330
18D
100
AcDbEntity
  8
LAYER_1
 62
     7
100
AcDbVertex
100
AcDb2dVertex
 10
-20.573335
 20
11.491461
 30
0.0
  0
VERTEX
  5
191
330
18D
100
AcDbEntity
  8
LAYER_1
 62
     7
100
AcDbVertex
100
AcDb2dVertex
 10
-23.02142
 20
11.491461
 30
0.0
  0
SEQEND
  5
192
330
18D
100
AcDbEntity
  8
LAYER_1
 62
     7
  0
POLYLINE
  5
184
330
28
100
AcDbEntity
  8
LAYER_1
 62
     7
100
AcDb2dPolyline
 66
     1
 10
0.0
 20
0.0
 30
0.0
  0
VERTEX
  5
185
330
184
100
AcDbEntity
  8
LAYER_1
 62
     7
100
AcDbVertex
100
AcDb2dVertex
 10
-23.528021
 20
-5.724026
 30
0.0
  0
VERTEX
  5
186
330
184
100
AcDbEntity
  8
LAYER_1
 62
     7
100
AcDbVertex
100
AcDb2dVertex
 10
-23.518719
 20
-5.792755999999998
 30
0.0
  0
VERTEX
  5
187
330
184
100
AcDbEntity
  8
LAYER_1
 62
     7
100
AcDbVertex
100
AcDb2dVertex
 10
-23.490642
 20
-5.855283999999998
 30
0.0
  0
VERTEX
  5
188
330
184
100
AcDbEntity
  8
LAYER_1
 62
     7
100
AcDbVertex
100
AcDb2dVertex
 10
-23.44999
 20
-5.911266999999998
 30
0.0
  0
VERTEX
  5
189
330
184
100
AcDbEntity
  8
LAYER_1
 62
     7
100
AcDbVertex
100
AcDb2dVertex
 10
-23.393835
 20
-5.951919
 30
0.0
  0
VERTEX
  5
18A
330
184
100
AcDbEntity
  8
LAYER_1
 62
     7
100
AcDbVertex
100
AcDb2dVertex
 10
-23.331479
 20
-5.979997
 30
0.0
  0
VERTEX
  5
18B
330
184
100
AcDbEntity
  8
LAYER_1
 62
     7
100
AcDbVertex
100
AcDb2dVertex
 10
-23.262749
 20
-5.989298999999999
 30
0.0
  0
SEQEND
  5
18C
330
184
100
AcDbEntity
  8
LAYER_1
 62
     7
  0
LINE
  5
183
330
28
100
AcDbEntity
  8
LAYER_1
 62
     7
100
AcDbLine
 10
-23.262749
 20
-5.989298999999999
 30
0.0
 11
-20.373347
 21
-5.989298999999999
 31
0.0
  0
POLYLINE
  5
17A
330
28
100
AcDbEntity
  8
LAYER_1
 62
     7
100
AcDb2dPolyline
 66
     1
 10
0.0
 20
0.0
 30
0.0
  0
VERTEX
  5
17B
330
17A
100
AcDbEntity
  8
LAYER_1
 62
     7
100
AcDbVertex
100
AcDb2dVertex
 10
-20.108075
 20
-6.251469999999998
 30
0.0
  0
VERTEX
  5
17C
330
17A
100
AcDbEntity
  8
LAYER_1
 62
     7
100
AcDbVertex
100
AcDb2dVertex
 10
-20.117377
 20
-6.182741
 30
0.0
  0
VERTEX
  5
17D
330
17A
100
AcDbEntity
  8
LAYER_1
 62
     7
100
AcDbVertex
100
AcDb2dVertex
 10
-20.145454
 20
-6.120383999999998
 30
0.0
  0
VERTEX
  5
17E
330
17A
100
AcDbEntity
  8
LAYER_1
 62
     7
100
AcDbVertex
100
AcDb2dVertex
 10
-20.185934
 20
-6.064229
 30
0.0
  0
VERTEX
  5
17F
330
17A
100
AcDbEntity
  8
LAYER_1
 62
     7
100
AcDbVertex
100
AcDb2dVertex
 10
-20.242261
 20
-6.023576999999998
 30
0.0
  0
VERTEX
  5
180
330
17A
100
AcDbEntity
  8
LAYER_1
 62
     7
100
AcDbVertex
100
AcDb2dVertex
 10
-20.304618
 20
-5.995499999999998
 30
0.0
  0
VERTEX
  5
181
330
17A
100
AcDbEntity
  8
LAYER_1
 62
     7
100
AcDbVertex
100
AcDb2dVertex
 10
-20.373347
 20
-5.989298999999999
 30
0.0
  0
SEQEND
  5
182
330
17A
100
AcDbEntity
  8
LAYER_1
 62
     7
  0
LINE
  5
179
330
28
100
AcDbEntity
  8
LAYER_1
 62
     7
100
AcDbLine
 10
-20.108075
 20
-6.251469999999998
 30
0.0
 11
-20.108075
 21
-8.092528999999997
 31
0.0
  0
POLYLINE
  5
170
330
28
100
AcDbEntity
  8
LAYER_1
 62
     7
100
AcDb2dPolyline
 66
     1
 10
0.0
 20
0.0
 30
0.0
  0
VERTEX
  5
171
330
170
100
AcDbEntity
  8
LAYER_1
 62
     7
100
AcDbVertex
100
AcDb2dVertex
 10
-20.108075
 20
-8.092528999999997
 30
0.0
  0
VERTEX
  5
172
330
170
100
AcDbEntity
  8
LAYER_1
 62
     7
100
AcDbVertex
100
AcDb2dVertex
 10
-20.101702
 20
-8.157985999999999
 30
0.0
  0
VERTEX
  5
173
330
170
100
AcDbEntity
  8
LAYER_1
 62
     7
100
AcDbVertex
100
AcDb2dVertex
 10
-20.073624
 20
-8.223442999999999
 30
0.0
  0
VERTEX
  5
174
330
170
100
AcDbEntity
  8
LAYER_1
 62
     7
100
AcDbVertex
100
AcDb2dVertex
 10
-20.033144
 20
-8.276669999999999
 30
0.0
  0
VERTEX
  5
175
330
170
100
AcDbEntity
  8
LAYER_1
 62
     7
100
AcDbVertex
100
AcDb2dVertex
 10
-19.976989
 20
-8.317149999999998
 30
0.0
  0
VERTEX
  5
176
330
170
100
AcDbEntity
  8
LAYER_1
 62
     7
100
AcDbVertex
100
AcDb2dVertex
 10
-19.914461
 20
-8.345227000000001
 30
0.0
  0
VERTEX
  5
177
330
170
100
AcDbEntity
  8
LAYER_1
 62
     7
100
AcDbVertex
100
AcDb2dVertex
 10
-19.845903
 20
-8.354528999999999
 30
0.0
  0
SEQEND
  5
178
330
170
100
AcDbEntity
  8
LAYER_1
 62
     7
  0
LINE
  5
16F
330
28
100
AcDbEntity
  8
LAYER_1
 62
     7
100
AcDbLine
 10
-23.262749
 20
-8.354700999999996
 30
0.0
 11
-19.05646
 21
-8.354528999999999
 31
0.0
  0
POLYLINE
  5
166
330
28
100
AcDbEntity
  8
LAYER_1
 62
     7
100
AcDb2dPolyline
 66
     1
 10
0.0
 20
0.0
 30
0.0
  0
VERTEX
  5
167
330
166
100
AcDbEntity
  8
LAYER_1
 62
     7
100
AcDbVertex
100
AcDb2dVertex
 10
-19.05646
 20
-8.354528999999999
 30
0.0
  0
VERTEX
  5
168
330
166
100
AcDbEntity
  8
LAYER_1
 62
     7
100
AcDbVertex
100
AcDb2dVertex
 10
-18.99083
 20
-8.345227000000001
 30
0.0
  0
VERTEX
  5
169
330
166
100
AcDbEntity
  8
LAYER_1
 62
     7
100
AcDbVertex
100
AcDb2dVertex
 10
-18.925374
 20
-8.317149999999998
 30
0.0
  0
VERTEX
  5
16A
330
166
100
AcDbEntity
  8
LAYER_1
 62
     7
100
AcDbVertex
100
AcDb2dVertex
 10
-18.872319
 20
-8.276497
 30
0.0
  0
VERTEX
  5
16B
330
166
100
AcDbEntity
  8
LAYER_1
 62
     7
100
AcDbVertex
100
AcDb2dVertex
 10
-18.828566
 20
-8.223442999999999
 30
0.0
  0
VERTEX
  5
16C
330
166
100
AcDbEntity
  8
LAYER_1
 62
     7
100
AcDbVertex
100
AcDb2dVertex
 10
-18.803762
 20
-8.157985999999999
 30
0.0
  0
VERTEX
  5
16D
330
166
100
AcDbEntity
  8
LAYER_1
 62
     7
100
AcDbVertex
100
AcDb2dVertex
 10
-18.794288
 20
-8.092528999999997
 30
0.0
  0
SEQEND
  5
16E
330
166
100
AcDbEntity
  8
LAYER_1
 62
     7
  0
POLYLINE
  5
15D
330
28
100
AcDbEntity
  8
LAYER_1
 62
     7
100
AcDb2dPolyline
 66
     1
 10
0.0
 20
0.0
 30
0.0
  0
VERTEX
  5
15E
330
15D
100
AcDbEntity
  8
LAYER_1
 62
     7
100
AcDbVertex
100
AcDb2dVertex
 10
-23.528021
 20
-8.092528999999997
 30
0.0
  0
VERTEX
  5
15F
330
15D
100
AcDbEntity
  8
LAYER_1
 62
     7
100
AcDbVertex
100
AcDb2dVertex
 10
-23.518719
 20
-8.157985999999999
 30
0.0
  0
VERTEX
  5
160
330
15D
100
AcDbEntity
  8
LAYER_1
 62
     7
100
AcDbVertex
100
AcDb2dVertex
 10
-23.490642
 20
-8.223614999999997
 30
0.0
  0
VERTEX
  5
161
330
15D
100
AcDbEntity
  8
LAYER_1
 62
     7
100
AcDbVertex
100
AcDb2dVertex
 10
-23.44999
 20
-8.276669999999999
 30
0.0
  0
VERTEX
  5
162
330
15D
100
AcDbEntity
  8
LAYER_1
 62
     7
100
AcDbVertex
100
AcDb2dVertex
 10
-23.393835
 20
-8.317149999999998
 30
0.0
  0
VERTEX
  5
163
330
15D
100
AcDbEntity
  8
LAYER_1
 62
     7
100
AcDbVertex
100
AcDb2dVertex
 10
-23.331306
 20
-8.345227000000001
 30
0.0
  0
VERTEX
  5
164
330
15D
100
AcDbEntity
  8
LAYER_1
 62
     7
100
AcDbVertex
100
AcDb2dVertex
 10
-23.262749
 20
-8.354700999999996
 30
0.0
  0
SEQEND
  5
165
330
15D
100
AcDbEntity
  8
LAYER_1
 62
     7
  0
POLYLINE
  5
157
330
28
100
AcDbEntity
  8
LAYER_1
 62
     7
100
AcDb2dPolyline
 66
     1
 10
0.0
 20
0.0
 30
0.0
 70
     1
  0
VERTEX
  5
158
330
157
100
AcDbEntity
  8
LAYER_1
 62
     7
100
AcDbVertex
100
AcDb2dVertex
 10
-20.573163
 20
-6.644555999999998
 30
0.0
  0
VERTEX
  5
159
330
157
100
AcDbEntity
  8
LAYER_1
 62
     7
100
AcDbVertex
100
AcDb2dVertex
 10
-23.021075
 20
-6.644555999999998
 30
0.0
  0
VERTEX
  5
15A
330
157
100
AcDbEntity
  8
LAYER_1
 62
     7
100
AcDbVertex
100
AcDb2dVertex
 10
-23.021075
 20
-7.696171
 30
0.0
  0
VERTEX
  5
15B
330
157
100
AcDbEntity
  8
LAYER_1
 62
     7
100
AcDbVertex
100
AcDb2dVertex
 10
-20.573163
 20
-7.696171
 30
0.0
  0
SEQEND
  5
15C
330
157
100
AcDbEntity
  8
LAYER_1
 62
     7
  0
LINE
  5
156
330
28
100
AcDbEntity
  8
LAYER_1
 62
     7
100
AcDbLine
 10
32.237912
 20
15.759589
 30
0.0
 11
29.083238
 21
15.759589
 31
0.0
  0
POLYLINE
  5
151
330
28
100
AcDbEntity
  8
LAYER_1
 62
     7
100
AcDb2dPolyline
 66
     1
 10
0.0
 20
0.0
 30
0.0
  0
VERTEX
  5
152
330
151
100
AcDbEntity
  8
LAYER_1
 62
     7
100
AcDbVertex
100
AcDb2dVertex
 10
15.025698
 20
12.659348
 30
0.0
  0
VERTEX
  5
153
330
151
100
AcDbEntity
  8
LAYER_1
 62
     7
100
AcDbVertex
100
AcDb2dVertex
 10
17.088104
 20
12.659348
 30
0.0
  0
VERTEX
  5
154
330
151
100
AcDbEntity
  8
LAYER_1
 62
     7
100
AcDbVertex
100
AcDb2dVertex
 10
17.088104
 20
15.793523
 30
0.0
  0
SEQEND
  5
155
330
151
100
AcDbEntity
  8
LAYER_1
 62
     7
  0
LINE
  5
150
330
28
100
AcDbEntity
  8
LAYER_1
 62
     7
100
AcDbLine
 10
32.992043
 20
12.65952
 30
0.0
 11
28.329106
 21
12.65952
 31
0.0
  0
LINE
  5
14F
330
28
100
AcDbEntity
  8
LAYER_1
 62
     7
100
AcDbLine
 10
32.762083
 20
15.759589
 30
0.0
 11
32.237912
 21
15.759589
 31
0.0
  0
POLYLINE
  5
146
330
28
100
AcDbEntity
  8
LAYER_1
 62
     7
100
AcDb2dPolyline
 66
     1
 10
0.0
 20
0.0
 30
0.0
  0
VERTEX
  5
147
330
146
100
AcDbEntity
  8
LAYER_1
 62
     7
100
AcDbVertex
100
AcDb2dVertex
 10
33.027355
 20
15.497418
 30
0.0
  0
VERTEX
  5
148
330
146
100
AcDbEntity
  8
LAYER_1
 62
     7
100
AcDbVertex
100
AcDb2dVertex
 10
33.018054
 20
15.563047
 30
0.0
  0
VERTEX
  5
149
330
146
100
AcDbEntity
  8
LAYER_1
 62
     7
100
AcDbVertex
100
AcDb2dVertex
 10
32.989976
 20
15.628503
 30
0.0
  0
VERTEX
  5
14A
330
146
100
AcDbEntity
  8
LAYER_1
 62
     7
100
AcDbVertex
100
AcDb2dVertex
 10
32.949324
 20
15.681558
 30
0.0
  0
VERTEX
  5
14B
330
146
100
AcDbEntity
  8
LAYER_1
 62
     7
100
AcDbVertex
100
AcDb2dVertex
 10
32.893169
 20
15.725311
 30
0.0
  0
VERTEX
  5
14C
330
146
100
AcDbEntity
  8
LAYER_1
 62
     7
100
AcDbVertex
100
AcDb2dVertex
 10
32.83064
 20
15.750288
 30
0.0
  0
VERTEX
  5
14D
330
146
100
AcDbEntity
  8
LAYER_1
 62
     7
100
AcDbVertex
100
AcDb2dVertex
 10
32.762083
 20
15.759589
 30
0.0
  0
SEQEND
  5
14E
330
146
100
AcDbEntity
  8
LAYER_1
 62
     7
  0
LINE
  5
145
330
28
100
AcDbEntity
  8
LAYER_1
 62
     7
100
AcDbLine
 10
33.02770000000001
 20
-6.120728999999998
 30
0.0
 11
33.027355
 21
15.497418
 31
0.0
  0
LINE
  5
144
330
28
100
AcDbEntity
  8
LAYER_1
 62
     7
100
AcDbLine
 10
29.083238
 20
15.759589
 30
0.0
 11
28.555794
 21
15.759589
 31
0.0
  0
POLYLINE
  5
13B
330
28
100
AcDbEntity
  8
LAYER_1
 62
     7
100
AcDb2dPolyline
 66
     1
 10
0.0
 20
0.0
 30
0.0
  0
VERTEX
  5
13C
330
13B
100
AcDbEntity
  8
LAYER_1
 62
     7
100
AcDbVertex
100
AcDb2dVertex
 10
28.555794
 20
15.759589
 30
0.0
  0
VERTEX
  5
13D
330
13B
100
AcDbEntity
  8
LAYER_1
 62
     7
100
AcDbVertex
100
AcDb2dVertex
 10
28.490165
 20
15.750115
 30
0.0
  0
VERTEX
  5
13E
330
13B
100
AcDbEntity
  8
LAYER_1
 62
     7
100
AcDbVertex
100
AcDb2dVertex
 10
28.424708
 20
15.725138
 30
0.0
  0
VERTEX
  5
13F
330
13B
100
AcDbEntity
  8
LAYER_1
 62
     7
100
AcDbVertex
100
AcDb2dVertex
 10
28.371653
 20
15.681558
 30
0.0
  0
VERTEX
  5
140
330
13B
100
AcDbEntity
  8
LAYER_1
 62
     7
100
AcDbVertex
100
AcDb2dVertex
 10
28.327901
 20
15.628503
 30
0.0
  0
VERTEX
  5
141
330
13B
100
AcDbEntity
  8
LAYER_1
 62
     7
100
AcDbVertex
100
AcDb2dVertex
 10
28.30309600000001
 20
15.562874
 30
0.0
  0
VERTEX
  5
142
330
13B
100
AcDbEntity
  8
LAYER_1
 62
     7
100
AcDbVertex
100
AcDb2dVertex
 10
28.293622
 20
15.497418
 30
0.0
  0
SEQEND
  5
143
330
13B
100
AcDbEntity
  8
LAYER_1
 62
     7
  0
LINE
  5
13A
330
28
100
AcDbEntity
  8
LAYER_1
 62
     7
100
AcDbLine
 10
28.293622
 20
15.497418
 30
0.0
 11
28.293966
 21
-6.120900999999999
 31
0.0
  0
POLYLINE
  5
131
330
28
100
AcDbEntity
  8
LAYER_1
 62
     7
100
AcDb2dPolyline
 66
     1
 10
0.0
 20
0.0
 30
0.0
  0
VERTEX
  5
132
330
131
100
AcDbEntity
  8
LAYER_1
 62
     7
100
AcDbVertex
100
AcDb2dVertex
 10
28.293622
 20
11.494044
 30
0.0
  0
VERTEX
  5
133
330
131
100
AcDbEntity
  8
LAYER_1
 62
     7
100
AcDbVertex
100
AcDb2dVertex
 10
28.30309600000001
 20
11.425315
 30
0.0
  0
VERTEX
  5
134
330
131
100
AcDbEntity
  8
LAYER_1
 62
     7
100
AcDbVertex
100
AcDb2dVertex
 10
28.328073
 20
11.359858
 30
0.0
  0
VERTEX
  5
135
330
131
100
AcDbEntity
  8
LAYER_1
 62
     7
100
AcDbVertex
100
AcDb2dVertex
 10
28.371825
 20
11.306803
 30
0.0
  0
VERTEX
  5
136
330
131
100
AcDbEntity
  8
LAYER_1
 62
     7
100
AcDbVertex
100
AcDb2dVertex
 10
28.424708
 20
11.266151
 30
0.0
  0
VERTEX
  5
137
330
131
100
AcDbEntity
  8
LAYER_1
 62
     7
100
AcDbVertex
100
AcDb2dVertex
 10
28.490337
 20
11.238074
 30
0.0
  0
VERTEX
  5
138
330
131
100
AcDbEntity
  8
LAYER_1
 62
     7
100
AcDbVertex
100
AcDb2dVertex
 10
28.555794
 20
11.228772
 30
0.0
  0
SEQEND
  5
139
330
131
100
AcDbEntity
  8
LAYER_1
 62
     7
  0
LINE
  5
130
330
28
100
AcDbEntity
  8
LAYER_1
 62
     7
100
AcDbLine
 10
28.555794
 20
11.228772
 30
0.0
 11
30.275585
 21
11.228772
 31
0.0
  0
LINE
  5
12F
330
28
100
AcDbEntity
  8
LAYER_1
 62
     7
100
AcDbLine
 10
30.265767
 20
11.23859
 30
0.0
 11
30.265767
 21
7.80228
 31
0.0
  0
LINE
  5
12E
330
28
100
AcDbEntity
  8
LAYER_1
 62
     7
100
AcDbLine
 10
30.219775
 20
7.811925999999998
 30
0.0
 11
28.555966
 21
7.811925999999998
 31
0.0
  0
POLYLINE
  5
125
330
28
100
AcDbEntity
  8
LAYER_1
 62
     7
100
AcDb2dPolyline
 66
     1
 10
0.0
 20
0.0
 30
0.0
  0
VERTEX
  5
126
330
125
100
AcDbEntity
  8
LAYER_1
 62
     7
100
AcDbVertex
100
AcDb2dVertex
 10
28.555966
 20
7.811925999999998
 30
0.0
  0
VERTEX
  5
127
330
125
100
AcDbEntity
  8
LAYER_1
 62
     7
100
AcDbVertex
100
AcDb2dVertex
 10
28.490337
 20
7.802624999999999
 30
0.0
  0
VERTEX
  5
128
330
125
100
AcDbEntity
  8
LAYER_1
 62
     7
100
AcDbVertex
100
AcDb2dVertex
 10
28.42488
 20
7.777647999999999
 30
0.0
  0
VERTEX
  5
129
330
125
100
AcDbEntity
  8
LAYER_1
 62
     7
100
AcDbVertex
100
AcDb2dVertex
 10
28.371825
 20
7.736994999999998
 30
0.0
  0
VERTEX
  5
12A
330
125
100
AcDbEntity
  8
LAYER_1
 62
     7
100
AcDbVertex
100
AcDb2dVertex
 10
28.328073
 20
7.680839999999999
 30
0.0
  0
VERTEX
  5
12B
330
125
100
AcDbEntity
  8
LAYER_1
 62
     7
100
AcDbVertex
100
AcDb2dVertex
 10
28.30309600000001
 20
7.618483999999998
 30
0.0
  0
VERTEX
  5
12C
330
125
100
AcDbEntity
  8
LAYER_1
 62
     7
100
AcDbVertex
100
AcDb2dVertex
 10
28.293794
 20
7.549755
 30
0.0
  0
SEQEND
  5
12D
330
125
100
AcDbEntity
  8
LAYER_1
 62
     7
  0
POLYLINE
  5
11C
330
28
100
AcDbEntity
  8
LAYER_1
 62
     7
100
AcDb2dPolyline
 66
     1
 10
0.0
 20
0.0
 30
0.0
  0
VERTEX
  5
11D
330
11C
100
AcDbEntity
  8
LAYER_1
 62
     7
100
AcDbVertex
100
AcDb2dVertex
 10
29.214324
 20
8.339369999999997
 30
0.0
  0
VERTEX
  5
11E
330
11C
100
AcDbEntity
  8
LAYER_1
 62
     7
100
AcDbVertex
100
AcDb2dVertex
 10
29.351611
 20
8.354872999999999
 30
0.0
  0
VERTEX
  5
11F
330
11C
100
AcDbEntity
  8
LAYER_1
 62
     7
100
AcDbVertex
100
AcDb2dVertex
 10
29.476495
 20
8.407928
 30
0.0
  0
VERTEX
  5
120
330
11C
100
AcDbEntity
  8
LAYER_1
 62
     7
100
AcDbVertex
100
AcDb2dVertex
 10
29.585705
 20
8.49216
 30
0.0
  0
VERTEX
  5
121
330
11C
100
AcDbEntity
  8
LAYER_1
 62
     7
100
AcDbVertex
100
AcDb2dVertex
 10
29.666665
 20
8.601369999999999
 30
0.0
  0
VERTEX
  5
122
330
11C
100
AcDbEntity
  8
LAYER_1
 62
     7
100
AcDbVertex
100
AcDb2dVertex
 10
29.72282
 20
8.729354999999998
 30
0.0
  0
VERTEX
  5
123
330
11C
100
AcDbEntity
  8
LAYER_1
 62
     7
100
AcDbVertex
100
AcDb2dVertex
 10
29.738495
 20
8.863542
 30
0.0
  0
SEQEND
  5
124
330
11C
100
AcDbEntity
  8
LAYER_1
 62
     7
  0
POLYLINE
  5
113
330
28
100
AcDbEntity
  8
LAYER_1
 62
     7
100
AcDb2dPolyline
 66
     1
 10
0.0
 20
0.0
 30
0.0
  0
VERTEX
  5
114
330
113
100
AcDbEntity
  8
LAYER_1
 62
     7
100
AcDbVertex
100
AcDb2dVertex
 10
29.738495
 20
10.177157
 30
0.0
  0
VERTEX
  5
115
330
113
100
AcDbEntity
  8
LAYER_1
 62
     7
100
AcDbVertex
100
AcDb2dVertex
 10
29.72282
 20
10.314444
 30
0.0
  0
VERTEX
  5
116
330
113
100
AcDbEntity
  8
LAYER_1
 62
     7
100
AcDbVertex
100
AcDb2dVertex
 10
29.666665
 20
10.442429
 30
0.0
  0
VERTEX
  5
117
330
113
100
AcDbEntity
  8
LAYER_1
 62
     7
100
AcDbVertex
100
AcDb2dVertex
 10
29.585533
 20
10.551638
 30
0.0
  0
VERTEX
  5
118
330
113
100
AcDbEntity
  8
LAYER_1
 62
     7
100
AcDbVertex
100
AcDb2dVertex
 10
29.476323
 20
10.63277
 30
0.0
  0
VERTEX
  5
119
330
113
100
AcDbEntity
  8
LAYER_1
 62
     7
100
AcDbVertex
100
AcDb2dVertex
 10
29.351611
 20
10.685825
 30
0.0
  0
VERTEX
  5
11A
330
113
100
AcDbEntity
  8
LAYER_1
 62
     7
100
AcDbVertex
100
AcDb2dVertex
 10
29.214324
 20
10.704601
 30
0.0
  0
SEQEND
  5
11B
330
113
100
AcDbEntity
  8
LAYER_1
 62
     7
  0
POLYLINE
  5
10A
330
28
100
AcDbEntity
  8
LAYER_1
 62
     7
100
AcDb2dPolyline
 66
     1
 10
0.0
 20
0.0
 30
0.0
  0
VERTEX
  5
10B
330
10A
100
AcDbEntity
  8
LAYER_1
 62
     7
100
AcDbVertex
100
AcDb2dVertex
 10
29.214324
 20
10.704601
 30
0.0
  0
VERTEX
  5
10C
330
10A
100
AcDbEntity
  8
LAYER_1
 62
     7
100
AcDbVertex
100
AcDb2dVertex
 10
29.077037
 20
10.685825
 30
0.0
  0
VERTEX
  5
10D
330
10A
100
AcDbEntity
  8
LAYER_1
 62
     7
100
AcDbVertex
100
AcDb2dVertex
 10
28.952152
 20
10.63277
 30
0.0
  0
VERTEX
  5
10E
330
10A
100
AcDbEntity
  8
LAYER_1
 62
     7
100
AcDbVertex
100
AcDb2dVertex
 10
28.842942
 20
10.551638
 30
0.0
  0
VERTEX
  5
10F
330
10A
100
AcDbEntity
  8
LAYER_1
 62
     7
100
AcDbVertex
100
AcDb2dVertex
 10
28.75871
 20
10.442429
 30
0.0
  0
VERTEX
  5
110
330
10A
100
AcDbEntity
  8
LAYER_1
 62
     7
100
AcDbVertex
100
AcDb2dVertex
 10
28.705655
 20
10.314444
 30
0.0
  0
VERTEX
  5
111
330
10A
100
AcDbEntity
  8
LAYER_1
 62
     7
100
AcDbVertex
100
AcDb2dVertex
 10
28.68998
 20
10.177157
 30
0.0
  0
SEQEND
  5
112
330
10A
100
AcDbEntity
  8
LAYER_1
 62
     7
  0
POLYLINE
  5
104
330
28
100
AcDbEntity
  8
LAYER_1
 62
     7
100
AcDb2dPolyline
 66
     1
 10
0.0
 20
0.0
 30
0.0
 70
     1
  0
VERTEX
  5
105
330
104
100
AcDbEntity
  8
LAYER_1
 62
     7
100
AcDbVertex
100
AcDb2dVertex
 10
28.68998
 20
10.903383
 30
0.0
  0
VERTEX
  5
106
330
104
100
AcDbEntity
  8
LAYER_1
 62
     7
100
AcDbVertex
100
AcDb2dVertex
 10
28.68998
 20
8.137316
 30
0.0
  0
VERTEX
  5
107
330
104
100
AcDbEntity
  8
LAYER_1
 62
     7
100
AcDbVertex
100
AcDb2dVertex
 10
29.738495
 20
8.137316
 30
0.0
  0
VERTEX
  5
108
330
104
100
AcDbEntity
  8
LAYER_1
 62
     7
100
AcDbVertex
100
AcDb2dVertex
 10
29.738495
 20
10.903383
 30
0.0
  0
SEQEND
  5
109
330
104
100
AcDbEntity
  8
LAYER_1
 62
     7
  0
POLYLINE
  5
FB
330
28
100
AcDbEntity
  8
LAYER_1
 62
     7
100
AcDb2dPolyline
 66
     1
 10
0.0
 20
0.0
 30
0.0
  0
VERTEX
  5
FC
330
FB
100
AcDbEntity
  8
LAYER_1
 62
     7
100
AcDbVertex
100
AcDb2dVertex
 10
28.68998
 20
8.863542
 30
0.0
  0
VERTEX
  5
FD
330
FB
100
AcDbEntity
  8
LAYER_1
 62
     7
100
AcDbVertex
100
AcDb2dVertex
 10
28.705655
 20
8.729354999999998
 30
0.0
  0
VERTEX
  5
FE
330
FB
100
AcDbEntity
  8
LAYER_1
 62
     7
100
AcDbVertex
100
AcDb2dVertex
 10
28.75871
 20
8.601369999999999
 30
0.0
  0
VERTEX
  5
FF
330
FB
100
AcDbEntity
  8
LAYER_1
 62
     7
100
AcDbVertex
100
AcDb2dVertex
 10
28.842942
 20
8.49216
 30
0.0
  0
VERTEX
  5
100
330
FB
100
AcDbEntity
  8
LAYER_1
 62
     7
100
AcDbVertex
100
AcDb2dVertex
 10
28.952152
 20
8.407928
 30
0.0
  0
VERTEX
  5
101
330
FB
100
AcDbEntity
  8
LAYER_1
 62
     7
100
AcDbVertex
100
AcDb2dVertex
 10
29.077037
 20
8.354872999999999
 30
0.0
  0
VERTEX
  5
102
330
FB
100
AcDbEntity
  8
LAYER_1
 62
     7
100
AcDbVertex
100
AcDb2dVertex
 10
29.214324
 20
8.339369999999997
 30
0.0
  0
SEQEND
  5
103
330
FB
100
AcDbEntity
  8
LAYER_1
 62
     7
  0
POLYLINE
  5
F2
330
28
100
AcDbEntity
  8
LAYER_1
 62
     7
100
AcDb2dPolyline
 66
     1
 10
0.0
 20
0.0
 30
0.0
  0
VERTEX
  5
F3
330
F2
100
AcDbEntity
  8
LAYER_1
 62
     7
100
AcDbVertex
100
AcDb2dVertex
 10
28.293966
 20
-6.120900999999999
 30
0.0
  0
VERTEX
  5
F4
330
F2
100
AcDbEntity
  8
LAYER_1
 62
     7
100
AcDbVertex
100
AcDb2dVertex
 10
28.30344
 20
-6.186358
 30
0.0
  0
VERTEX
  5
F5
330
F2
100
AcDbEntity
  8
LAYER_1
 62
     7
100
AcDbVertex
100
AcDb2dVertex
 10
28.328417
 20
-6.251815
 30
0.0
  0
VERTEX
  5
F6
330
F2
100
AcDbEntity
  8
LAYER_1
 62
     7
100
AcDbVertex
100
AcDb2dVertex
 10
28.371998
 20
-6.304869
 30
0.0
  0
VERTEX
  5
F7
330
F2
100
AcDbEntity
  8
LAYER_1
 62
     7
100
AcDbVertex
100
AcDb2dVertex
 10
28.425052
 20
-6.345520999999998
 30
0.0
  0
VERTEX
  5
F8
330
F2
100
AcDbEntity
  8
LAYER_1
 62
     7
100
AcDbVertex
100
AcDb2dVertex
 10
28.490681
 20
-6.373598999999998
 30
0.0
  0
VERTEX
  5
F9
330
F2
100
AcDbEntity
  8
LAYER_1
 62
     7
100
AcDbVertex
100
AcDb2dVertex
 10
28.556138
 20
-6.382901
 30
0.0
  0
SEQEND
  5
FA
330
F2
100
AcDbEntity
  8
LAYER_1
 62
     7
  0
LINE
  5
F1
330
28
100
AcDbEntity
  8
LAYER_1
 62
     7
100
AcDbLine
 10
28.556138
 20
-6.382901
 30
0.0
 11
32.762427
 21
-6.382901
 31
0.0
  0
POLYLINE
  5
E8
330
28
100
AcDbEntity
  8
LAYER_1
 62
     7
100
AcDb2dPolyline
 66
     1
 10
0.0
 20
0.0
 30
0.0
  0
VERTEX
  5
E9
330
E8
100
AcDbEntity
  8
LAYER_1
 62
     7
100
AcDbVertex
100
AcDb2dVertex
 10
30.659369
 20
-6.382901
 30
0.0
  0
VERTEX
  5
EA
330
E8
100
AcDbEntity
  8
LAYER_1
 62
     7
100
AcDbVertex
100
AcDb2dVertex
 10
30.727926
 20
-6.373426999999998
 30
0.0
  0
VERTEX
  5
EB
330
E8
100
AcDbEntity
  8
LAYER_1
 62
     7
100
AcDbVertex
100
AcDb2dVertex
 10
30.790283
 20
-6.345348999999998
 30
0.0
  0
VERTEX
  5
EC
330
E8
100
AcDbEntity
  8
LAYER_1
 62
     7
100
AcDbVertex
100
AcDb2dVertex
 10
30.84661
 20
-6.304869
 30
0.0
  0
VERTEX
  5
ED
330
E8
100
AcDbEntity
  8
LAYER_1
 62
     7
100
AcDbVertex
100
AcDb2dVertex
 10
30.88709
 20
-6.251815
 30
0.0
  0
VERTEX
  5
EE
330
E8
100
AcDbEntity
  8
LAYER_1
 62
     7
100
AcDbVertex
100
AcDb2dVertex
 10
30.915167
 20
-6.186358
 30
0.0
  0
VERTEX
  5
EF
330
E8
100
AcDbEntity
  8
LAYER_1
 62
     7
100
AcDbVertex
100
AcDb2dVertex
 10
30.924469
 20
-6.120728999999998
 30
0.0
  0
SEQEND
  5
F0
330
E8
100
AcDbEntity
  8
LAYER_1
 62
     7
  0
LINE
  5
E7
330
28
100
AcDbEntity
  8
LAYER_1
 62
     7
100
AcDbLine
 10
30.924469
 20
-6.120728999999998
 30
0.0
 11
30.924469
 21
-2.956408999999998
 31
0.0
  0
LINE
  5
E6
330
28
100
AcDbEntity
  8
LAYER_1
 62
     7
100
AcDbLine
 10
30.970633
 20
-2.965883
 30
0.0
 11
32.762427
 21
-2.965883
 31
0.0
  0
POLYLINE
  5
DD
330
28
100
AcDbEntity
  8
LAYER_1
 62
     7
100
AcDb2dPolyline
 66
     1
 10
0.0
 20
0.0
 30
0.0
  0
VERTEX
  5
DE
330
DD
100
AcDbEntity
  8
LAYER_1
 62
     7
100
AcDbVertex
100
AcDb2dVertex
 10
32.762427
 20
-6.382901
 30
0.0
  0
VERTEX
  5
DF
330
DD
100
AcDbEntity
  8
LAYER_1
 62
     7
100
AcDbVertex
100
AcDb2dVertex
 10
32.831157
 20
-6.373426999999998
 30
0.0
  0
VERTEX
  5
E0
330
DD
100
AcDbEntity
  8
LAYER_1
 62
     7
100
AcDbVertex
100
AcDb2dVertex
 10
32.893513
 20
-6.345348999999998
 30
0.0
  0
VERTEX
  5
E1
330
DD
100
AcDbEntity
  8
LAYER_1
 62
     7
100
AcDbVertex
100
AcDb2dVertex
 10
32.949668
 20
-6.304869
 30
0.0
  0
VERTEX
  5
E2
330
DD
100
AcDbEntity
  8
LAYER_1
 62
     7
100
AcDbVertex
100
AcDb2dVertex
 10
32.990321
 20
-6.251815
 30
0.0
  0
VERTEX
  5
E3
330
DD
100
AcDbEntity
  8
LAYER_1
 62
     7
100
AcDbVertex
100
AcDb2dVertex
 10
33.018398
 20
-6.186358
 30
0.0
  0
VERTEX
  5
E4
330
DD
100
AcDbEntity
  8
LAYER_1
 62
     7
100
AcDbVertex
100
AcDb2dVertex
 10
33.02770000000001
 20
-6.120728999999998
 30
0.0
  0
SEQEND
  5
E5
330
DD
100
AcDbEntity
  8
LAYER_1
 62
     7
  0
POLYLINE
  5
D4
330
28
100
AcDbEntity
  8
LAYER_1
 62
     7
100
AcDb2dPolyline
 66
     1
 10
0.0
 20
0.0
 30
0.0
  0
VERTEX
  5
D5
330
D4
100
AcDbEntity
  8
LAYER_1
 62
     7
100
AcDbVertex
100
AcDb2dVertex
 10
32.762427
 20
-2.965883
 30
0.0
  0
VERTEX
  5
D6
330
D4
100
AcDbEntity
  8
LAYER_1
 62
     7
100
AcDbVertex
100
AcDb2dVertex
 10
32.831157
 20
-2.956581
 30
0.0
  0
VERTEX
  5
D7
330
D4
100
AcDbEntity
  8
LAYER_1
 62
     7
100
AcDbVertex
100
AcDb2dVertex
 10
32.893513
 20
-2.928503
 30
0.0
  0
VERTEX
  5
D8
330
D4
100
AcDbEntity
  8
LAYER_1
 62
     7
100
AcDbVertex
100
AcDb2dVertex
 10
32.949668
 20
-2.888024
 30
0.0
  0
VERTEX
  5
D9
330
D4
100
AcDbEntity
  8
LAYER_1
 62
     7
100
AcDbVertex
100
AcDb2dVertex
 10
32.990148
 20
-2.834969
 30
0.0
  0
VERTEX
  5
DA
330
D4
100
AcDbEntity
  8
LAYER_1
 62
     7
100
AcDbVertex
100
AcDb2dVertex
 10
33.018398
 20
-2.76934
 30
0.0
  0
VERTEX
  5
DB
330
D4
100
AcDbEntity
  8
LAYER_1
 62
     7
100
AcDbVertex
100
AcDb2dVertex
 10
33.02770000000001
 20
-2.700783
 30
0.0
  0
SEQEND
  5
DC
330
D4
100
AcDbEntity
  8
LAYER_1
 62
     7
  0
POLYLINE
  5
CB
330
28
100
AcDbEntity
  8
LAYER_1
 62
     7
100
AcDb2dPolyline
 66
     1
 10
0.0
 20
0.0
 30
0.0
  0
VERTEX
  5
CC
330
CB
100
AcDbEntity
  8
LAYER_1
 62
     7
100
AcDbVertex
100
AcDb2dVertex
 10
32.631342
 20
-4.017669999999998
 30
0.0
  0
VERTEX
  5
CD
330
CB
100
AcDbEntity
  8
LAYER_1
 62
     7
100
AcDbVertex
100
AcDb2dVertex
 10
32.61256599999999
 20
-3.880211
 30
0.0
  0
VERTEX
  5
CE
330
CB
100
AcDbEntity
  8
LAYER_1
 62
     7
100
AcDbVertex
100
AcDb2dVertex
 10
32.562612
 20
-3.752398
 30
0.0
  0
VERTEX
  5
CF
330
CB
100
AcDbEntity
  8
LAYER_1
 62
     7
100
AcDbVertex
100
AcDb2dVertex
 10
32.475279
 20
-3.643187999999998
 30
0.0
  0
VERTEX
  5
D0
330
CB
100
AcDbEntity
  8
LAYER_1
 62
     7
100
AcDbVertex
100
AcDb2dVertex
 10
32.36917
 20
-3.561883999999998
 30
0.0
  0
VERTEX
  5
D1
330
CB
100
AcDbEntity
  8
LAYER_1
 62
     7
100
AcDbVertex
100
AcDb2dVertex
 10
32.241357
 20
-3.50883
 30
0.0
  0
VERTEX
  5
D2
330
CB
100
AcDbEntity
  8
LAYER_1
 62
     7
100
AcDbVertex
100
AcDb2dVertex
 10
32.10717000000001
 20
-3.490226
 30
0.0
  0
SEQEND
  5
D3
330
CB
100
AcDbEntity
  8
LAYER_1
 62
     7
  0
POLYLINE
  5
C2
330
28
100
AcDbEntity
  8
LAYER_1
 62
     7
100
AcDb2dPolyline
 66
     1
 10
0.0
 20
0.0
 30
0.0
  0
VERTEX
  5
C3
330
C2
100
AcDbEntity
  8
LAYER_1
 62
     7
100
AcDbVertex
100
AcDb2dVertex
 10
32.10717000000001
 20
-3.490226
 30
0.0
  0
VERTEX
  5
C4
330
C2
100
AcDbEntity
  8
LAYER_1
 62
     7
100
AcDbVertex
100
AcDb2dVertex
 10
31.96988300000001
 20
-3.50883
 30
0.0
  0
VERTEX
  5
C5
330
C2
100
AcDbEntity
  8
LAYER_1
 62
     7
100
AcDbVertex
100
AcDb2dVertex
 10
31.841898
 20
-3.562055999999998
 30
0.0
  0
VERTEX
  5
C6
330
C2
100
AcDbEntity
  8
LAYER_1
 62
     7
100
AcDbVertex
100
AcDb2dVertex
 10
31.735789
 20
-3.643187999999998
 30
0.0
  0
VERTEX
  5
C7
330
C2
100
AcDbEntity
  8
LAYER_1
 62
     7
100
AcDbVertex
100
AcDb2dVertex
 10
31.651556
 20
-3.752398
 30
0.0
  0
VERTEX
  5
C8
330
C2
100
AcDbEntity
  8
LAYER_1
 62
     7
100
AcDbVertex
100
AcDb2dVertex
 10
31.59850200000001
 20
-3.880383
 30
0.0
  0
VERTEX
  5
C9
330
C2
100
AcDbEntity
  8
LAYER_1
 62
     7
100
AcDbVertex
100
AcDb2dVertex
 10
31.579726
 20
-4.017669999999998
 30
0.0
  0
SEQEND
  5
CA
330
C2
100
AcDbEntity
  8
LAYER_1
 62
     7
  0
POLYLINE
  5
B9
330
28
100
AcDbEntity
  8
LAYER_1
 62
     7
100
AcDb2dPolyline
 66
     1
 10
0.0
 20
0.0
 30
0.0
  0
VERTEX
  5
BA
330
B9
100
AcDbEntity
  8
LAYER_1
 62
     7
100
AcDbVertex
100
AcDb2dVertex
 10
32.10717000000001
 20
-5.855629
 30
0.0
  0
VERTEX
  5
BB
330
B9
100
AcDbEntity
  8
LAYER_1
 62
     7
100
AcDbVertex
100
AcDb2dVertex
 10
32.241357
 20
-5.839953999999998
 30
0.0
  0
VERTEX
  5
BC
330
B9
100
AcDbEntity
  8
LAYER_1
 62
     7
100
AcDbVertex
100
AcDb2dVertex
 10
32.369342
 20
-5.786899
 30
0.0
  0
VERTEX
  5
BD
330
B9
100
AcDbEntity
  8
LAYER_1
 62
     7
100
AcDbVertex
100
AcDb2dVertex
 10
32.475451
 20
-5.702666999999999
 30
0.0
  0
VERTEX
  5
BE
330
B9
100
AcDbEntity
  8
LAYER_1
 62
     7
100
AcDbVertex
100
AcDb2dVertex
 10
32.562784
 20
-5.593456999999999
 30
0.0
  0
VERTEX
  5
BF
330
B9
100
AcDbEntity
  8
LAYER_1
 62
     7
100
AcDbVertex
100
AcDb2dVertex
 10
32.61256599999999
 20
-5.465472
 30
0.0
  0
VERTEX
  5
C0
330
B9
100
AcDbEntity
  8
LAYER_1
 62
     7
100
AcDbVertex
100
AcDb2dVertex
 10
32.631342
 20
-5.331285
 30
0.0
  0
SEQEND
  5
C1
330
B9
100
AcDbEntity
  8
LAYER_1
 62
     7
  0
POLYLINE
  5
B0
330
28
100
AcDbEntity
  8
LAYER_1
 62
     7
100
AcDb2dPolyline
 66
     1
 10
0.0
 20
0.0
 30
0.0
  0
VERTEX
  5
B1
330
B0
100
AcDbEntity
  8
LAYER_1
 62
     7
100
AcDbVertex
100
AcDb2dVertex
 10
31.579726
 20
-5.331285
 30
0.0
  0
VERTEX
  5
B2
330
B0
100
AcDbEntity
  8
LAYER_1
 62
     7
100
AcDbVertex
100
AcDb2dVertex
 10
31.59850200000001
 20
-5.465472
 30
0.0
  0
VERTEX
  5
B3
330
B0
100
AcDbEntity
  8
LAYER_1
 62
     7
100
AcDbVertex
100
AcDb2dVertex
 10
31.651556
 20
-5.593456999999999
 30
0.0
  0
VERTEX
  5
B4
330
B0
100
AcDbEntity
  8
LAYER_1
 62
     7
100
AcDbVertex
100
AcDb2dVertex
 10
31.735789
 20
-5.702666999999999
 30
0.0
  0
VERTEX
  5
B5
330
B0
100
AcDbEntity
  8
LAYER_1
 62
     7
100
AcDbVertex
100
AcDb2dVertex
 10
31.841898
 20
-5.786899
 30
0.0
  0
VERTEX
  5
B6
330
B0
100
AcDbEntity
  8
LAYER_1
 62
     7
100
AcDbVertex
100
AcDb2dVertex
 10
31.96988300000001
 20
-5.839953999999998
 30
0.0
  0
VERTEX
  5
B7
330
B0
100
AcDbEntity
  8
LAYER_1
 62
     7
100
AcDbVertex
100
AcDb2dVertex
 10
32.10717000000001
 20
-5.855629
 30
0.0
  0
SEQEND
  5
B8
330
B0
100
AcDbEntity
  8
LAYER_1
 62
     7
  0
POLYLINE
  5
AA
330
28
100
AcDbEntity
  8
LAYER_1
 62
     7
100
AcDb2dPolyline
 66
     1
 10
0.0
 20
0.0
 30
0.0
 70
     1
  0
VERTEX
  5
AB
330
AA
100
AcDbEntity
  8
LAYER_1
 62
     7
100
AcDbVertex
100
AcDb2dVertex
 10
32.631342
 20
-3.291444
 30
0.0
  0
VERTEX
  5
AC
330
AA
100
AcDbEntity
  8
LAYER_1
 62
     7
100
AcDbVertex
100
AcDb2dVertex
 10
32.631342
 20
-6.057510999999998
 30
0.0
  0
VERTEX
  5
AD
330
AA
100
AcDbEntity
  8
LAYER_1
 62
     7
100
AcDbVertex
100
AcDb2dVertex
 10
31.579726
 20
-6.057510999999998
 30
0.0
  0
VERTEX
  5
AE
330
AA
100
AcDbEntity
  8
LAYER_1
 62
     7
100
AcDbVertex
100
AcDb2dVertex
 10
31.579726
 20
-3.291444
 30
0.0
  0
SEQEND
  5
AF
330
AA
100
AcDbEntity
  8
LAYER_1
 62
     7
  0
POLYLINE
  5
8F
330
28
100
AcDbEntity
  8
LAYER_1
 62
     7
100
AcDb2dPolyline
 66
     1
 10
0.0
 20
0.0
 30
0.0
  0
VERTEX
  5
90
330
8F
100
AcDbEntity
  8
LAYER_1
 62
     7
100
AcDbVertex
100
AcDb2dVertex
 10
31.448468
 20
4.788337999999998
 30
0.0
  0
VERTEX
  5
91
330
8F
100
AcDbEntity
  8
LAYER_1
 62
     7
100
AcDbVertex
100
AcDb2dVertex
 10
31.685663
 20
4.819516
 30
0.0
  0
VERTEX
  5
92
330
8F
100
AcDbEntity
  8
LAYER_1
 62
     7
100
AcDbVertex
100
AcDb2dVertex
 10
31.907355
 20
4.913051
 30
0.0
  0
VERTEX
  5
93
330
8F
100
AcDbEntity
  8
LAYER_1
 62
     7
100
AcDbVertex
100
AcDb2dVertex
 10
32.100797
 20
5.059811999999999
 30
0.0
  0
VERTEX
  5
94
330
8F
100
AcDbEntity
  8
LAYER_1
 62
     7
100
AcDbVertex
100
AcDb2dVertex
 10
32.244285
 20
5.250153
 30
0.0
  0
VERTEX
  5
95
330
8F
100
AcDbEntity
  8
LAYER_1
 62
     7
100
AcDbVertex
100
AcDb2dVertex
 10
32.337819
 20
5.471673
 30
0.0
  0
VERTEX
  5
96
330
8F
100
AcDbEntity
  8
LAYER_1
 62
     7
100
AcDbVertex
100
AcDb2dVertex
 10
32.368998
 20
5.708867999999998
 30
0.0
  0
VERTEX
  5
97
330
8F
100
AcDbEntity
  8
LAYER_1
 62
     7
100
AcDbVertex
100
AcDb2dVertex
 10
32.337819
 20
5.949162999999998
 30
0.0
  0
VERTEX
  5
98
330
8F
100
AcDbEntity
  8
LAYER_1
 62
     7
100
AcDbVertex
100
AcDb2dVertex
 10
32.244285
 20
6.170683
 30
0.0
  0
VERTEX
  5
99
330
8F
100
AcDbEntity
  8
LAYER_1
 62
     7
100
AcDbVertex
100
AcDb2dVertex
 10
32.100797
 20
6.361023999999998
 30
0.0
  0
VERTEX
  5
9A
330
8F
100
AcDbEntity
  8
LAYER_1
 62
     7
100
AcDbVertex
100
AcDb2dVertex
 10
31.907355
 20
6.507613
 30
0.0
  0
VERTEX
  5
9B
330
8F
100
AcDbEntity
  8
LAYER_1
 62
     7
100
AcDbVertex
100
AcDb2dVertex
 10
31.685663
 20
6.598047
 30
0.0
  0
VERTEX
  5
9C
330
8F
100
AcDbEntity
  8
LAYER_1
 62
     7
100
AcDbVertex
100
AcDb2dVertex
 10
31.448468
 20
6.629224999999999
 30
0.0
  0
VERTEX
  5
9D
330
8F
100
AcDbEntity
  8
LAYER_1
 62
     7
100
AcDbVertex
100
AcDb2dVertex
 10
31.211445
 20
6.598047
 30
0.0
  0
VERTEX
  5
9E
330
8F
100
AcDbEntity
  8
LAYER_1
 62
     7
100
AcDbVertex
100
AcDb2dVertex
 10
30.989754
 20
6.507613
 30
0.0
  0
VERTEX
  5
9F
330
8F
100
AcDbEntity
  8
LAYER_1
 62
     7
100
AcDbVertex
100
AcDb2dVertex
 10
30.799412
 20
6.361023999999998
 30
0.0
  0
VERTEX
  5
A0
330
8F
100
AcDbEntity
  8
LAYER_1
 62
     7
100
AcDbVertex
100
AcDb2dVertex
 10
30.652823
 20
6.170683
 30
0.0
  0
VERTEX
  5
A1
330
8F
100
AcDbEntity
  8
LAYER_1
 62
     7
100
AcDbVertex
100
AcDb2dVertex
 10
30.559289
 20
5.948991
 30
0.0
  0
VERTEX
  5
A2
330
8F
100
AcDbEntity
  8
LAYER_1
 62
     7
100
AcDbVertex
100
AcDb2dVertex
 10
30.528111
 20
5.708867999999998
 30
0.0
  0
VERTEX
  5
A3
330
8F
100
AcDbEntity
  8
LAYER_1
 62
     7
100
AcDbVertex
100
AcDb2dVertex
 10
30.559289
 20
5.471673
 30
0.0
  0
VERTEX
  5
A4
330
8F
100
AcDbEntity
  8
LAYER_1
 62
     7
100
AcDbVertex
100
AcDb2dVertex
 10
30.652823
 20
5.249981
 30
0.0
  0
VERTEX
  5
A5
330
8F
100
AcDbEntity
  8
LAYER_1
 62
     7
100
AcDbVertex
100
AcDb2dVertex
 10
30.79958400000001
 20
5.059811999999999
 30
0.0
  0
VERTEX
  5
A6
330
8F
100
AcDbEntity
  8
LAYER_1
 62
     7
100
AcDbVertex
100
AcDb2dVertex
 10
30.989926
 20
4.913051
 30
0.0
  0
VERTEX
  5
A7
330
8F
100
AcDbEntity
  8
LAYER_1
 62
     7
100
AcDbVertex
100
AcDb2dVertex
 10
31.211445
 20
4.819516
 30
0.0
  0
VERTEX
  5
A8
330
8F
100
AcDbEntity
  8
LAYER_1
 62
     7
100
AcDbVertex
100
AcDb2dVertex
 10
31.448468
 20
4.788337999999998
 30
0.0
  0
SEQEND
  5
A9
330
8F
100
AcDbEntity
  8
LAYER_1
 62
     7
  0
POLYLINE
  5
74
330
28
100
AcDbEntity
  8
LAYER_1
 62
     7
100
AcDb2dPolyline
 66
     1
 10
0.0
 20
0.0
 30
0.0
  0
VERTEX
  5
75
330
74
100
AcDbEntity
  8
LAYER_1
 62
     7
100
AcDbVertex
100
AcDb2dVertex
 10
-21.152972
 20
1.475534
 30
0.0
  0
VERTEX
  5
76
330
74
100
AcDbEntity
  8
LAYER_1
 62
     7
100
AcDbVertex
100
AcDb2dVertex
 10
-20.915778
 20
1.506712999999999
 30
0.0
  0
VERTEX
  5
77
330
74
100
AcDbEntity
  8
LAYER_1
 62
     7
100
AcDbVertex
100
AcDb2dVertex
 10
-20.694258
 20
1.600246999999999
 30
0.0
  0
VERTEX
  5
78
330
74
100
AcDbEntity
  8
LAYER_1
 62
     7
100
AcDbVertex
100
AcDb2dVertex
 10
-20.500644
 20
1.747008
 30
0.0
  0
VERTEX
  5
79
330
74
100
AcDbEntity
  8
LAYER_1
 62
     7
100
AcDbVertex
100
AcDb2dVertex
 10
-20.357155
 20
1.937349
 30
0.0
  0
VERTEX
  5
7A
330
74
100
AcDbEntity
  8
LAYER_1
 62
     7
100
AcDbVertex
100
AcDb2dVertex
 10
-20.263621
 20
2.158868999999999
 30
0.0
  0
VERTEX
  5
7B
330
74
100
AcDbEntity
  8
LAYER_1
 62
     7
100
AcDbVertex
100
AcDb2dVertex
 10
-20.232443
 20
2.396063999999999
 30
0.0
  0
VERTEX
  5
7C
330
74
100
AcDbEntity
  8
LAYER_1
 62
     7
100
AcDbVertex
100
AcDb2dVertex
 10
-20.263621
 20
2.636359
 30
0.0
  0
VERTEX
  5
7D
330
74
100
AcDbEntity
  8
LAYER_1
 62
     7
100
AcDbVertex
100
AcDb2dVertex
 10
-20.357155
 20
2.857879
 30
0.0
  0
VERTEX
  5
7E
330
74
100
AcDbEntity
  8
LAYER_1
 62
     7
100
AcDbVertex
100
AcDb2dVertex
 10
-20.500816
 20
3.04822
 30
0.0
  0
VERTEX
  5
7F
330
74
100
AcDbEntity
  8
LAYER_1
 62
     7
100
AcDbVertex
100
AcDb2dVertex
 10
-20.694258
 20
3.194809
 30
0.0
  0
VERTEX
  5
80
330
74
100
AcDbEntity
  8
LAYER_1
 62
     7
100
AcDbVertex
100
AcDb2dVertex
 10
-20.915778
 20
3.285414999999998
 30
0.0
  0
VERTEX
  5
81
330
74
100
AcDbEntity
  8
LAYER_1
 62
     7
100
AcDbVertex
100
AcDb2dVertex
 10
-21.152972
 20
3.316593
 30
0.0
  0
VERTEX
  5
82
330
74
100
AcDbEntity
  8
LAYER_1
 62
     7
100
AcDbVertex
100
AcDb2dVertex
 10
-21.390167
 20
3.285414999999998
 30
0.0
  0
VERTEX
  5
83
330
74
100
AcDbEntity
  8
LAYER_1
 62
     7
100
AcDbVertex
100
AcDb2dVertex
 10
-21.611687
 20
3.194809
 30
0.0
  0
VERTEX
  5
84
330
74
100
AcDbEntity
  8
LAYER_1
 62
     7
100
AcDbVertex
100
AcDb2dVertex
 10
-21.802028
 20
3.04822
 30
0.0
  0
VERTEX
  5
85
330
74
100
AcDbEntity
  8
LAYER_1
 62
     7
100
AcDbVertex
100
AcDb2dVertex
 10
-21.948617
 20
2.857879
 30
0.0
  0
VERTEX
  5
86
330
74
100
AcDbEntity
  8
LAYER_1
 62
     7
100
AcDbVertex
100
AcDb2dVertex
 10
-22.042152
 20
2.636359
 30
0.0
  0
VERTEX
  5
87
330
74
100
AcDbEntity
  8
LAYER_1
 62
     7
100
AcDbVertex
100
AcDb2dVertex
 10
-22.073502
 20
2.396063999999999
 30
0.0
  0
VERTEX
  5
88
330
74
100
AcDbEntity
  8
LAYER_1
 62
     7
100
AcDbVertex
100
AcDb2dVertex
 10
-22.042152
 20
2.158868999999999
 30
0.0
  0
VERTEX
  5
89
330
74
100
AcDbEntity
  8
LAYER_1
 62
     7
100
AcDbVertex
100
AcDb2dVertex
 10
-21.948617
 20
1.937349
 30
0.0
  0
VERTEX
  5
8A
330
74
100
AcDbEntity
  8
LAYER_1
 62
     7
100
AcDbVertex
100
AcDb2dVertex
 10
-21.802028
 20
1.747008
 30
0.0
  0
VERTEX
  5
8B
330
74
100
AcDbEntity
  8
LAYER_1
 62
     7
100
AcDbVertex
100
AcDb2dVertex
 10
-21.611515
 20
1.600246999999999
 30
0.0
  0
VERTEX
  5
8C
330
74
100
AcDbEntity
  8
LAYER_1
 62
     7
100
AcDbVertex
100
AcDb2dVertex
 10
-21.390167
 20
1.506712999999999
 30
0.0
  0
VERTEX
  5
8D
330
74
100
AcDbEntity
  8
LAYER_1
 62
     7
100
AcDbVertex
100
AcDb2dVertex
 10
-21.152972
 20
1.475534
 30
0.0
  0
SEQEND
  5
8E
330
74
100
AcDbEntity
  8
LAYER_1
 62
     7
  0
POLYLINE
  5
59
330
28
100
AcDbEntity
  8
LAYER_1
 62
     7
100
AcDb2dPolyline
 66
     1
 10
0.0
 20
0.0
 30
0.0
  0
VERTEX
  5
5A
330
59
100
AcDbEntity
  8
LAYER_1
 62
     7
100
AcDbVertex
100
AcDb2dVertex
 10
16.646615
 20
4.788337999999998
 30
0.0
  0
VERTEX
  5
5B
330
59
100
AcDbEntity
  8
LAYER_1
 62
     7
100
AcDbVertex
100
AcDb2dVertex
 10
16.88381
 20
4.819516
 30
0.0
  0
VERTEX
  5
5C
330
59
100
AcDbEntity
  8
LAYER_1
 62
     7
100
AcDbVertex
100
AcDb2dVertex
 10
17.105502
 20
4.913051
 30
0.0
  0
VERTEX
  5
5D
330
59
100
AcDbEntity
  8
LAYER_1
 62
     7
100
AcDbVertex
100
AcDb2dVertex
 10
17.298944
 20
5.059811999999999
 30
0.0
  0
VERTEX
  5
5E
330
59
100
AcDbEntity
  8
LAYER_1
 62
     7
100
AcDbVertex
100
AcDb2dVertex
 10
17.442432
 20
5.250153
 30
0.0
  0
VERTEX
  5
5F
330
59
100
AcDbEntity
  8
LAYER_1
 62
     7
100
AcDbVertex
100
AcDb2dVertex
 10
17.535967
 20
5.471673
 30
0.0
  0
VERTEX
  5
60
330
59
100
AcDbEntity
  8
LAYER_1
 62
     7
100
AcDbVertex
100
AcDb2dVertex
 10
17.567145
 20
5.708867999999998
 30
0.0
  0
VERTEX
  5
61
330
59
100
AcDbEntity
  8
LAYER_1
 62
     7
100
AcDbVertex
100
AcDb2dVertex
 10
17.535967
 20
5.949162999999998
 30
0.0
  0
VERTEX
  5
62
330
59
100
AcDbEntity
  8
LAYER_1
 62
     7
100
AcDbVertex
100
AcDb2dVertex
 10
17.442432
 20
6.170683
 30
0.0
  0
VERTEX
  5
63
330
59
100
AcDbEntity
  8
LAYER_1
 62
     7
100
AcDbVertex
100
AcDb2dVertex
 10
17.298772
 20
6.361023999999998
 30
0.0
  0
VERTEX
  5
64
330
59
100
AcDbEntity
  8
LAYER_1
 62
     7
100
AcDbVertex
100
AcDb2dVertex
 10
17.10533
 20
6.507613
 30
0.0
  0
VERTEX
  5
65
330
59
100
AcDbEntity
  8
LAYER_1
 62
     7
100
AcDbVertex
100
AcDb2dVertex
 10
16.88381
 20
6.598047
 30
0.0
  0
VERTEX
  5
66
330
59
100
AcDbEntity
  8
LAYER_1
 62
     7
100
AcDbVertex
100
AcDb2dVertex
 10
16.646615
 20
6.629224999999999
 30
0.0
  0
VERTEX
  5
67
330
59
100
AcDbEntity
  8
LAYER_1
 62
     7
100
AcDbVertex
100
AcDb2dVertex
 10
16.409593
 20
6.598047
 30
0.0
  0
VERTEX
  5
68
330
59
100
AcDbEntity
  8
LAYER_1
 62
     7
100
AcDbVertex
100
AcDb2dVertex
 10
16.187901
 20
6.507613
 30
0.0
  0
VERTEX
  5
69
330
59
100
AcDbEntity
  8
LAYER_1
 62
     7
100
AcDbVertex
100
AcDb2dVertex
 10
15.997559
 20
6.361023999999998
 30
0.0
  0
VERTEX
  5
6A
330
59
100
AcDbEntity
  8
LAYER_1
 62
     7
100
AcDbVertex
100
AcDb2dVertex
 10
15.85097
 20
6.170683
 30
0.0
  0
VERTEX
  5
6B
330
59
100
AcDbEntity
  8
LAYER_1
 62
     7
100
AcDbVertex
100
AcDb2dVertex
 10
15.757436
 20
5.948991
 30
0.0
  0
VERTEX
  5
6C
330
59
100
AcDbEntity
  8
LAYER_1
 62
     7
100
AcDbVertex
100
AcDb2dVertex
 10
15.726086
 20
5.708867999999998
 30
0.0
  0
VERTEX
  5
6D
330
59
100
AcDbEntity
  8
LAYER_1
 62
     7
100
AcDbVertex
100
AcDb2dVertex
 10
15.757436
 20
5.471673
 30
0.0
  0
VERTEX
  5
6E
330
59
100
AcDbEntity
  8
LAYER_1
 62
     7
100
AcDbVertex
100
AcDb2dVertex
 10
15.85097
 20
5.249981
 30
0.0
  0
VERTEX
  5
6F
330
59
100
AcDbEntity
  8
LAYER_1
 62
     7
100
AcDbVertex
100
AcDb2dVertex
 10
15.997559
 20
5.059811999999999
 30
0.0
  0
VERTEX
  5
70
330
59
100
AcDbEntity
  8
LAYER_1
 62
     7
100
AcDbVertex
100
AcDb2dVertex
 10
16.188073
 20
4.913051
 30
0.0
  0
VERTEX
  5
71
330
59
100
AcDbEntity
  8
LAYER_1
 62
     7
100
AcDbVertex
100
AcDb2dVertex
 10
16.409593
 20
4.819516
 30
0.0
  0
VERTEX
  5
72
330
59
100
AcDbEntity
  8
LAYER_1
 62
     7
100
AcDbVertex
100
AcDb2dVertex
 10
16.646615
 20
4.788337999999998
 30
0.0
  0
SEQEND
  5
73
330
59
100
AcDbEntity
  8
LAYER_1
 62
     7
  0
LINE
  5
58
330
28
100
AcDbEntity
  8
LAYER_1
 62
     7
100
AcDbLine
 10
28.293622
 20
14.146251
 30
0.0
 11
28.293794
 21
0.887629
 31
0.0
  0
LINE
  5
57
330
28
100
AcDbEntity
  8
LAYER_1
 62
     7
100
AcDbLine
 10
15.244289
 20
17.033241
 30
0.0
 11
19.188579
 21
17.033241
 31
0.0
  0
LINE
  5
56
330
28
100
AcDbEntity
  8
LAYER_1
 62
     7
100
AcDbLine
 10
15.244289
 20
15.716353
 30
0.0
 11
15.244289
 21
17.033241
 31
0.0
  0
LINE
  5
55
330
28
100
AcDbEntity
  8
LAYER_1
 62
     7
100
AcDbLine
 10
17.216434
 20
15.716353
 30
0.0
 11
17.216434
 21
17.033241
 31
0.0
  0
LINE
  5
54
330
28
100
AcDbEntity
  8
LAYER_1
 62
     7
100
AcDbLine
 10
19.188579
 20
17.033241
 30
0.0
 11
19.188579
 21
15.716526
 31
0.0
  0
POLYLINE
  5
4E
330
28
100
AcDbEntity
  8
LAYER_1
 62
     7
100
AcDb2dPolyline
 66
     1
 10
0.0
 20
0.0
 30
0.0
  0
VERTEX
  5
4F
330
4E
100
AcDbEntity
  8
LAYER_1
 62
     7
100
AcDbVertex
100
AcDb2dVertex
 10
18.808413
 20
17.18258599999999
 30
0.0
  0
VERTEX
  5
50
330
4E
100
AcDbEntity
  8
LAYER_1
 62
     7
100
AcDbVertex
100
AcDb2dVertex
 10
18.80824
 20
19.965706
 30
0.0
  0
VERTEX
  5
51
330
4E
100
AcDbEntity
  8
LAYER_1
 62
     7
100
AcDbVertex
100
AcDb2dVertex
 10
15.708344
 20
19.965706
 30
0.0
  0
VERTEX
  5
52
330
4E
100
AcDbEntity
  8
LAYER_1
 62
     7
100
AcDbVertex
100
AcDb2dVertex
 10
15.708344
 20
17.18258599999999
 30
0.0
  0
SEQEND
  5
53
330
4E
100
AcDbEntity
  8
LAYER_1
 62
     7
  0
LINE
  5
4D
330
28
100
AcDbEntity
  8
LAYER_1
 62
     7
100
AcDbLine
 10
18.80824
 20
19.462895
 30
0.0
 11
15.708344
 21
19.462895
 31
0.0
  0
LINE
  5
4C
330
28
100
AcDbEntity
  8
LAYER_1
 62
     7
100
AcDbLine
 10
18.80824
 20
18.960255
 30
0.0
 11
15.708344
 21
18.960255
 31
0.0
  0
LINE
  5
4B
330
28
100
AcDbEntity
  8
LAYER_1
 62
     7
100
AcDbLine
 10
18.80824
 20
18.457616
 30
0.0
 11
15.708344
 21
18.457616
 31
0.0
  0
LINE
  5
4A
330
28
100
AcDbEntity
  8
LAYER_1
 62
     7
100
AcDbLine
 10
18.80824
 20
17.954804
 30
0.0
 11
15.708344
 21
17.954804
 31
0.0
  0
LINE
  5
49
330
28
100
AcDbEntity
  8
LAYER_1
 62
     7
100
AcDbLine
 10
18.80824
 20
17.452165
 30
0.0
 11
15.708344
 21
17.452165
 31
0.0
  0
LINE
  5
48
330
28
100
AcDbEntity
  8
LAYER_1
 62
     7
100
AcDbLine
 10
28.649845
 20
17.033241
 30
0.0
 11
32.593962
 21
17.033241
 31
0.0
  0
LINE
  5
47
330
28
100
AcDbEntity
  8
LAYER_1
 62
     7
100
AcDbLine
 10
28.649845
 20
15.716353
 30
0.0
 11
28.649845
 21
17.033241
 31
0.0
  0
LINE
  5
46
330
28
100
AcDbEntity
  8
LAYER_1
 62
     7
100
AcDbLine
 10
30.62199000000001
 20
15.716353
 30
0.0
 11
30.62199000000001
 21
17.033241
 31
0.0
  0
LINE
  5
45
330
28
100
AcDbEntity
  8
LAYER_1
 62
     7
100
AcDbLine
 10
32.593962
 20
17.033241
 30
0.0
 11
32.593962
 21
15.716526
 31
0.0
  0
POLYLINE
  5
3F
330
28
100
AcDbEntity
  8
LAYER_1
 62
     7
100
AcDb2dPolyline
 66
     1
 10
0.0
 20
0.0
 30
0.0
  0
VERTEX
  5
40
330
3F
100
AcDbEntity
  8
LAYER_1
 62
     7
100
AcDbVertex
100
AcDb2dVertex
 10
32.21379600000001
 20
17.18258599999999
 30
0.0
  0
VERTEX
  5
41
330
3F
100
AcDbEntity
  8
LAYER_1
 62
     7
100
AcDbVertex
100
AcDb2dVertex
 10
32.21379600000001
 20
19.965706
 30
0.0
  0
VERTEX
  5
42
330
3F
100
AcDbEntity
  8
LAYER_1
 62
     7
100
AcDbVertex
100
AcDb2dVertex
 10
29.113727
 20
19.965706
 30
0.0
  0
VERTEX
  5
43
330
3F
100
AcDbEntity
  8
LAYER_1
 62
     7
100
AcDbVertex
100
AcDb2dVertex
 10
29.113899
 20
17.18258599999999
 30
0.0
  0
SEQEND
  5
44
330
3F
100
AcDbEntity
  8
LAYER_1
 62
     7
  0
LINE
  5
3E
330
28
100
AcDbEntity
  8
LAYER_1
 62
     7
100
AcDbLine
 10
32.21379600000001
 20
19.462895
 30
0.0
 11
29.113727
 21
19.462895
 31
0.0
  0
LINE
  5
3D
330
28
100
AcDbEntity
  8
LAYER_1
 62
     7
100
AcDbLine
 10
32.21379600000001
 20
18.960255
 30
0.0
 11
29.113727
 21
18.960255
 31
0.0
  0
LINE
  5
3C
330
28
100
AcDbEntity
  8
LAYER_1
 62
     7
100
AcDbLine
 10
32.21379600000001
 20
18.457616
 30
0.0
 11
29.113727
 21
18.457616
 31
0.0
  0
LINE
  5
3B
330
28
100
AcDbEntity
  8
LAYER_1
 62
     7
100
AcDbLine
 10
32.21379600000001
 20
17.954804
 30
0.0
 11
29.113727
 21
17.954804
 31
0.0
  0
LINE
  5
3A
330
28
100
AcDbEntity
  8
LAYER_1
 62
     7
100
AcDbLine
 10
32.21379600000001
 20
17.452165
 30
0.0
 11
29.113727
 21
17.452165
 31
0.0
  0
MTEXT
  5
39
330
28
100
AcDbEntity
  8
LAYER_1
 62
     7
100
AcDbMText
 10
19.479345
 20
-7.496986999999998
 30
0.0
 40
1.745515
 41
0.0
 71
     1
 72
     2
  1
\fGill Sans|b0|i0;(0.28)
  7
STD
 73
     1
 44
1.0
1001
ACAD
1000
MTEXTBEGIN
1070
    73
1070
     1
1070
    44
1040
1.0
1070
    74
1070
     0
1000
MTEXTEND
  0
MTEXT
  5
38
330
28
100
AcDbEntity
  8
LAYER_1
 62
     7
100
AcDbMText
 10
21.666981
 20
-5.151048999999998
 30
0.0
 40
1.745515
 41
0.0
 71
     1
 72
     2
  1
\fGill Sans|b0|i0;7
  7
STD
 73
     1
 44
1.0
1001
ACAD
1000
MTEXTBEGIN
1070
    73
1070
     1
1070
    44
1040
1.0
1070
    74
1070
     0
1000
MTEXTEND
  0
MTEXT
  5
37
330
28
100
AcDbEntity
  8
LAYER_1
 62
     7
100
AcDbMText
 10
38.719514
 20
18.825954
 30
0.0
 40
1.745515
 41
0.0
 71
     1
 72
     2
  1
\fGill Sans|b0|i0;13 (0.51)
  7
STD
 73
     1
 44
1.0
1001
ACAD
1000
MTEXTBEGIN
1070
    73
1070
     1
1070
    44
1040
1.0
1070
    74
1070
     0
1000
MTEXTEND
  0
MTEXT
  5
36
330
28
100
AcDbEntity
  8
LAYER_1
 62
     7
100
AcDbMText
 10
36.468661
 20
-8.449728
 30
0.0
 40
1.745515
 41
0.0
 71
     1
 72
     2
  1
\fGill Sans|b0|i0;4 (0.16)
  7
STD
 73
     1
 44
1.0
1001
ACAD
1000
MTEXTBEGIN
1070
    73
1070
     1
1070
    44
1040
1.0
1070
    74
1070
     0
1000
MTEXTEND
  0
MTEXT
  5
35
330
28
100
AcDbEntity
  8
LAYER_1
 62
     7
100
AcDbMText
 10
23.333546
 20
-9.500481999999999
 30
0.0
 40
1.745515
 41
0.0
 71
     1
 72
     2
  1
\fGill Sans|b0|i0;(0.16)
  7
STD
 73
     1
 44
1.0
1001
ACAD
1000
MTEXTBEGIN
1070
    73
1070
     1
1070
    44
1040
1.0
1070
    74
1070
     0
1000
MTEXTEND
  0
MTEXT
  5
34
330
28
100
AcDbEntity
  8
LAYER_1
 62
     7
100
AcDbMText
 10
25.521181
 20
-7.154544999999998
 30
0.0
 40
1.745515
 41
0.0
 71
     1
 72
     2
  1
\fGill Sans|b0|i0;4
  7
STD
 73
     1
 44
1.0
1001
ACAD
1000
MTEXTBEGIN
1070
    73
1070
     1
1070
    44
1040
1.0
1070
    74
1070
     0
1000
MTEXTEND
  0
MTEXT
  5
33
330
28
100
AcDbEntity
  8
LAYER_1
 62
     7
100
AcDbMText
 10
35.327416
 20
-4.972822999999999
 30
0.0
 40
1.745515
 41
0.0
 71
     1
 72
     2
  1
\fGill Sans|b0|i0;46 (1.81)
  7
STD
 11
0.0
 21
1.0
 31
0.0
 73
     1
 44
1.0
1001
ACAD
1000
MTEXTBEGIN
1070
    73
1070
     1
1070
    44
1040
1.0
1070
    74
1070
     0
1000
MTEXTEND
  0
MTEXT
  5
32
330
28
100
AcDbEntity
  8
LAYER_1
 62
     7
100
AcDbMText
 10
-32.02552199999999
 20
16.56717699999999
 30
0.0
 40
1.745515
 41
0.0
 71
     1
 72
     2
  1
\fGill Sans|b0|i0;7 (0.28)
  7
STD
 73
     1
 44
1.0
1001
ACAD
1000
MTEXTBEGIN
1070
    73
1070
     1
1070
    44
1040
1.0
1070
    74
1070
     0
1000
MTEXTEND
  0
MTEXT
  5
31
330
28
100
AcDbEntity
  8
LAYER_1
 62
     7
100
AcDbMText
 10
-15.101834
 20
-7.941577
 30
0.0
 40
1.745515
 41
0.0
 71
     1
 72
     2
  1
\fGill Sans|b0|i0;(0.18)
  7
STD
 73
     1
 44
1.0
1001
ACAD
1000
MTEXTBEGIN
1070
    73
1070
     1
1070
    44
1040
1.0
1070
    74
1070
     0
1000
MTEXTEND
  0
MTEXT
  5
30
330
28
100
AcDbEntity
  8
LAYER_1
 62
     7
100
AcDbMText
 10
-13.757558
 20
-5.595639
 30
0.0
 40
1.745515
 41
0.0
 71
     1
 72
     2
  1
\fGill Sans|b0|i0;4.5
  7
STD
 73
     1
 44
1.0
1001
ACAD
1000
MTEXTBEGIN
1070
    73
1070
     1
1070
    44
1040
1.0
1070
    74
1070
     0
1000
MTEXTEND
  0
MTEXT
  5
2F
330
28
100
AcDbEntity
  8
LAYER_1
 62
     7
100
AcDbMText
 10
-46.24032999999999
 20
12.653032
 30
0.0
 40
1.745515
 41
0.0
 71
     1
 72
     2
  1
\fGill Sans|b0|i0;(0.18)
  7
STD
 73
     1
 44
1.0
1001
ACAD
1000
MTEXTBEGIN
1070
    73
1070
     1
1070
    44
1040
1.0
1070
    74
1070
     0
1000
MTEXTEND
  0
MTEXT
  5
2E
330
28
100
AcDbEntity
  8
LAYER_1
 62
     7
100
AcDbMText
 10
-44.896054
 20
14.99897
 30
0.0
 40
1.745515
 41
0.0
 71
     1
 72
     2
  1
\fGill Sans|b0|i0;4.5
  7
STD
 73
     1
 44
1.0
1001
ACAD
1000
MTEXTBEGIN
1070
    73
1070
     1
1070
    44
1040
1.0
1070
    74
1070
     0
1000
MTEXTEND
  0
MTEXT
  5
2D
330
28
100
AcDbEntity
  8
LAYER_1
 62
     7
100
AcDbMText
 10
-15.311985
 20
12.549851
 30
0.0
 40
1.745515
 41
0.0
 71
     1
 72
     2
  1
\fGill Sans|b0|i0;(0.18)
  7
STD
 73
     1
 44
1.0
1001
ACAD
1000
MTEXTBEGIN
1070
    73
1070
     1
1070
    44
1040
1.0
1070
    74
1070
     0
1000
MTEXTEND
  0
MTEXT
  5
2C
330
28
100
AcDbEntity
  8
LAYER_1
 62
     7
100
AcDbMText
 10
-13.967709
 20
14.895789
 30
0.0
 40
1.745515
 41
0.0
 71
     1
 72
     2
  1
\fGill Sans|b0|i0;4.5
  7
STD
 73
     1
 44
1.0
1001
ACAD
1000
MTEXTBEGIN
1070
    73
1070
     1
1070
    44
1040
1.0
1070
    74
1070
     0
1000
MTEXTEND
  0
MTEXT
  5
2B
330
28
100
AcDbEntity
  8
LAYER_1
 62
     7
100
AcDbMText
 10
-17.878467
 20
-1.330667999999998
 30
0.0
 40
1.745515
 41
0.0
 71
     1
 72
     2
  1
\fGill Sans|b0|i0;73 (2.87)
  7
STD
 11
0.0
 21
1.0
 31
0.0
 73
     1
 44
1.0
1001
ACAD
1000
MTEXTBEGIN
1070
    73
1070
     1
1070
    44
1040
1.0
1070
    74
1070
     0
1000
MTEXTEND
  0
ENDBLK
  5
3D7
330
28
100
AcDbEntity
  8
0
100
AcDbBlockEnd
  0
BLOCK
  5
3DB
330
3D9
100
AcDbEntity
  8
0
 62
     7
100
AcDbBlockBegin
  2
AI9-BLK2
 70
     0
 10
0.0
 20
0.0
 30
0.0
  3
AI9-BLK2
  1

  0
POLYLINE
  5
610
330
3D9
100
AcDbEntity
  8
LAYER_1
 62
     7
100
AcDb2dPolyline
 66
     1
 10
0.0
 20
0.0
 30
0.0
 70
     1
  0
VERTEX
  5
611
330
610
100
AcDbEntity
  8
LAYER_1
 62
     7
100
AcDbVertex
100
AcDb2dVertex
 10
-14.808398
 20
12.814894
 30
0.0
  0
VERTEX
  5
612
330
610
100
AcDbEntity
  8
LAYER_1
 62
     7
100
AcDbVertex
100
AcDb2dVertex
 10
-15.179435
 20
14.199822
 30
0.0
  0
VERTEX
  5
613
330
610
100
AcDbEntity
  8
LAYER_1
 62
     7
100
AcDbVertex
100
AcDb2dVertex
 10
-15.550472
 20
12.814894
 30
0.0
  0
SEQEND
  5
614
330
610
100
AcDbEntity
  8
LAYER_1
 62
     7
  0
POLYLINE
  5
60B
330
3D9
100
AcDbEntity
  8
LAYER_1
 62
     7
100
AcDb2dPolyline
 66
     1
 10
0.0
 20
0.0
 30
0.0
 70
     1
  0
VERTEX
  5
60C
330
60B
100
AcDbEntity
  8
LAYER_1
 62
     7
100
AcDbVertex
100
AcDb2dVertex
 10
-15.542376
 20
-6.344142999999998
 30
0.0
  0
VERTEX
  5
60D
330
60B
100
AcDbEntity
  8
LAYER_1
 62
     7
100
AcDbVertex
100
AcDb2dVertex
 10
-15.171339
 20
-7.728899
 30
0.0
  0
VERTEX
  5
60E
330
60B
100
AcDbEntity
  8
LAYER_1
 62
     7
100
AcDbVertex
100
AcDb2dVertex
 10
-14.80013
 20
-6.344142999999998
 30
0.0
  0
SEQEND
  5
60F
330
60B
100
AcDbEntity
  8
LAYER_1
 62
     7
  0
POLYLINE
  5
606
330
3D9
100
AcDbEntity
  8
LAYER_1
 62
     7
100
AcDb2dPolyline
 66
     1
 10
0.0
 20
0.0
 30
0.0
 70
     1
  0
VERTEX
  5
607
330
606
100
AcDbEntity
  8
LAYER_1
 62
     7
100
AcDbVertex
100
AcDb2dVertex
 10
-7.394207999999999
 20
-14.027568
 30
0.0
  0
VERTEX
  5
608
330
606
100
AcDbEntity
  8
LAYER_1
 62
     7
100
AcDbVertex
100
AcDb2dVertex
 10
-6.00928
 20
-13.656531
 30
0.0
  0
VERTEX
  5
609
330
606
100
AcDbEntity
  8
LAYER_1
 62
     7
100
AcDbVertex
100
AcDb2dVertex
 10
-7.394207999999999
 20
-13.285494
 30
0.0
  0
SEQEND
  5
60A
330
606
100
AcDbEntity
  8
LAYER_1
 62
     7
  0
POLYLINE
  5
601
330
3D9
100
AcDbEntity
  8
LAYER_1
 62
     7
100
AcDb2dPolyline
 66
     1
 10
0.0
 20
0.0
 30
0.0
 70
     1
  0
VERTEX
  5
602
330
601
100
AcDbEntity
  8
LAYER_1
 62
     7
100
AcDbVertex
100
AcDb2dVertex
 10
-8.730389
 20
-13.293934
 30
0.0
  0
VERTEX
  5
603
330
601
100
AcDbEntity
  8
LAYER_1
 62
     7
100
AcDbVertex
100
AcDb2dVertex
 10
-10.115145
 20
-13.664971
 30
0.0
  0
VERTEX
  5
604
330
601
100
AcDbEntity
  8
LAYER_1
 62
     7
100
AcDbVertex
100
AcDb2dVertex
 10
-8.730389
 20
-14.036008
 30
0.0
  0
SEQEND
  5
605
330
601
100
AcDbEntity
  8
LAYER_1
 62
     7
  0
POLYLINE
  5
5FC
330
3D9
100
AcDbEntity
  8
LAYER_1
 62
     7
100
AcDb2dPolyline
 66
     1
 10
0.0
 20
0.0
 30
0.0
 70
     1
  0
VERTEX
  5
5FD
330
5FC
100
AcDbEntity
  8
LAYER_1
 62
     7
100
AcDbVertex
100
AcDb2dVertex
 10
-11.583445
 20
-11.067197
 30
0.0
  0
VERTEX
  5
5FE
330
5FC
100
AcDbEntity
  8
LAYER_1
 62
     7
100
AcDbVertex
100
AcDb2dVertex
 10
-10.198516
 20
-10.69616
 30
0.0
  0
VERTEX
  5
5FF
330
5FC
100
AcDbEntity
  8
LAYER_1
 62
     7
100
AcDbVertex
100
AcDb2dVertex
 10
-11.583445
 20
-10.325123
 30
0.0
  0
SEQEND
  5
600
330
5FC
100
AcDbEntity
  8
LAYER_1
 62
     7
  0
POLYLINE
  5
5F7
330
3D9
100
AcDbEntity
  8
LAYER_1
 62
     7
100
AcDb2dPolyline
 66
     1
 10
0.0
 20
0.0
 30
0.0
 70
     1
  0
VERTEX
  5
5F8
330
5F7
100
AcDbEntity
  8
LAYER_1
 62
     7
100
AcDbVertex
100
AcDb2dVertex
 10
-7.110504999999998
 20
-10.333564
 30
0.0
  0
VERTEX
  5
5F9
330
5F7
100
AcDbEntity
  8
LAYER_1
 62
     7
100
AcDbVertex
100
AcDb2dVertex
 10
-8.495433
 20
-10.704601
 30
0.0
  0
VERTEX
  5
5FA
330
5F7
100
AcDbEntity
  8
LAYER_1
 62
     7
100
AcDbVertex
100
AcDb2dVertex
 10
-7.110504999999998
 20
-11.075637
 30
0.0
  0
SEQEND
  5
5FB
330
5F7
100
AcDbEntity
  8
LAYER_1
 62
     7
  0
POLYLINE
  5
5F2
330
3D9
100
AcDbEntity
  8
LAYER_1
 62
     7
100
AcDb2dPolyline
 66
     1
 10
0.0
 20
0.0
 30
0.0
 70
     1
  0
VERTEX
  5
5F3
330
5F2
100
AcDbEntity
  8
LAYER_1
 62
     7
100
AcDbVertex
100
AcDb2dVertex
 10
-1.558732999999999
 20
6.426137
 30
0.0
  0
VERTEX
  5
5F4
330
5F2
100
AcDbEntity
  8
LAYER_1
 62
     7
100
AcDbVertex
100
AcDb2dVertex
 10
-1.970938999999999
 20
7.964716
 30
0.0
  0
VERTEX
  5
5F5
330
5F2
100
AcDbEntity
  8
LAYER_1
 62
     7
100
AcDbVertex
100
AcDb2dVertex
 10
-2.383316999999999
 20
6.426137
 30
0.0
  0
SEQEND
  5
5F6
330
5F2
100
AcDbEntity
  8
LAYER_1
 62
     7
  0
POLYLINE
  5
5ED
330
3D9
100
AcDbEntity
  8
LAYER_1
 62
     7
100
AcDb2dPolyline
 66
     1
 10
0.0
 20
0.0
 30
0.0
 70
     1
  0
VERTEX
  5
5EE
330
5ED
100
AcDbEntity
  8
LAYER_1
 62
     7
100
AcDbVertex
100
AcDb2dVertex
 10
-2.374359999999998
 20
-4.55166
 30
0.0
  0
VERTEX
  5
5EF
330
5ED
100
AcDbEntity
  8
LAYER_1
 62
     7
100
AcDbVertex
100
AcDb2dVertex
 10
-1.962154
 20
-6.090412
 30
0.0
  0
VERTEX
  5
5F0
330
5ED
100
AcDbEntity
  8
LAYER_1
 62
     7
100
AcDbVertex
100
AcDb2dVertex
 10
-1.549776
 20
-4.55166
 30
0.0
  0
SEQEND
  5
5F1
330
5ED
100
AcDbEntity
  8
LAYER_1
 62
     7
  0
POLYLINE
  5
5E8
330
3D9
100
AcDbEntity
  8
LAYER_1
 62
     7
100
AcDb2dPolyline
 66
     1
 10
0.0
 20
0.0
 30
0.0
 70
     1
  0
VERTEX
  5
5E9
330
5E8
100
AcDbEntity
  8
LAYER_1
 62
     7
100
AcDbVertex
100
AcDb2dVertex
 10
-1.558389
 20
-9.509152999999999
 30
0.0
  0
VERTEX
  5
5EA
330
5E8
100
AcDbEntity
  8
LAYER_1
 62
     7
100
AcDbVertex
100
AcDb2dVertex
 10
-1.970767
 20
-7.970400999999998
 30
0.0
  0
VERTEX
  5
5EB
330
5E8
100
AcDbEntity
  8
LAYER_1
 62
     7
100
AcDbVertex
100
AcDb2dVertex
 10
-2.383145
 20
-9.509152999999999
 30
0.0
  0
SEQEND
  5
5EC
330
5E8
100
AcDbEntity
  8
LAYER_1
 62
     7
  0
POLYLINE
  5
5E3
330
3D9
100
AcDbEntity
  8
LAYER_1
 62
     7
100
AcDb2dPolyline
 66
     1
 10
0.0
 20
0.0
 30
0.0
 70
     1
  0
VERTEX
  5
5E4
330
5E3
100
AcDbEntity
  8
LAYER_1
 62
     7
100
AcDbVertex
100
AcDb2dVertex
 10
0.400665
 20
-11.245997
 30
0.0
  0
VERTEX
  5
5E5
330
5E3
100
AcDbEntity
  8
LAYER_1
 62
     7
100
AcDbVertex
100
AcDb2dVertex
 10
1.939416999999999
 20
-10.83362
 30
0.0
  0
VERTEX
  5
5E6
330
5E3
100
AcDbEntity
  8
LAYER_1
 62
     7
100
AcDbVertex
100
AcDb2dVertex
 10
0.400665
 20
-10.421414
 30
0.0
  0
SEQEND
  5
5E7
330
5E3
100
AcDbEntity
  8
LAYER_1
 62
     7
  0
POLYLINE
  5
5DE
330
3D9
100
AcDbEntity
  8
LAYER_1
 62
     7
100
AcDb2dPolyline
 66
     1
 10
0.0
 20
0.0
 30
0.0
 70
     1
  0
VERTEX
  5
5DF
330
5DE
100
AcDbEntity
  8
LAYER_1
 62
     7
100
AcDbVertex
100
AcDb2dVertex
 10
4.352705999999998
 20
-11.210341
 30
0.0
  0
VERTEX
  5
5E0
330
5DE
100
AcDbEntity
  8
LAYER_1
 62
     7
100
AcDbVertex
100
AcDb2dVertex
 10
5.737461999999998
 20
-10.839132
 30
0.0
  0
VERTEX
  5
5E1
330
5DE
100
AcDbEntity
  8
LAYER_1
 62
     7
100
AcDbVertex
100
AcDb2dVertex
 10
4.352533999999998
 20
-10.468095
 30
0.0
  0
SEQEND
  5
5E2
330
5DE
100
AcDbEntity
  8
LAYER_1
 62
     7
  0
POLYLINE
  5
5D9
330
3D9
100
AcDbEntity
  8
LAYER_1
 62
     7
100
AcDb2dPolyline
 66
     1
 10
0.0
 20
0.0
 30
0.0
 70
     1
  0
VERTEX
  5
5DA
330
5D9
100
AcDbEntity
  8
LAYER_1
 62
     7
100
AcDbVertex
100
AcDb2dVertex
 10
8.194504
 20
-10.473263
 30
0.0
  0
VERTEX
  5
5DB
330
5D9
100
AcDbEntity
  8
LAYER_1
 62
     7
100
AcDbVertex
100
AcDb2dVertex
 10
6.809747999999999
 20
-10.844472
 30
0.0
  0
VERTEX
  5
5DC
330
5D9
100
AcDbEntity
  8
LAYER_1
 62
     7
100
AcDbVertex
100
AcDb2dVertex
 10
8.194675999999999
 20
-11.215336
 30
0.0
  0
SEQEND
  5
5DD
330
5D9
100
AcDbEntity
  8
LAYER_1
 62
     7
  0
POLYLINE
  5
5D4
330
3D9
100
AcDbEntity
  8
LAYER_1
 62
     7
100
AcDb2dPolyline
 66
     1
 10
0.0
 20
0.0
 30
0.0
 70
     1
  0
VERTEX
  5
5D5
330
5D4
100
AcDbEntity
  8
LAYER_1
 62
     7
100
AcDbVertex
100
AcDb2dVertex
 10
4.155991
 20
-10.514776
 30
0.0
  0
VERTEX
  5
5D6
330
5D4
100
AcDbEntity
  8
LAYER_1
 62
     7
100
AcDbVertex
100
AcDb2dVertex
 10
2.909727999999999
 20
-10.848778
 30
0.0
  0
VERTEX
  5
5D7
330
5D4
100
AcDbEntity
  8
LAYER_1
 62
     7
100
AcDbVertex
100
AcDb2dVertex
 10
4.156162999999998
 20
-11.18278
 30
0.0
  0
SEQEND
  5
5D8
330
5D4
100
AcDbEntity
  8
LAYER_1
 62
     7
  0
POLYLINE
  5
5CF
330
3D9
100
AcDbEntity
  8
LAYER_1
 62
     7
100
AcDb2dPolyline
 66
     1
 10
0.0
 20
0.0
 30
0.0
 70
     1
  0
VERTEX
  5
5D0
330
5CF
100
AcDbEntity
  8
LAYER_1
 62
     7
100
AcDbVertex
100
AcDb2dVertex
 10
1.211812
 20
-14.540887
 30
0.0
  0
VERTEX
  5
5D1
330
5CF
100
AcDbEntity
  8
LAYER_1
 62
     7
100
AcDbVertex
100
AcDb2dVertex
 10
2.750391999999998
 20
-14.128509
 30
0.0
  0
VERTEX
  5
5D2
330
5CF
100
AcDbEntity
  8
LAYER_1
 62
     7
100
AcDbVertex
100
AcDb2dVertex
 10
1.21164
 20
-13.716303
 30
0.0
  0
SEQEND
  5
5D3
330
5CF
100
AcDbEntity
  8
LAYER_1
 62
     7
  0
POLYLINE
  5
5CA
330
3D9
100
AcDbEntity
  8
LAYER_1
 62
     7
100
AcDb2dPolyline
 66
     1
 10
0.0
 20
0.0
 30
0.0
 70
     1
  0
VERTEX
  5
5CB
330
5CA
100
AcDbEntity
  8
LAYER_1
 62
     7
100
AcDbVertex
100
AcDb2dVertex
 10
7.256749
 20
-13.768152
 30
0.0
  0
VERTEX
  5
5CC
330
5CA
100
AcDbEntity
  8
LAYER_1
 62
     7
100
AcDbVertex
100
AcDb2dVertex
 10
5.871992999999998
 20
-14.139189
 30
0.0
  0
VERTEX
  5
5CD
330
5CA
100
AcDbEntity
  8
LAYER_1
 62
     7
100
AcDbVertex
100
AcDb2dVertex
 10
7.256749
 20
-14.510225
 30
0.0
  0
SEQEND
  5
5CE
330
5CA
100
AcDbEntity
  8
LAYER_1
 62
     7
  0
POLYLINE
  5
5C5
330
3D9
100
AcDbEntity
  8
LAYER_1
 62
     7
100
AcDb2dPolyline
 66
     1
 10
0.0
 20
0.0
 30
0.0
 70
     1
  0
VERTEX
  5
5C6
330
5C5
100
AcDbEntity
  8
LAYER_1
 62
     7
100
AcDbVertex
100
AcDb2dVertex
 10
5.110799
 20
-18.300003
 30
0.0
  0
VERTEX
  5
5C7
330
5C5
100
AcDbEntity
  8
LAYER_1
 62
     7
100
AcDbVertex
100
AcDb2dVertex
 10
6.649550999999998
 20
-17.887625
 30
0.0
  0
VERTEX
  5
5C8
330
5C5
100
AcDbEntity
  8
LAYER_1
 62
     7
100
AcDbVertex
100
AcDb2dVertex
 10
5.110799
 20
-17.475247
 30
0.0
  0
SEQEND
  5
5C9
330
5C5
100
AcDbEntity
  8
LAYER_1
 62
     7
  0
POLYLINE
  5
5C0
330
3D9
100
AcDbEntity
  8
LAYER_1
 62
     7
100
AcDb2dPolyline
 66
     1
 10
0.0
 20
0.0
 30
0.0
 70
     1
  0
VERTEX
  5
5C1
330
5C0
100
AcDbEntity
  8
LAYER_1
 62
     7
100
AcDbVertex
100
AcDb2dVertex
 10
3.595645999999999
 20
-17.48541
 30
0.0
  0
VERTEX
  5
5C2
330
5C0
100
AcDbEntity
  8
LAYER_1
 62
     7
100
AcDbVertex
100
AcDb2dVertex
 10
2.057066999999999
 20
-17.897616
 30
0.0
  0
VERTEX
  5
5C3
330
5C0
100
AcDbEntity
  8
LAYER_1
 62
     7
100
AcDbVertex
100
AcDb2dVertex
 10
3.595645999999999
 20
-18.309993
 30
0.0
  0
SEQEND
  5
5C4
330
5C0
100
AcDbEntity
  8
LAYER_1
 62
     7
  0
POLYLINE
  5
5BB
330
3D9
100
AcDbEntity
  8
LAYER_1
 62
     7
100
AcDb2dPolyline
 66
     1
 10
0.0
 20
0.0
 30
0.0
 70
     1
  0
VERTEX
  5
5BC
330
5BB
100
AcDbEntity
  8
LAYER_1
 62
     7
100
AcDbVertex
100
AcDb2dVertex
 10
0.275435
 20
0.106453
 30
0.0
  0
VERTEX
  5
5BD
330
5BB
100
AcDbEntity
  8
LAYER_1
 62
     7
100
AcDbVertex
100
AcDb2dVertex
 10
1.814187
 20
0.518659
 30
0.0
  0
VERTEX
  5
5BE
330
5BB
100
AcDbEntity
  8
LAYER_1
 62
     7
100
AcDbVertex
100
AcDb2dVertex
 10
0.275435
 20
0.931037
 30
0.0
  0
SEQEND
  5
5BF
330
5BB
100
AcDbEntity
  8
LAYER_1
 62
     7
  0
POLYLINE
  5
5B6
330
3D9
100
AcDbEntity
  8
LAYER_1
 62
     7
100
AcDb2dPolyline
 66
     1
 10
0.0
 20
0.0
 30
0.0
 70
     1
  0
VERTEX
  5
5B7
330
5B6
100
AcDbEntity
  8
LAYER_1
 62
     7
100
AcDbVertex
100
AcDb2dVertex
 10
6.694682000000001
 20
0.930348
 30
0.0
  0
VERTEX
  5
5B8
330
5B6
100
AcDbEntity
  8
LAYER_1
 62
     7
100
AcDbVertex
100
AcDb2dVertex
 10
5.15593
 20
0.51797
 30
0.0
  0
VERTEX
  5
5B9
330
5B6
100
AcDbEntity
  8
LAYER_1
 62
     7
100
AcDbVertex
100
AcDb2dVertex
 10
6.694682000000001
 20
0.105592
 30
0.0
  0
SEQEND
  5
5BA
330
5B6
100
AcDbEntity
  8
LAYER_1
 62
     7
  0
POLYLINE
  5
5B1
330
3D9
100
AcDbEntity
  8
LAYER_1
 62
     7
100
AcDb2dPolyline
 66
     1
 10
0.0
 20
0.0
 30
0.0
 70
     1
  0
VERTEX
  5
5B2
330
5B1
100
AcDbEntity
  8
LAYER_1
 62
     7
100
AcDbVertex
100
AcDb2dVertex
 10
11.938117
 20
2.61655
 30
0.0
  0
VERTEX
  5
5B3
330
5B1
100
AcDbEntity
  8
LAYER_1
 62
     7
100
AcDbVertex
100
AcDb2dVertex
 10
11.525911
 20
4.155301999999998
 30
0.0
  0
VERTEX
  5
5B4
330
5B1
100
AcDbEntity
  8
LAYER_1
 62
     7
100
AcDbVertex
100
AcDb2dVertex
 10
11.113534
 20
2.61655
 30
0.0
  0
SEQEND
  5
5B5
330
5B1
100
AcDbEntity
  8
LAYER_1
 62
     7
  0
POLYLINE
  5
5AC
330
3D9
100
AcDbEntity
  8
LAYER_1
 62
     7
100
AcDb2dPolyline
 66
     1
 10
0.0
 20
0.0
 30
0.0
 70
     1
  0
VERTEX
  5
5AD
330
5AC
100
AcDbEntity
  8
LAYER_1
 62
     7
100
AcDbVertex
100
AcDb2dVertex
 10
11.123869
 20
-6.215986
 30
0.0
  0
VERTEX
  5
5AE
330
5AC
100
AcDbEntity
  8
LAYER_1
 62
     7
100
AcDbVertex
100
AcDb2dVertex
 10
11.536074
 20
-7.754738
 30
0.0
  0
VERTEX
  5
5AF
330
5AC
100
AcDbEntity
  8
LAYER_1
 62
     7
100
AcDbVertex
100
AcDb2dVertex
 10
11.94828
 20
-6.215986
 30
0.0
  0
SEQEND
  5
5B0
330
5AC
100
AcDbEntity
  8
LAYER_1
 62
     7
  0
POLYLINE
  5
5A7
330
3D9
100
AcDbEntity
  8
LAYER_1
 62
     7
100
AcDb2dPolyline
 66
     1
 10
0.0
 20
0.0
 30
0.0
 70
     1
  0
VERTEX
  5
5A8
330
5A7
100
AcDbEntity
  8
LAYER_1
 62
     7
100
AcDbVertex
100
AcDb2dVertex
 10
-12.080055
 20
2.61655
 30
0.0
  0
VERTEX
  5
5A9
330
5A7
100
AcDbEntity
  8
LAYER_1
 62
     7
100
AcDbVertex
100
AcDb2dVertex
 10
-12.492261
 20
4.155301999999998
 30
0.0
  0
VERTEX
  5
5AA
330
5A7
100
AcDbEntity
  8
LAYER_1
 62
     7
100
AcDbVertex
100
AcDb2dVertex
 10
-12.904639
 20
2.61655
 30
0.0
  0
SEQEND
  5
5AB
330
5A7
100
AcDbEntity
  8
LAYER_1
 62
     7
  0
POLYLINE
  5
5A2
330
3D9
100
AcDbEntity
  8
LAYER_1
 62
     7
100
AcDb2dPolyline
 66
     1
 10
0.0
 20
0.0
 30
0.0
 70
     1
  0
VERTEX
  5
5A3
330
5A2
100
AcDbEntity
  8
LAYER_1
 62
     7
100
AcDbVertex
100
AcDb2dVertex
 10
-12.894476
 20
-6.215986
 30
0.0
  0
VERTEX
  5
5A4
330
5A2
100
AcDbEntity
  8
LAYER_1
 62
     7
100
AcDbVertex
100
AcDb2dVertex
 10
-12.482098
 20
-7.754738
 30
0.0
  0
VERTEX
  5
5A5
330
5A2
100
AcDbEntity
  8
LAYER_1
 62
     7
100
AcDbVertex
100
AcDb2dVertex
 10
-12.069892
 20
-6.215986
 30
0.0
  0
SEQEND
  5
5A6
330
5A2
100
AcDbEntity
  8
LAYER_1
 62
     7
  0
MTEXT
  5
5A1
330
3D9
100
AcDbEntity
  8
LAYER_1
  6
AI9-LTYPE1
 62
     7
100
AcDbMText
 10
-17.512511
 20
-0.884012
 30
0.0
 40
1.745515
 41
0.0
 71
     1
 72
     2
  1
\fGill Sans|b0|i0;84 (3.31)
  7
STD
 11
0.0
 21
1.0
 31
0.0
 73
     1
 44
1.0
1001
ACAD
1000
MTEXTBEGIN
1070
    73
1070
     1
1070
    44
1040
1.0
1070
    74
1070
     0
1000
MTEXTEND
  0
MTEXT
  5
5A0
330
3D9
100
AcDbEntity
  8
LAYER_1
  6
AI9-LTYPE1
 62
     7
100
AcDbMText
 10
-9.031145999999999
 20
-11.327761
 30
0.0
 40
1.745515
 41
0.0
 71
     1
 72
     2
  1
\fGill Sans|b0|i0;16
  7
STD
 73
     1
 44
1.0
1001
ACAD
1000
MTEXTBEGIN
1070
    73
1070
     1
1070
    44
1040
1.0
1070
    74
1070
     0
1000
MTEXTEND
  0
MTEXT
  5
59F
330
3D9
100
AcDbEntity
  8
LAYER_1
  6
AI9-LTYPE1
 62
     7
100
AcDbMText
 10
-15.284166
 20
-9.453112
 30
0.0
 40
1.745515
 41
0.0
 71
     1
 72
     2
  1
\fGill Sans|b0|i0;6
  7
STD
 73
     1
 44
1.0
1001
ACAD
1000
MTEXTBEGIN
1070
    73
1070
     1
1070
    44
1040
1.0
1070
    74
1070
     0
1000
MTEXTEND
  0
MTEXT
  5
59E
330
3D9
100
AcDbEntity
  8
LAYER_1
  6
AI9-LTYPE1
 62
     7
100
AcDbMText
 10
-4.480404
 20
-3.286448999999998
 30
0.0
 40
1.745515
 41
0.0
 71
     1
 72
     2
  1
\fGill Sans|b0|i0;54 (2.13)
  7
STD
 11
0.0
 21
1.0
 31
0.0
 73
     1
 44
1.0
1001
ACAD
1000
MTEXTBEGIN
1070
    73
1070
     1
1070
    44
1040
1.0
1070
    74
1070
     0
1000
MTEXTEND
  0
MTEXT
  5
59D
330
3D9
100
AcDbEntity
  8
LAYER_1
  6
AI9-LTYPE1
 62
     7
100
AcDbMText
 10
8.946051999999998
 20
-13.200343
 30
0.0
 40
1.745515
 41
0.0
 71
     1
 72
     2
  1
\fGill Sans|b0|i0;11 (0.43)
  7
STD
 73
     1
 44
1.0
1001
ACAD
1000
MTEXTBEGIN
1070
    73
1070
     1
1070
    44
1040
1.0
1070
    74
1070
     0
1000
MTEXTEND
  0
MTEXT
  5
59C
330
3D9
100
AcDbEntity
  8
LAYER_1
  6
AI9-LTYPE1
 62
     7
100
AcDbMText
 10
6.37825
 20
-0.9459659999999999
 30
0.0
 40
1.745515
 41
0.0
 71
     1
 72
     2
  1
\fGill Sans|b0|i0;(0.47)
  7
STD
 73
     1
 44
1.0
1001
ACAD
1000
MTEXTBEGIN
1070
    73
1070
     1
1070
    44
1040
1.0
1070
    74
1070
     0
1000
MTEXTEND
  0
MTEXT
  5
59B
330
3D9
100
AcDbEntity
  8
LAYER_1
  6
AI9-LTYPE1
 62
     7
100
AcDbMText
 10
7.979358
 20
1.399971999999999
 30
0.0
 40
1.745515
 41
0.0
 71
     1
 72
     2
  1
\fGill Sans|b0|i0;12
  7
STD
 73
     1
 44
1.0
1001
ACAD
1000
MTEXTBEGIN
1070
    73
1070
     1
1070
    44
1040
1.0
1070
    74
1070
     0
1000
MTEXTEND
  0
MTEXT
  5
59A
330
3D9
100
AcDbEntity
  8
LAYER_1
  6
AI9-LTYPE1
 62
     7
100
AcDbMText
 10
12.100668
 20
-6.172749999999998
 30
0.0
 40
1.745515
 41
0.0
 71
     1
 72
     2
  1
\fGill Sans|b0|i0;46 (1.81)
  7
STD
 11
0.0
 21
1.0
 31
0.0
 73
     1
 44
1.0
1001
ACAD
1000
MTEXTBEGIN
1070
    73
1070
     1
1070
    44
1040
1.0
1070
    74
1070
     0
1000
MTEXTEND
  0
MTEXT
  5
599
330
3D9
100
AcDbEntity
  8
LAYER_1
  6
AI9-LTYPE1
 62
     7
100
AcDbMText
 10
-14.710443
 20
-5.949334999999998
 30
0.0
 40
1.745515
 41
0.0
 71
     1
 72
     2
  1
\fGill Sans|b0|i0;46 (1.81)
  7
STD
 11
0.0
 21
1.0
 31
0.0
 73
     1
 44
1.0
1001
ACAD
1000
MTEXTBEGIN
1070
    73
1070
     1
1070
    44
1040
1.0
1070
    74
1070
     0
1000
MTEXTEND
  0
LINE
  5
598
330
3D9
100
AcDbEntity
  8
LAYER_1
  6
AI9-LTYPE1
 62
     7
100
AcDbLine
 10
-10.131854
 20
9.737906999999999
 30
0.0
 11
-9.080237999999999
 21
9.737906999999999
 31
0.0
  0
LINE
  5
597
330
3D9
100
AcDbEntity
  8
LAYER_1
  6
AI9-LTYPE1
 62
     7
100
AcDbLine
 10
-9.080237999999999
 20
9.737906999999999
 30
0.0
 11
-9.080237999999999
 21
6.321061
 31
0.0
  0
LINE
  5
596
330
3D9
100
AcDbEntity
  8
LAYER_1
  6
AI9-LTYPE1
 62
     7
100
AcDbLine
 10
-9.080237999999999
 20
6.321061
 30
0.0
 11
-10.131854
 21
6.321061
 31
0.0
  0
LINE
  5
595
330
3D9
100
AcDbEntity
  8
LAYER_1
  6
AI9-LTYPE1
 62
     7
100
AcDbLine
 10
-5.925563999999998
 20
9.213736
 30
0.0
 11
-9.080237999999999
 21
9.213736
 31
0.0
  0
LINE
  5
594
330
3D9
100
AcDbEntity
  8
LAYER_1
  6
AI9-LTYPE1
 62
     7
100
AcDbLine
 10
-5.925563999999998
 20
6.848505
 30
0.0
 11
-9.080237999999999
 21
6.848505
 31
0.0
  0
LINE
  5
593
330
3D9
100
AcDbEntity
  8
LAYER_1
  6
AI9-LTYPE1
 62
     7
100
AcDbLine
 10
-5.925219999999998
 20
-7.346321999999998
 30
0.0
 11
-9.080066
 21
-7.346321999999998
 31
0.0
  0
LINE
  5
592
330
3D9
100
AcDbEntity
  8
LAYER_1
  6
AI9-LTYPE1
 62
     7
100
AcDbLine
 10
-5.925391999999998
 20
-4.981091
 30
0.0
 11
-9.080237999999999
 21
-4.981091
 31
0.0
  0
LINE
  5
591
330
3D9
100
AcDbEntity
  8
LAYER_1
 62
     7
100
AcDbLine
 10
3.404616
 20
4.218174999999998
 30
0.0
 11
4.721331
 21
4.218174999999998
 31
0.0
  0
LINE
  5
590
330
3D9
100
AcDbEntity
  8
LAYER_1
 62
     7
100
AcDbLine
 10
5.114588999999998
 20
5.928148
 30
0.0
 11
5.114588999999998
 21
4.614360999999998
 31
0.0
  0
LINE
  5
58F
330
3D9
100
AcDbEntity
  8
LAYER_1
 62
     7
100
AcDbLine
 10
6.693647999999998
 20
4.218174999999998
 30
0.0
 11
5.507673999999998
 21
4.218174999999998
 31
0.0
  0
LINE
  5
58E
330
3D9
100
AcDbEntity
  8
LAYER_1
 62
     7
100
AcDbLine
 10
5.114588999999998
 20
2.511302
 30
0.0
 11
5.114588999999998
 21
3.824916999999998
 31
0.0
  0
LINE
  5
58D
330
3D9
100
AcDbEntity
  8
LAYER_1
 62
     7
100
AcDbLine
 10
2.880272
 20
10.083794
 30
0.0
 11
2.880272
 21
6.120900999999999
 31
0.0
  0
LINE
  5
58C
330
3D9
100
AcDbEntity
  8
LAYER_1
 62
     7
100
AcDbLine
 10
2.184534999999999
 20
8.031207
 30
0.0
 11
3.654212999999998
 21
8.031207
 31
0.0
  0
LINE
  5
58B
330
3D9
100
AcDbEntity
  8
LAYER_1
 62
     7
100
AcDbLine
 10
5.773119
 20
-4.088811999999999
 30
0.0
 11
5.773291
 21
-7.735272999999998
 31
0.0
  0
LINE
  5
58A
330
3D9
100
AcDbEntity
  8
LAYER_1
 62
     7
100
AcDbLine
 10
5.030527999999998
 20
-6.163619999999998
 30
0.0
 11
6.494005
 21
-6.163448
 31
0.0
  0
LINE
  5
589
330
3D9
100
AcDbEntity
  8
LAYER_1
 62
     7
100
AcDbLine
 10
-10.112561
 20
4.218174999999998
 30
0.0
 11
-8.963449
 21
4.218174999999998
 31
0.0
  0
LINE
  5
588
330
3D9
100
AcDbEntity
  8
LAYER_1
 62
     7
100
AcDbLine
 10
-8.570192
 20
5.928148
 30
0.0
 11
-8.570192
 21
4.614360999999998
 31
0.0
  0
LINE
  5
587
330
3D9
100
AcDbEntity
  8
LAYER_1
 62
     7
100
AcDbLine
 10
-6.991132
 20
4.218174999999998
 30
0.0
 11
-8.177106
 21
4.218174999999998
 31
0.0
  0
LINE
  5
586
330
3D9
100
AcDbEntity
  8
LAYER_1
 62
     7
100
AcDbLine
 10
-8.570192
 20
2.511302
 30
0.0
 11
-8.570192
 21
3.824916999999998
 31
0.0
  0
LINE
  5
585
330
3D9
100
AcDbEntity
  8
LAYER_1
 62
     7
100
AcDbLine
 10
-10.571792
 20
-7.873766
 30
0.0
 11
-15.577688
 21
-7.873766
 31
0.0
  0
LINE
  5
584
330
3D9
100
AcDbEntity
  8
LAYER_1
 62
     7
100
AcDbLine
 10
-15.175301
 20
-7.235044999999998
 30
0.0
 11
-15.175473
 21
13.751615
 31
0.0
  0
LINE
  5
583
330
3D9
100
AcDbEntity
  8
LAYER_1
 62
     7
100
AcDbLine
 10
-15.578033
 20
14.268552
 30
0.0
 11
-10.572137
 21
14.268724
 31
0.0
  0
LINE
  5
582
330
3D9
100
AcDbEntity
  8
LAYER_1
 62
     7
100
AcDbLine
 10
-10.131681
 20
-8.439622999999999
 30
0.0
 11
-10.131681
 21
-14.063052
 31
0.0
  0
LINE
  5
581
330
3D9
100
AcDbEntity
  8
LAYER_1
 62
     7
100
AcDbLine
 10
-9.553767
 20
-13.660493
 30
0.0
 11
-6.685552
 21
-13.660493
 31
0.0
  0
LINE
  5
580
330
3D9
100
AcDbEntity
  8
LAYER_1
 62
     7
100
AcDbLine
 10
-5.925219999999998
 20
-14.06288
 30
0.0
 11
-5.925219999999998
 21
-8.43945
 31
0.0
  0
LINE
  5
57F
330
3D9
100
AcDbEntity
  8
LAYER_1
 62
     7
100
AcDbLine
 10
2.880272
 20
5.719031
 30
0.0
 11
2.880443999999998
 21
3.174138999999998
 31
0.0
  0
LINE
  5
57E
330
3D9
100
AcDbEntity
  8
LAYER_1
 62
     7
100
AcDbLine
 10
-1.966460999999999
 20
-5.677001
 30
0.0
 11
-1.966633
 21
7.483780999999998
 31
0.0
  0
LINE
  5
57D
330
3D9
100
AcDbEntity
  8
LAYER_1
 62
     7
100
AcDbLine
 10
-2.369191999999999
 20
8.031207
 30
0.0
 11
1.518253999999999
 21
8.031207
 31
0.0
  0
LINE
  5
57C
330
3D9
100
AcDbEntity
  8
LAYER_1
 62
     7
100
AcDbLine
 10
1.685341
 20
-7.873592999999998
 30
0.0
 11
-2.369019999999999
 21
-7.873592999999998
 31
0.0
  0
LINE
  5
57B
330
3D9
100
AcDbEntity
  8
LAYER_1
 62
     7
100
AcDbLine
 10
-1.966460999999999
 20
-11.742952
 30
0.0
 11
-1.966460999999999
 21
-8.451508
 31
0.0
  0
LINE
  5
57A
330
3D9
100
AcDbEntity
  8
LAYER_1
 62
     7
100
AcDbLine
 10
-1.966460999999999
 20
-7.873592999999998
 30
0.0
 11
-1.966460999999999
 21
-6.163619999999998
 31
0.0
  0
LINE
  5
579
330
3D9
100
AcDbEntity
  8
LAYER_1
 62
     7
100
AcDbLine
 10
2.437405
 20
-6.163619999999998
 30
0.0
 11
-2.225531999999998
 21
-6.163619999999998
 31
0.0
  0
LINE
  5
578
330
3D9
100
AcDbEntity
  8
LAYER_1
 62
     7
100
AcDbLine
 10
2.880443999999998
 20
-0.9057159999999999
 30
0.0
 11
2.880616999999998
 21
-14.409973
 31
0.0
  0
LINE
  5
577
330
3D9
100
AcDbEntity
  8
LAYER_1
 62
     7
100
AcDbLine
 10
2.931258999999998
 20
-14.108872
 30
0.0
 11
5.687164
 21
-14.108872
 31
0.0
  0
LINE
  5
576
330
3D9
100
AcDbEntity
  8
LAYER_1
 62
     7
100
AcDbLine
 10
5.773291
 20
-14.409973
 30
0.0
 11
5.773291
 21
-8.325935000000001
 31
0.0
  0
LINE
  5
575
330
3D9
100
AcDbEntity
  8
LAYER_1
 62
     7
100
AcDbLine
 10
-0.8735040000000001
 20
-10.839304
 30
0.0
 11
9.791477999999999
 21
-10.839304
 31
0.0
  0
LINE
  5
574
330
3D9
100
AcDbEntity
  8
LAYER_1
 62
     7
100
AcDbLine
 10
-0.016709
 20
-14.134193
 30
0.0
 11
2.102024999999998
 21
-14.134193
 31
0.0
  0
LINE
  5
573
330
3D9
100
AcDbEntity
  8
LAYER_1
 62
     7
100
AcDbLine
 10
6.455592
 20
-14.134193
 30
0.0
 11
8.691630999999999
 21
-14.134193
 31
0.0
  0
LINE
  5
572
330
3D9
100
AcDbEntity
  8
LAYER_1
 62
     7
100
AcDbLine
 10
1.960086999999998
 20
-8.215863999999998
 30
0.0
 11
1.960086999999998
 21
-18.498612
 31
0.0
  0
LINE
  5
571
330
3D9
100
AcDbEntity
  8
LAYER_1
 62
     7
100
AcDbLine
 10
2.538002
 20
-17.893309
 30
0.0
 11
5.933487999999998
 21
-17.893309
 31
0.0
  0
LINE
  5
570
330
3D9
100
AcDbEntity
  8
LAYER_1
 62
     7
100
AcDbLine
 10
6.693821
 20
-18.498612
 30
0.0
 11
6.693647999999998
 21
-8.215690999999999
 31
0.0
  0
LINE
  5
56F
330
3D9
100
AcDbEntity
  8
LAYER_1
 62
     7
100
AcDbLine
 10
2.071536
 20
0.514353
 30
0.0
 11
5.134915
 21
0.514353
 31
0.0
  0
LINE
  5
56E
330
3D9
100
AcDbEntity
  8
LAYER_1
 62
     7
100
AcDbLine
 10
-1.304140999999998
 20
0.514353
 30
0.0
 11
1.535995999999999
 21
0.514353
 31
0.0
  0
LINE
  5
56D
330
3D9
100
AcDbEntity
  8
LAYER_1
 62
     7
100
AcDbLine
 10
8.217586
 20
0.523138
 30
0.0
 11
5.433431999999998
 21
0.523138
 31
0.0
  0
LINE
  5
56C
330
3D9
100
AcDbEntity
  8
LAYER_1
 62
     7
100
AcDbLine
 10
5.114760999999998
 20
-0.602892
 30
0.0
 11
5.114588999999998
 21
1.935799
 31
0.0
  0
LINE
  5
56B
330
3D9
100
AcDbEntity
  8
LAYER_1
 62
     7
100
AcDbLine
 10
7.391452
 20
-7.873592999999998
 30
0.0
 11
11.932949
 21
-7.873421
 31
0.0
  0
LINE
  5
56A
330
3D9
100
AcDbEntity
  8
LAYER_1
 62
     7
100
AcDbLine
 10
11.53039
 20
-7.173894999999999
 30
0.0
 11
11.530218
 21
3.640432
 31
0.0
  0
LINE
  5
569
330
3D9
100
AcDbEntity
  8
LAYER_1
 62
     7
100
AcDbLine
 10
11.932777
 20
4.218174999999998
 30
0.0
 11
7.39128
 21
4.218174999999998
 31
0.0
  0
LINE
  5
568
330
3D9
100
AcDbEntity
  8
LAYER_1
 62
     7
100
AcDbLine
 10
-13.743003
 20
-10.69995
 30
0.0
 11
-10.874788
 21
-10.69995
 31
0.0
  0
LINE
  5
567
330
3D9
100
AcDbEntity
  8
LAYER_1
 62
     7
100
AcDbLine
 10
-7.933882999999998
 20
-10.69995
 30
0.0
 11
-6.238723
 21
-10.69995
 31
0.0
  0
LINE
  5
566
330
3D9
100
AcDbEntity
  8
LAYER_1
 62
     7
100
AcDbLine
 10
-12.487782
 20
-7.173894999999999
 30
0.0
 11
-12.487954
 21
3.640432
 31
0.0
  0
LINE
  5
565
330
3D9
100
AcDbEntity
  8
LAYER_1
 62
     7
100
AcDbLine
 10
-10.633115
 20
4.218174999999998
 30
0.0
 11
-13.219693
 21
4.218174999999998
 31
0.0
  0
LINE
  5
564
330
3D9
100
AcDbEntity
  8
LAYER_1
 62
     7
100
AcDbLine
 10
-8.570019999999999
 20
-11.159698
 30
0.0
 11
-8.570192
 21
1.935799
 31
0.0
  0
LINE
  5
563
330
3D9
100
AcDbEntity
  8
LAYER_1
 62
     7
100
AcDbLine
 10
-8.818239
 20
15.975597
 30
0.0
 11
-8.818410999999997
 21
21.233502
 31
0.0
  0
LINE
  5
562
330
3D9
100
AcDbEntity
  8
LAYER_1
 62
     7
100
AcDbLine
 10
-7.239350999999999
 20
15.975597
 30
0.0
 11
-7.239350999999999
 21
21.233502
 31
0.0
  0
POLYLINE
  5
55B
330
3D9
100
AcDbEntity
  8
LAYER_1
 62
     7
100
AcDb2dPolyline
 66
     1
 10
0.0
 20
0.0
 30
0.0
  0
VERTEX
  5
55C
330
55B
100
AcDbEntity
  8
LAYER_1
 62
     7
100
AcDbVertex
100
AcDb2dVertex
 10
-8.422053
 20
21.445719
 30
0.0
  0
VERTEX
  5
55D
330
55B
100
AcDbEntity
  8
LAYER_1
 62
     7
100
AcDbVertex
100
AcDb2dVertex
 10
-8.537463
 20
21.430044
 30
0.0
  0
VERTEX
  5
55E
330
55B
100
AcDbEntity
  8
LAYER_1
 62
     7
100
AcDbVertex
100
AcDb2dVertex
 10
-8.646672999999998
 20
21.389564
 30
0.0
  0
VERTEX
  5
55F
330
55B
100
AcDbEntity
  8
LAYER_1
 62
     7
100
AcDbVertex
100
AcDb2dVertex
 10
-8.74038
 20
21.323935
 30
0.0
  0
VERTEX
  5
560
330
55B
100
AcDbEntity
  8
LAYER_1
 62
     7
100
AcDbVertex
100
AcDb2dVertex
 10
-8.818410999999997
 20
21.233502
 30
0.0
  0
SEQEND
  5
561
330
55B
100
AcDbEntity
  8
LAYER_1
 62
     7
  0
POLYLINE
  5
554
330
3D9
100
AcDbEntity
  8
LAYER_1
 62
     7
100
AcDb2dPolyline
 66
     1
 10
0.0
 20
0.0
 30
0.0
  0
VERTEX
  5
555
330
554
100
AcDbEntity
  8
LAYER_1
 62
     7
100
AcDbVertex
100
AcDb2dVertex
 10
-8.028966999999997
 20
21.233502
 30
0.0
  0
VERTEX
  5
556
330
554
100
AcDbEntity
  8
LAYER_1
 62
     7
100
AcDbVertex
100
AcDb2dVertex
 10
-8.103725999999998
 20
21.323935
 30
0.0
  0
VERTEX
  5
557
330
554
100
AcDbEntity
  8
LAYER_1
 62
     7
100
AcDbVertex
100
AcDb2dVertex
 10
-8.200533
 20
21.389564
 30
0.0
  0
VERTEX
  5
558
330
554
100
AcDbEntity
  8
LAYER_1
 62
     7
100
AcDbVertex
100
AcDb2dVertex
 10
-8.306642
 20
21.430044
 30
0.0
  0
VERTEX
  5
559
330
554
100
AcDbEntity
  8
LAYER_1
 62
     7
100
AcDbVertex
100
AcDb2dVertex
 10
-8.422053
 20
21.445719
 30
0.0
  0
SEQEND
  5
55A
330
554
100
AcDbEntity
  8
LAYER_1
 62
     7
  0
POLYLINE
  5
54D
330
3D9
100
AcDbEntity
  8
LAYER_1
 62
     7
100
AcDb2dPolyline
 66
     1
 10
0.0
 20
0.0
 30
0.0
  0
VERTEX
  5
54E
330
54D
100
AcDbEntity
  8
LAYER_1
 62
     7
100
AcDbVertex
100
AcDb2dVertex
 10
-8.028966999999997
 20
21.233502
 30
0.0
  0
VERTEX
  5
54F
330
54D
100
AcDbEntity
  8
LAYER_1
 62
     7
100
AcDbVertex
100
AcDb2dVertex
 10
-7.954036
 20
21.146168
 30
0.0
  0
VERTEX
  5
550
330
54D
100
AcDbEntity
  8
LAYER_1
 62
     7
100
AcDbVertex
100
AcDb2dVertex
 10
-7.857228999999998
 20
21.080539
 30
0.0
  0
VERTEX
  5
551
330
54D
100
AcDbEntity
  8
LAYER_1
 62
     7
100
AcDbVertex
100
AcDb2dVertex
 10
-7.751119999999998
 20
21.036959
 30
0.0
  0
VERTEX
  5
552
330
54D
100
AcDbEntity
  8
LAYER_1
 62
     7
100
AcDbVertex
100
AcDb2dVertex
 10
-7.63571
 20
21.024384
 30
0.0
  0
SEQEND
  5
553
330
54D
100
AcDbEntity
  8
LAYER_1
 62
     7
  0
POLYLINE
  5
546
330
3D9
100
AcDbEntity
  8
LAYER_1
 62
     7
100
AcDb2dPolyline
 66
     1
 10
0.0
 20
0.0
 30
0.0
  0
VERTEX
  5
547
330
546
100
AcDbEntity
  8
LAYER_1
 62
     7
100
AcDbVertex
100
AcDb2dVertex
 10
-7.63571
 20
21.024384
 30
0.0
  0
VERTEX
  5
548
330
546
100
AcDbEntity
  8
LAYER_1
 62
     7
100
AcDbVertex
100
AcDb2dVertex
 10
-7.520299
 20
21.036959
 30
0.0
  0
VERTEX
  5
549
330
546
100
AcDbEntity
  8
LAYER_1
 62
     7
100
AcDbVertex
100
AcDb2dVertex
 10
-7.411088999999998
 20
21.080539
 30
0.0
  0
VERTEX
  5
54A
330
546
100
AcDbEntity
  8
LAYER_1
 62
     7
100
AcDbVertex
100
AcDb2dVertex
 10
-7.317383
 20
21.146168
 30
0.0
  0
VERTEX
  5
54B
330
546
100
AcDbEntity
  8
LAYER_1
 62
     7
100
AcDbVertex
100
AcDb2dVertex
 10
-7.239350999999999
 20
21.233502
 30
0.0
  0
SEQEND
  5
54C
330
546
100
AcDbEntity
  8
LAYER_1
 62
     7
  0
POLYLINE
  5
53F
330
3D9
100
AcDbEntity
  8
LAYER_1
 62
     7
100
AcDb2dPolyline
 66
     1
 10
0.0
 20
0.0
 30
0.0
  0
VERTEX
  5
540
330
53F
100
AcDbEntity
  8
LAYER_1
 62
     7
100
AcDbVertex
100
AcDb2dVertex
 10
-7.63571
 20
21.445719
 30
0.0
  0
VERTEX
  5
541
330
53F
100
AcDbEntity
  8
LAYER_1
 62
     7
100
AcDbVertex
100
AcDb2dVertex
 10
-7.751119999999998
 20
21.430044
 30
0.0
  0
VERTEX
  5
542
330
53F
100
AcDbEntity
  8
LAYER_1
 62
     7
100
AcDbVertex
100
AcDb2dVertex
 10
-7.857228999999998
 20
21.389564
 30
0.0
  0
VERTEX
  5
543
330
53F
100
AcDbEntity
  8
LAYER_1
 62
     7
100
AcDbVertex
100
AcDb2dVertex
 10
-7.954036
 20
21.323935
 30
0.0
  0
VERTEX
  5
544
330
53F
100
AcDbEntity
  8
LAYER_1
 62
     7
100
AcDbVertex
100
AcDb2dVertex
 10
-8.028966999999997
 20
21.233502
 30
0.0
  0
SEQEND
  5
545
330
53F
100
AcDbEntity
  8
LAYER_1
 62
     7
  0
POLYLINE
  5
538
330
3D9
100
AcDbEntity
  8
LAYER_1
 62
     7
100
AcDb2dPolyline
 66
     1
 10
0.0
 20
0.0
 30
0.0
  0
VERTEX
  5
539
330
538
100
AcDbEntity
  8
LAYER_1
 62
     7
100
AcDbVertex
100
AcDb2dVertex
 10
-7.239350999999999
 20
21.233502
 30
0.0
  0
VERTEX
  5
53A
330
538
100
AcDbEntity
  8
LAYER_1
 62
     7
100
AcDbVertex
100
AcDb2dVertex
 10
-7.317555
 20
21.323935
 30
0.0
  0
VERTEX
  5
53B
330
538
100
AcDbEntity
  8
LAYER_1
 62
     7
100
AcDbVertex
100
AcDb2dVertex
 10
-7.411088999999998
 20
21.389564
 30
0.0
  0
VERTEX
  5
53C
330
538
100
AcDbEntity
  8
LAYER_1
 62
     7
100
AcDbVertex
100
AcDb2dVertex
 10
-7.520299
 20
21.430044
 30
0.0
  0
VERTEX
  5
53D
330
538
100
AcDbEntity
  8
LAYER_1
 62
     7
100
AcDbVertex
100
AcDb2dVertex
 10
-7.63571
 20
21.445719
 30
0.0
  0
SEQEND
  5
53E
330
538
100
AcDbEntity
  8
LAYER_1
 62
     7
  0
LINE
  5
537
330
3D9
100
AcDbEntity
  8
LAYER_1
 62
     7
100
AcDbLine
 10
-8.028795
 20
15.975597
 30
0.0
 11
-8.818239
 21
15.975597
 31
0.0
  0
LINE
  5
536
330
3D9
100
AcDbEntity
  8
LAYER_1
 62
     7
100
AcDbLine
 10
-7.239350999999999
 20
15.975597
 30
0.0
 11
-8.028795
 21
15.975597
 31
0.0
  0
LINE
  5
535
330
3D9
100
AcDbEntity
  8
LAYER_1
 62
     7
100
AcDbLine
 10
-6.318821999999999
 20
15.975597
 30
0.0
 11
-7.239350999999999
 21
15.975597
 31
0.0
  0
LINE
  5
534
330
3D9
100
AcDbEntity
  8
LAYER_1
 62
     7
100
AcDbLine
 10
-6.318821999999999
 20
14.792896
 30
0.0
 11
-6.318821999999999
 21
15.975597
 31
0.0
  0
LINE
  5
533
330
3D9
100
AcDbEntity
  8
LAYER_1
 62
     7
100
AcDbLine
 10
-8.028795
 20
15.975597
 30
0.0
 11
-8.028795
 21
14.792896
 31
0.0
  0
LINE
  5
532
330
3D9
100
AcDbEntity
  8
LAYER_1
 62
     7
100
AcDbLine
 10
-8.028795
 20
14.792896
 30
0.0
 11
-6.453008
 21
14.792896
 31
0.0
  0
LINE
  5
531
330
3D9
100
AcDbEntity
  8
LAYER_1
 62
     7
100
AcDbLine
 10
-6.453008
 20
14.792896
 30
0.0
 11
-6.318821999999999
 21
14.792896
 31
0.0
  0
LINE
  5
530
330
3D9
100
AcDbEntity
  8
LAYER_1
 62
     7
100
AcDbLine
 10
-6.453008
 20
14.268724
 30
0.0
 11
-6.453008
 21
14.792896
 31
0.0
  0
LINE
  5
52F
330
3D9
100
AcDbEntity
  8
LAYER_1
 62
     7
100
AcDbLine
 10
-6.453008
 20
14.268724
 30
0.0
 11
-9.604582
 21
14.268724
 31
0.0
  0
LINE
  5
52E
330
3D9
100
AcDbEntity
  8
LAYER_1
 62
     7
100
AcDbLine
 10
-9.604582
 20
14.268724
 30
0.0
 11
-9.604582
 21
14.792896
 31
0.0
  0
LINE
  5
52D
330
3D9
100
AcDbEntity
  8
LAYER_1
 62
     7
100
AcDbLine
 10
-9.604582
 20
14.792896
 30
0.0
 11
-8.028795
 21
14.792896
 31
0.0
  0
LINE
  5
52C
330
3D9
100
AcDbEntity
  8
LAYER_1
 62
     7
100
AcDbLine
 10
-9.738939999999999
 20
14.792896
 30
0.0
 11
-9.604582
 21
14.792896
 31
0.0
  0
LINE
  5
52B
330
3D9
100
AcDbEntity
  8
LAYER_1
 62
     7
100
AcDbLine
 10
-9.738939999999999
 20
15.975597
 30
0.0
 11
-9.738939999999999
 21
14.792896
 31
0.0
  0
LINE
  5
52A
330
3D9
100
AcDbEntity
  8
LAYER_1
 62
     7
100
AcDbLine
 10
-8.818239
 20
15.975597
 30
0.0
 11
-9.738939999999999
 21
15.975597
 31
0.0
  0
LINE
  5
529
330
3D9
100
AcDbEntity
  8
LAYER_1
 62
     7
100
AcDbLine
 10
-9.604582
 20
14.268724
 30
0.0
 11
-9.869854
 21
14.268724
 31
0.0
  0
POLYLINE
  5
520
330
3D9
100
AcDbEntity
  8
LAYER_1
 62
     7
100
AcDb2dPolyline
 66
     1
 10
0.0
 20
0.0
 30
0.0
  0
VERTEX
  5
521
330
520
100
AcDbEntity
  8
LAYER_1
 62
     7
100
AcDbVertex
100
AcDb2dVertex
 10
-9.869854
 20
14.268724
 30
0.0
  0
VERTEX
  5
522
330
520
100
AcDbEntity
  8
LAYER_1
 62
     7
100
AcDbVertex
100
AcDb2dVertex
 10
-9.935311
 20
14.259422
 30
0.0
  0
VERTEX
  5
523
330
520
100
AcDbEntity
  8
LAYER_1
 62
     7
100
AcDbVertex
100
AcDb2dVertex
 10
-10.00094
 20
14.234273
 30
0.0
  0
VERTEX
  5
524
330
520
100
AcDbEntity
  8
LAYER_1
 62
     7
100
AcDbVertex
100
AcDb2dVertex
 10
-10.053994
 20
14.190693
 30
0.0
  0
VERTEX
  5
525
330
520
100
AcDbEntity
  8
LAYER_1
 62
     7
100
AcDbVertex
100
AcDb2dVertex
 10
-10.097575
 20
14.137638
 30
0.0
  0
VERTEX
  5
526
330
520
100
AcDbEntity
  8
LAYER_1
 62
     7
100
AcDbVertex
100
AcDb2dVertex
 10
-10.122552
 20
14.072182
 30
0.0
  0
VERTEX
  5
527
330
520
100
AcDbEntity
  8
LAYER_1
 62
     7
100
AcDbVertex
100
AcDb2dVertex
 10
-10.131854
 20
14.006552
 30
0.0
  0
SEQEND
  5
528
330
520
100
AcDbEntity
  8
LAYER_1
 62
     7
  0
LINE
  5
51F
330
3D9
100
AcDbEntity
  8
LAYER_1
 62
     7
100
AcDbLine
 10
-10.131854
 20
14.006552
 30
0.0
 11
-10.131681
 21
-7.611594
 31
0.0
  0
LINE
  5
51E
330
3D9
100
AcDbEntity
  8
LAYER_1
 62
     7
100
AcDbLine
 10
-6.187736
 20
14.268724
 30
0.0
 11
-6.453008
 21
14.268724
 31
0.0
  0
POLYLINE
  5
515
330
3D9
100
AcDbEntity
  8
LAYER_1
 62
     7
100
AcDb2dPolyline
 66
     1
 10
0.0
 20
0.0
 30
0.0
  0
VERTEX
  5
516
330
515
100
AcDbEntity
  8
LAYER_1
 62
     7
100
AcDbVertex
100
AcDb2dVertex
 10
-5.925563999999998
 20
14.006552
 30
0.0
  0
VERTEX
  5
517
330
515
100
AcDbEntity
  8
LAYER_1
 62
     7
100
AcDbVertex
100
AcDb2dVertex
 10
-5.935037999999998
 20
14.072182
 30
0.0
  0
VERTEX
  5
518
330
515
100
AcDbEntity
  8
LAYER_1
 62
     7
100
AcDbVertex
100
AcDb2dVertex
 10
-5.959843
 20
14.137638
 30
0.0
  0
VERTEX
  5
519
330
515
100
AcDbEntity
  8
LAYER_1
 62
     7
100
AcDbVertex
100
AcDb2dVertex
 10
-6.003767999999999
 20
14.190693
 30
0.0
  0
VERTEX
  5
51A
330
515
100
AcDbEntity
  8
LAYER_1
 62
     7
100
AcDbVertex
100
AcDb2dVertex
 10
-6.05665
 20
14.234446
 30
0.0
  0
VERTEX
  5
51B
330
515
100
AcDbEntity
  8
LAYER_1
 62
     7
100
AcDbVertex
100
AcDb2dVertex
 10
-6.119005999999998
 20
14.259422
 30
0.0
  0
VERTEX
  5
51C
330
515
100
AcDbEntity
  8
LAYER_1
 62
     7
100
AcDbVertex
100
AcDb2dVertex
 10
-6.187736
 20
14.268724
 30
0.0
  0
SEQEND
  5
51D
330
515
100
AcDbEntity
  8
LAYER_1
 62
     7
  0
LINE
  5
514
330
3D9
100
AcDbEntity
  8
LAYER_1
 62
     7
100
AcDbLine
 10
-5.925219999999998
 20
-7.611594
 30
0.0
 11
-5.925563999999998
 21
14.006552
 31
0.0
  0
LINE
  5
513
330
3D9
100
AcDbEntity
  8
LAYER_1
 62
     7
100
AcDbLine
 10
-9.080237999999999
 20
-4.456919999999998
 30
0.0
 11
-10.131681
 21
-4.456919999999998
 31
0.0
  0
LINE
  5
512
330
3D9
100
AcDbEntity
  8
LAYER_1
 62
     7
100
AcDbLine
 10
-9.080066
 20
-7.873766
 30
0.0
 11
-9.080237999999999
 21
-4.456919999999998
 31
0.0
  0
POLYLINE
  5
509
330
3D9
100
AcDbEntity
  8
LAYER_1
 62
     7
100
AcDb2dPolyline
 66
     1
 10
0.0
 20
0.0
 30
0.0
  0
VERTEX
  5
50A
330
509
100
AcDbEntity
  8
LAYER_1
 62
     7
100
AcDbVertex
100
AcDb2dVertex
 10
-10.131681
 20
-7.611594
 30
0.0
  0
VERTEX
  5
50B
330
509
100
AcDbEntity
  8
LAYER_1
 62
     7
100
AcDbVertex
100
AcDb2dVertex
 10
-10.122207
 20
-7.677222999999998
 30
0.0
  0
VERTEX
  5
50C
330
509
100
AcDbEntity
  8
LAYER_1
 62
     7
100
AcDbVertex
100
AcDb2dVertex
 10
-10.09723
 20
-7.74268
 30
0.0
  0
VERTEX
  5
50D
330
509
100
AcDbEntity
  8
LAYER_1
 62
     7
100
AcDbVertex
100
AcDb2dVertex
 10
-10.05365
 20
-7.795733999999998
 30
0.0
  0
VERTEX
  5
50E
330
509
100
AcDbEntity
  8
LAYER_1
 62
     7
100
AcDbVertex
100
AcDb2dVertex
 10
-10.000595
 20
-7.836214
 30
0.0
  0
VERTEX
  5
50F
330
509
100
AcDbEntity
  8
LAYER_1
 62
     7
100
AcDbVertex
100
AcDb2dVertex
 10
-9.934965999999999
 20
-7.864463999999999
 30
0.0
  0
VERTEX
  5
510
330
509
100
AcDbEntity
  8
LAYER_1
 62
     7
100
AcDbVertex
100
AcDb2dVertex
 10
-9.86951
 20
-7.873766
 30
0.0
  0
SEQEND
  5
511
330
509
100
AcDbEntity
  8
LAYER_1
 62
     7
  0
LINE
  5
508
330
3D9
100
AcDbEntity
  8
LAYER_1
 62
     7
100
AcDbLine
 10
-9.86951
 20
-7.873766
 30
0.0
 11
-6.187391
 21
-7.873766
 31
0.0
  0
POLYLINE
  5
4FF
330
3D9
100
AcDbEntity
  8
LAYER_1
 62
     7
100
AcDb2dPolyline
 66
     1
 10
0.0
 20
0.0
 30
0.0
  0
VERTEX
  5
500
330
4FF
100
AcDbEntity
  8
LAYER_1
 62
     7
100
AcDbVertex
100
AcDb2dVertex
 10
-6.187391
 20
-7.873766
 30
0.0
  0
VERTEX
  5
501
330
4FF
100
AcDbEntity
  8
LAYER_1
 62
     7
100
AcDbVertex
100
AcDb2dVertex
 10
-6.118833999999998
 20
-7.864291999999998
 30
0.0
  0
VERTEX
  5
502
330
4FF
100
AcDbEntity
  8
LAYER_1
 62
     7
100
AcDbVertex
100
AcDb2dVertex
 10
-6.056306
 20
-7.836214
 30
0.0
  0
VERTEX
  5
503
330
4FF
100
AcDbEntity
  8
LAYER_1
 62
     7
100
AcDbVertex
100
AcDb2dVertex
 10
-6.003251
 20
-7.795733999999998
 30
0.0
  0
VERTEX
  5
504
330
4FF
100
AcDbEntity
  8
LAYER_1
 62
     7
100
AcDbVertex
100
AcDb2dVertex
 10
-5.959671
 20
-7.74268
 30
0.0
  0
VERTEX
  5
505
330
4FF
100
AcDbEntity
  8
LAYER_1
 62
     7
100
AcDbVertex
100
AcDb2dVertex
 10
-5.934694
 20
-7.677050999999998
 30
0.0
  0
VERTEX
  5
506
330
4FF
100
AcDbEntity
  8
LAYER_1
 62
     7
100
AcDbVertex
100
AcDb2dVertex
 10
-5.925219999999998
 20
-7.611594
 30
0.0
  0
SEQEND
  5
507
330
4FF
100
AcDbEntity
  8
LAYER_1
 62
     7
  0
POLYLINE
  5
4F8
330
3D9
100
AcDbEntity
  8
LAYER_1
 62
     7
100
AcDb2dPolyline
 66
     1
 10
0.0
 20
0.0
 30
0.0
  0
VERTEX
  5
4F9
330
4F8
100
AcDbEntity
  8
LAYER_1
 62
     7
100
AcDbVertex
100
AcDb2dVertex
 10
3.931715
 20
21.445892
 30
0.0
  0
VERTEX
  5
4FA
330
4F8
100
AcDbEntity
  8
LAYER_1
 62
     7
100
AcDbVertex
100
AcDb2dVertex
 10
3.816305
 20
21.430216
 30
0.0
  0
VERTEX
  5
4FB
330
4F8
100
AcDbEntity
  8
LAYER_1
 62
     7
100
AcDbVertex
100
AcDb2dVertex
 10
3.707094999999998
 20
21.389737
 30
0.0
  0
VERTEX
  5
4FC
330
4F8
100
AcDbEntity
  8
LAYER_1
 62
     7
100
AcDbVertex
100
AcDb2dVertex
 10
3.613387999999998
 20
21.324108
 30
0.0
  0
VERTEX
  5
4FD
330
4F8
100
AcDbEntity
  8
LAYER_1
 62
     7
100
AcDbVertex
100
AcDb2dVertex
 10
3.53863
 20
21.233674
 30
0.0
  0
SEQEND
  5
4FE
330
4F8
100
AcDbEntity
  8
LAYER_1
 62
     7
  0
POLYLINE
  5
4F1
330
3D9
100
AcDbEntity
  8
LAYER_1
 62
     7
100
AcDb2dPolyline
 66
     1
 10
0.0
 20
0.0
 30
0.0
  0
VERTEX
  5
4F2
330
4F1
100
AcDbEntity
  8
LAYER_1
 62
     7
100
AcDbVertex
100
AcDb2dVertex
 10
4.324800999999999
 20
21.233674
 30
0.0
  0
VERTEX
  5
4F3
330
4F1
100
AcDbEntity
  8
LAYER_1
 62
     7
100
AcDbVertex
100
AcDb2dVertex
 10
4.250041999999998
 20
21.324108
 30
0.0
  0
VERTEX
  5
4F4
330
4F1
100
AcDbEntity
  8
LAYER_1
 62
     7
100
AcDbVertex
100
AcDb2dVertex
 10
4.156334999999998
 20
21.389737
 30
0.0
  0
VERTEX
  5
4F5
330
4F1
100
AcDbEntity
  8
LAYER_1
 62
     7
100
AcDbVertex
100
AcDb2dVertex
 10
4.047126
 20
21.430216
 30
0.0
  0
VERTEX
  5
4F6
330
4F1
100
AcDbEntity
  8
LAYER_1
 62
     7
100
AcDbVertex
100
AcDb2dVertex
 10
3.931715
 20
21.445892
 30
0.0
  0
SEQEND
  5
4F7
330
4F1
100
AcDbEntity
  8
LAYER_1
 62
     7
  0
POLYLINE
  5
4EA
330
3D9
100
AcDbEntity
  8
LAYER_1
 62
     7
100
AcDb2dPolyline
 66
     1
 10
0.0
 20
0.0
 30
0.0
  0
VERTEX
  5
4EB
330
4EA
100
AcDbEntity
  8
LAYER_1
 62
     7
100
AcDbVertex
100
AcDb2dVertex
 10
4.324800999999999
 20
21.233674
 30
0.0
  0
VERTEX
  5
4EC
330
4EA
100
AcDbEntity
  8
LAYER_1
 62
     7
100
AcDbVertex
100
AcDb2dVertex
 10
4.402832
 20
21.146341
 30
0.0
  0
VERTEX
  5
4ED
330
4EA
100
AcDbEntity
  8
LAYER_1
 62
     7
100
AcDbVertex
100
AcDb2dVertex
 10
4.496539
 20
21.080884
 30
0.0
  0
VERTEX
  5
4EE
330
4EA
100
AcDbEntity
  8
LAYER_1
 62
     7
100
AcDbVertex
100
AcDb2dVertex
 10
4.605748
 20
21.037131
 30
0.0
  0
VERTEX
  5
4EF
330
4EA
100
AcDbEntity
  8
LAYER_1
 62
     7
100
AcDbVertex
100
AcDb2dVertex
 10
4.721158999999999
 20
21.024729
 30
0.0
  0
SEQEND
  5
4F0
330
4EA
100
AcDbEntity
  8
LAYER_1
 62
     7
  0
POLYLINE
  5
4E3
330
3D9
100
AcDbEntity
  8
LAYER_1
 62
     7
100
AcDb2dPolyline
 66
     1
 10
0.0
 20
0.0
 30
0.0
  0
VERTEX
  5
4E4
330
4E3
100
AcDbEntity
  8
LAYER_1
 62
     7
100
AcDbVertex
100
AcDb2dVertex
 10
4.721158999999999
 20
21.024729
 30
0.0
  0
VERTEX
  5
4E5
330
4E3
100
AcDbEntity
  8
LAYER_1
 62
     7
100
AcDbVertex
100
AcDb2dVertex
 10
4.83657
 20
21.037131
 30
0.0
  0
VERTEX
  5
4E6
330
4E3
100
AcDbEntity
  8
LAYER_1
 62
     7
100
AcDbVertex
100
AcDb2dVertex
 10
4.942677999999999
 20
21.080884
 30
0.0
  0
VERTEX
  5
4E7
330
4E3
100
AcDbEntity
  8
LAYER_1
 62
     7
100
AcDbVertex
100
AcDb2dVertex
 10
5.039486
 20
21.146341
 30
0.0
  0
VERTEX
  5
4E8
330
4E3
100
AcDbEntity
  8
LAYER_1
 62
     7
100
AcDbVertex
100
AcDb2dVertex
 10
5.114416999999998
 20
21.233674
 30
0.0
  0
SEQEND
  5
4E9
330
4E3
100
AcDbEntity
  8
LAYER_1
 62
     7
  0
POLYLINE
  5
4DC
330
3D9
100
AcDbEntity
  8
LAYER_1
 62
     7
100
AcDb2dPolyline
 66
     1
 10
0.0
 20
0.0
 30
0.0
  0
VERTEX
  5
4DD
330
4DC
100
AcDbEntity
  8
LAYER_1
 62
     7
100
AcDbVertex
100
AcDb2dVertex
 10
4.721158999999999
 20
21.445892
 30
0.0
  0
VERTEX
  5
4DE
330
4DC
100
AcDbEntity
  8
LAYER_1
 62
     7
100
AcDbVertex
100
AcDb2dVertex
 10
4.605748
 20
21.430216
 30
0.0
  0
VERTEX
  5
4DF
330
4DC
100
AcDbEntity
  8
LAYER_1
 62
     7
100
AcDbVertex
100
AcDb2dVertex
 10
4.496539
 20
21.389737
 30
0.0
  0
VERTEX
  5
4E0
330
4DC
100
AcDbEntity
  8
LAYER_1
 62
     7
100
AcDbVertex
100
AcDb2dVertex
 10
4.402832
 20
21.324108
 30
0.0
  0
VERTEX
  5
4E1
330
4DC
100
AcDbEntity
  8
LAYER_1
 62
     7
100
AcDbVertex
100
AcDb2dVertex
 10
4.324800999999999
 20
21.233674
 30
0.0
  0
SEQEND
  5
4E2
330
4DC
100
AcDbEntity
  8
LAYER_1
 62
     7
  0
POLYLINE
  5
4D5
330
3D9
100
AcDbEntity
  8
LAYER_1
 62
     7
100
AcDb2dPolyline
 66
     1
 10
0.0
 20
0.0
 30
0.0
  0
VERTEX
  5
4D6
330
4D5
100
AcDbEntity
  8
LAYER_1
 62
     7
100
AcDbVertex
100
AcDb2dVertex
 10
5.114416999999998
 20
21.233674
 30
0.0
  0
VERTEX
  5
4D7
330
4D5
100
AcDbEntity
  8
LAYER_1
 62
     7
100
AcDbVertex
100
AcDb2dVertex
 10
5.039486
 20
21.324108
 30
0.0
  0
VERTEX
  5
4D8
330
4D5
100
AcDbEntity
  8
LAYER_1
 62
     7
100
AcDbVertex
100
AcDb2dVertex
 10
4.942677999999999
 20
21.389737
 30
0.0
  0
VERTEX
  5
4D9
330
4D5
100
AcDbEntity
  8
LAYER_1
 62
     7
100
AcDbVertex
100
AcDb2dVertex
 10
4.83657
 20
21.430216
 30
0.0
  0
VERTEX
  5
4DA
330
4D5
100
AcDbEntity
  8
LAYER_1
 62
     7
100
AcDbVertex
100
AcDb2dVertex
 10
4.721158999999999
 20
21.445892
 30
0.0
  0
SEQEND
  5
4DB
330
4D5
100
AcDbEntity
  8
LAYER_1
 62
     7
  0
LINE
  5
4D4
330
3D9
100
AcDbEntity
  8
LAYER_1
 62
     7
100
AcDbLine
 10
5.114416999999998
 20
21.233674
 30
0.0
 11
5.114416999999998
 21
15.975769
 31
0.0
  0
LINE
  5
4D3
330
3D9
100
AcDbEntity
  8
LAYER_1
 62
     7
100
AcDbLine
 10
3.53863
 20
15.975769
 30
0.0
 11
3.53863
 21
21.233674
 31
0.0
  0
LINE
  5
4D2
330
3D9
100
AcDbEntity
  8
LAYER_1
 62
     7
100
AcDbLine
 10
5.114416999999998
 20
15.975769
 30
0.0
 11
3.53863
 21
15.975769
 31
0.0
  0
LINE
  5
4D1
330
3D9
100
AcDbEntity
  8
LAYER_1
 62
     7
100
AcDbLine
 10
3.53863
 20
15.975769
 30
0.0
 11
2.487013999999998
 21
15.975769
 31
0.0
  0
LINE
  5
4D0
330
3D9
100
AcDbEntity
  8
LAYER_1
 62
     7
100
AcDbLine
 10
2.487013999999998
 20
15.975769
 30
0.0
 11
2.487013999999998
 21
14.793068
 31
0.0
  0
LINE
  5
4CF
330
3D9
100
AcDbEntity
  8
LAYER_1
 62
     7
100
AcDbLine
 10
2.749185999999999
 20
14.793068
 30
0.0
 11
3.404443
 21
14.793068
 31
0.0
  0
LINE
  5
4CE
330
3D9
100
AcDbEntity
  8
LAYER_1
 62
     7
100
AcDbLine
 10
3.404443
 20
14.793068
 30
0.0
 11
3.404443
 21
15.975769
 31
0.0
  0
LINE
  5
4CD
330
3D9
100
AcDbEntity
  8
LAYER_1
 62
     7
100
AcDbLine
 10
2.487013999999998
 20
14.793068
 30
0.0
 11
2.749185999999999
 21
14.793068
 31
0.0
  0
LINE
  5
4CC
330
3D9
100
AcDbEntity
  8
LAYER_1
 62
     7
100
AcDbLine
 10
2.749185999999999
 20
14.268896
 30
0.0
 11
2.749185999999999
 21
14.793068
 31
0.0
  0
LINE
  5
4CB
330
3D9
100
AcDbEntity
  8
LAYER_1
 62
     7
100
AcDbLine
 10
3.404443
 20
14.793068
 30
0.0
 11
5.245502
 21
14.793068
 31
0.0
  0
LINE
  5
4CA
330
3D9
100
AcDbEntity
  8
LAYER_1
 62
     7
100
AcDbLine
 10
5.245502
 20
15.975769
 30
0.0
 11
5.245502
 21
14.793068
 31
0.0
  0
LINE
  5
4C9
330
3D9
100
AcDbEntity
  8
LAYER_1
 62
     7
100
AcDbLine
 10
6.166032
 20
15.975769
 30
0.0
 11
5.114416999999998
 21
15.975769
 31
0.0
  0
LINE
  5
4C8
330
3D9
100
AcDbEntity
  8
LAYER_1
 62
     7
100
AcDbLine
 10
6.166032
 20
14.793068
 30
0.0
 11
6.166032
 21
15.975769
 31
0.0
  0
LINE
  5
4C7
330
3D9
100
AcDbEntity
  8
LAYER_1
 62
     7
100
AcDbLine
 10
5.903859999999998
 20
14.793068
 30
0.0
 11
6.166032
 21
14.793068
 31
0.0
  0
LINE
  5
4C6
330
3D9
100
AcDbEntity
  8
LAYER_1
 62
     7
100
AcDbLine
 10
5.245502
 20
14.793068
 30
0.0
 11
5.903859999999998
 21
14.793068
 31
0.0
  0
LINE
  5
4C5
330
3D9
100
AcDbEntity
  8
LAYER_1
 62
     7
100
AcDbLine
 10
5.904031999999999
 20
14.268896
 30
0.0
 11
5.903859999999998
 21
14.793068
 31
0.0
  0
LINE
  5
4C4
330
3D9
100
AcDbEntity
  8
LAYER_1
 62
     7
100
AcDbLine
 10
5.904031999999999
 20
14.268896
 30
0.0
 11
2.749185999999999
 21
14.268896
 31
0.0
  0
POLYLINE
  5
4BF
330
3D9
100
AcDbEntity
  8
LAYER_1
 62
     7
100
AcDb2dPolyline
 66
     1
 10
0.0
 20
0.0
 30
0.0
  0
VERTEX
  5
4C0
330
4BF
100
AcDbEntity
  8
LAYER_1
 62
     7
100
AcDbVertex
100
AcDb2dVertex
 10
-10.191109
 20
11.168655
 30
0.0
  0
VERTEX
  5
4C1
330
4BF
100
AcDbEntity
  8
LAYER_1
 62
     7
100
AcDbVertex
100
AcDb2dVertex
 10
-8.128702999999998
 20
11.168655
 30
0.0
  0
VERTEX
  5
4C2
330
4BF
100
AcDbEntity
  8
LAYER_1
 62
     7
100
AcDbVertex
100
AcDb2dVertex
 10
-8.128702999999998
 20
14.302831
 30
0.0
  0
SEQEND
  5
4C3
330
4BF
100
AcDbEntity
  8
LAYER_1
 62
     7
  0
LINE
  5
4BE
330
3D9
100
AcDbEntity
  8
LAYER_1
 62
     7
100
AcDbLine
 10
6.657992
 20
11.168827
 30
0.0
 11
1.995227
 21
11.168827
 31
0.0
  0
LINE
  5
4BD
330
3D9
100
AcDbEntity
  8
LAYER_1
 62
     7
100
AcDbLine
 10
6.428204
 20
14.268896
 30
0.0
 11
5.904031999999999
 21
14.268896
 31
0.0
  0
POLYLINE
  5
4B4
330
3D9
100
AcDbEntity
  8
LAYER_1
 62
     7
100
AcDb2dPolyline
 66
     1
 10
0.0
 20
0.0
 30
0.0
  0
VERTEX
  5
4B5
330
4B4
100
AcDbEntity
  8
LAYER_1
 62
     7
100
AcDbVertex
100
AcDb2dVertex
 10
6.693475999999998
 20
14.006725
 30
0.0
  0
VERTEX
  5
4B6
330
4B4
100
AcDbEntity
  8
LAYER_1
 62
     7
100
AcDbVertex
100
AcDb2dVertex
 10
6.684002
 20
14.072354
 30
0.0
  0
VERTEX
  5
4B7
330
4B4
100
AcDbEntity
  8
LAYER_1
 62
     7
100
AcDbVertex
100
AcDb2dVertex
 10
6.655924
 20
14.137811
 30
0.0
  0
VERTEX
  5
4B8
330
4B4
100
AcDbEntity
  8
LAYER_1
 62
     7
100
AcDbVertex
100
AcDb2dVertex
 10
6.615444999999998
 20
14.190865
 30
0.0
  0
VERTEX
  5
4B9
330
4B4
100
AcDbEntity
  8
LAYER_1
 62
     7
100
AcDbVertex
100
AcDb2dVertex
 10
6.559116999999998
 20
14.234618
 30
0.0
  0
VERTEX
  5
4BA
330
4B4
100
AcDbEntity
  8
LAYER_1
 62
     7
100
AcDbVertex
100
AcDb2dVertex
 10
6.496761
 20
14.259595
 30
0.0
  0
VERTEX
  5
4BB
330
4B4
100
AcDbEntity
  8
LAYER_1
 62
     7
100
AcDbVertex
100
AcDb2dVertex
 10
6.428204
 20
14.268896
 30
0.0
  0
SEQEND
  5
4BC
330
4B4
100
AcDbEntity
  8
LAYER_1
 62
     7
  0
LINE
  5
4B3
330
3D9
100
AcDbEntity
  8
LAYER_1
 62
     7
100
AcDbLine
 10
6.693647999999998
 20
-7.611422
 30
0.0
 11
6.693475999999998
 21
14.006725
 31
0.0
  0
LINE
  5
4B2
330
3D9
100
AcDbEntity
  8
LAYER_1
 62
     7
100
AcDbLine
 10
2.749185999999999
 20
14.268896
 30
0.0
 11
2.221913999999999
 21
14.268896
 31
0.0
  0
POLYLINE
  5
4A9
330
3D9
100
AcDbEntity
  8
LAYER_1
 62
     7
100
AcDb2dPolyline
 66
     1
 10
0.0
 20
0.0
 30
0.0
  0
VERTEX
  5
4AA
330
4A9
100
AcDbEntity
  8
LAYER_1
 62
     7
100
AcDbVertex
100
AcDb2dVertex
 10
2.221913999999999
 20
14.268896
 30
0.0
  0
VERTEX
  5
4AB
330
4A9
100
AcDbEntity
  8
LAYER_1
 62
     7
100
AcDbVertex
100
AcDb2dVertex
 10
2.156285
 20
14.259422
 30
0.0
  0
VERTEX
  5
4AC
330
4A9
100
AcDbEntity
  8
LAYER_1
 62
     7
100
AcDbVertex
100
AcDb2dVertex
 10
2.090827999999999
 20
14.234446
 30
0.0
  0
VERTEX
  5
4AD
330
4A9
100
AcDbEntity
  8
LAYER_1
 62
     7
100
AcDbVertex
100
AcDb2dVertex
 10
2.037602
 20
14.190865
 30
0.0
  0
VERTEX
  5
4AE
330
4A9
100
AcDbEntity
  8
LAYER_1
 62
     7
100
AcDbVertex
100
AcDb2dVertex
 10
1.994020999999999
 20
14.137811
 30
0.0
  0
VERTEX
  5
4AF
330
4A9
100
AcDbEntity
  8
LAYER_1
 62
     7
100
AcDbVertex
100
AcDb2dVertex
 10
1.969043999999999
 20
14.072354
 30
0.0
  0
VERTEX
  5
4B0
330
4A9
100
AcDbEntity
  8
LAYER_1
 62
     7
100
AcDbVertex
100
AcDb2dVertex
 10
1.959742999999999
 20
14.006725
 30
0.0
  0
SEQEND
  5
4B1
330
4A9
100
AcDbEntity
  8
LAYER_1
 62
     7
  0
LINE
  5
4A8
330
3D9
100
AcDbEntity
  8
LAYER_1
 62
     7
100
AcDbLine
 10
1.959742999999999
 20
14.006725
 30
0.0
 11
1.960086999999998
 21
-7.611422
 31
0.0
  0
POLYLINE
  5
49F
330
3D9
100
AcDbEntity
  8
LAYER_1
 62
     7
100
AcDb2dPolyline
 66
     1
 10
0.0
 20
0.0
 30
0.0
  0
VERTEX
  5
4A0
330
49F
100
AcDbEntity
  8
LAYER_1
 62
     7
100
AcDbVertex
100
AcDb2dVertex
 10
1.959742999999999
 20
10.003352
 30
0.0
  0
VERTEX
  5
4A1
330
49F
100
AcDbEntity
  8
LAYER_1
 62
     7
100
AcDbVertex
100
AcDb2dVertex
 10
1.969216999999999
 20
9.934622
 30
0.0
  0
VERTEX
  5
4A2
330
49F
100
AcDbEntity
  8
LAYER_1
 62
     7
100
AcDbVertex
100
AcDb2dVertex
 10
1.994193999999999
 20
9.869164999999997
 30
0.0
  0
VERTEX
  5
4A3
330
49F
100
AcDbEntity
  8
LAYER_1
 62
     7
100
AcDbVertex
100
AcDb2dVertex
 10
2.037774
 20
9.816110999999999
 30
0.0
  0
VERTEX
  5
4A4
330
49F
100
AcDbEntity
  8
LAYER_1
 62
     7
100
AcDbVertex
100
AcDb2dVertex
 10
2.090827999999999
 20
9.775631
 30
0.0
  0
VERTEX
  5
4A5
330
49F
100
AcDbEntity
  8
LAYER_1
 62
     7
100
AcDbVertex
100
AcDb2dVertex
 10
2.156285
 20
9.747552999999999
 30
0.0
  0
VERTEX
  5
4A6
330
49F
100
AcDbEntity
  8
LAYER_1
 62
     7
100
AcDbVertex
100
AcDb2dVertex
 10
2.221913999999999
 20
9.738079
 30
0.0
  0
SEQEND
  5
4A7
330
49F
100
AcDbEntity
  8
LAYER_1
 62
     7
  0
LINE
  5
49E
330
3D9
100
AcDbEntity
  8
LAYER_1
 62
     7
100
AcDbLine
 10
2.221913999999999
 20
9.738079
 30
0.0
 11
3.941533999999998
 21
9.738079
 31
0.0
  0
LINE
  5
49D
330
3D9
100
AcDbEntity
  8
LAYER_1
 62
     7
100
AcDbLine
 10
3.931887
 20
9.747897999999999
 30
0.0
 11
3.931887
 21
6.311587
 31
0.0
  0
LINE
  5
49C
330
3D9
100
AcDbEntity
  8
LAYER_1
 62
     7
100
AcDbLine
 10
3.885723
 20
6.321233
 30
0.0
 11
2.221913999999999
 21
6.321233
 31
0.0
  0
POLYLINE
  5
493
330
3D9
100
AcDbEntity
  8
LAYER_1
 62
     7
100
AcDb2dPolyline
 66
     1
 10
0.0
 20
0.0
 30
0.0
  0
VERTEX
  5
494
330
493
100
AcDbEntity
  8
LAYER_1
 62
     7
100
AcDbVertex
100
AcDb2dVertex
 10
2.221913999999999
 20
6.321233
 30
0.0
  0
VERTEX
  5
495
330
493
100
AcDbEntity
  8
LAYER_1
 62
     7
100
AcDbVertex
100
AcDb2dVertex
 10
2.156458
 20
6.311931999999998
 30
0.0
  0
VERTEX
  5
496
330
493
100
AcDbEntity
  8
LAYER_1
 62
     7
100
AcDbVertex
100
AcDb2dVertex
 10
2.090827999999999
 20
6.286954999999998
 30
0.0
  0
VERTEX
  5
497
330
493
100
AcDbEntity
  8
LAYER_1
 62
     7
100
AcDbVertex
100
AcDb2dVertex
 10
2.037774
 20
6.246303
 30
0.0
  0
VERTEX
  5
498
330
493
100
AcDbEntity
  8
LAYER_1
 62
     7
100
AcDbVertex
100
AcDb2dVertex
 10
1.994193999999999
 20
6.190148
 30
0.0
  0
VERTEX
  5
499
330
493
100
AcDbEntity
  8
LAYER_1
 62
     7
100
AcDbVertex
100
AcDb2dVertex
 10
1.969216999999999
 20
6.127791
 30
0.0
  0
VERTEX
  5
49A
330
493
100
AcDbEntity
  8
LAYER_1
 62
     7
100
AcDbVertex
100
AcDb2dVertex
 10
1.959915
 20
6.059234
 30
0.0
  0
SEQEND
  5
49B
330
493
100
AcDbEntity
  8
LAYER_1
 62
     7
  0
POLYLINE
  5
48A
330
3D9
100
AcDbEntity
  8
LAYER_1
 62
     7
100
AcDb2dPolyline
 66
     1
 10
0.0
 20
0.0
 30
0.0
  0
VERTEX
  5
48B
330
48A
100
AcDbEntity
  8
LAYER_1
 62
     7
100
AcDbVertex
100
AcDb2dVertex
 10
2.880272
 20
6.848677999999998
 30
0.0
  0
VERTEX
  5
48C
330
48A
100
AcDbEntity
  8
LAYER_1
 62
     7
100
AcDbVertex
100
AcDb2dVertex
 10
3.017558999999998
 20
6.864180999999998
 30
0.0
  0
VERTEX
  5
48D
330
48A
100
AcDbEntity
  8
LAYER_1
 62
     7
100
AcDbVertex
100
AcDb2dVertex
 10
3.142443999999998
 20
6.917235
 30
0.0
  0
VERTEX
  5
48E
330
48A
100
AcDbEntity
  8
LAYER_1
 62
     7
100
AcDbVertex
100
AcDb2dVertex
 10
3.251652999999998
 20
7.001467999999999
 30
0.0
  0
VERTEX
  5
48F
330
48A
100
AcDbEntity
  8
LAYER_1
 62
     7
100
AcDbVertex
100
AcDb2dVertex
 10
3.332784999999998
 20
7.110677
 30
0.0
  0
VERTEX
  5
490
330
48A
100
AcDbEntity
  8
LAYER_1
 62
     7
100
AcDbVertex
100
AcDb2dVertex
 10
3.38894
 20
7.238661999999998
 30
0.0
  0
VERTEX
  5
491
330
48A
100
AcDbEntity
  8
LAYER_1
 62
     7
100
AcDbVertex
100
AcDb2dVertex
 10
3.404616
 20
7.372849
 30
0.0
  0
SEQEND
  5
492
330
48A
100
AcDbEntity
  8
LAYER_1
 62
     7
  0
POLYLINE
  5
481
330
3D9
100
AcDbEntity
  8
LAYER_1
 62
     7
100
AcDb2dPolyline
 66
     1
 10
0.0
 20
0.0
 30
0.0
  0
VERTEX
  5
482
330
481
100
AcDbEntity
  8
LAYER_1
 62
     7
100
AcDbVertex
100
AcDb2dVertex
 10
3.404616
 20
8.686636
 30
0.0
  0
VERTEX
  5
483
330
481
100
AcDbEntity
  8
LAYER_1
 62
     7
100
AcDbVertex
100
AcDb2dVertex
 10
3.38894
 20
8.823922999999997
 30
0.0
  0
VERTEX
  5
484
330
481
100
AcDbEntity
  8
LAYER_1
 62
     7
100
AcDbVertex
100
AcDb2dVertex
 10
3.332784999999998
 20
8.951736
 30
0.0
  0
VERTEX
  5
485
330
481
100
AcDbEntity
  8
LAYER_1
 62
     7
100
AcDbVertex
100
AcDb2dVertex
 10
3.251652999999998
 20
9.060945999999999
 30
0.0
  0
VERTEX
  5
486
330
481
100
AcDbEntity
  8
LAYER_1
 62
     7
100
AcDbVertex
100
AcDb2dVertex
 10
3.142443999999998
 20
9.14225
 30
0.0
  0
VERTEX
  5
487
330
481
100
AcDbEntity
  8
LAYER_1
 62
     7
100
AcDbVertex
100
AcDb2dVertex
 10
3.017558999999998
 20
9.195132
 30
0.0
  0
VERTEX
  5
488
330
481
100
AcDbEntity
  8
LAYER_1
 62
     7
100
AcDbVertex
100
AcDb2dVertex
 10
2.880272
 20
9.213907999999999
 30
0.0
  0
SEQEND
  5
489
330
481
100
AcDbEntity
  8
LAYER_1
 62
     7
  0
POLYLINE
  5
478
330
3D9
100
AcDbEntity
  8
LAYER_1
 62
     7
100
AcDb2dPolyline
 66
     1
 10
0.0
 20
0.0
 30
0.0
  0
VERTEX
  5
479
330
478
100
AcDbEntity
  8
LAYER_1
 62
     7
100
AcDbVertex
100
AcDb2dVertex
 10
2.880272
 20
9.213907999999999
 30
0.0
  0
VERTEX
  5
47A
330
478
100
AcDbEntity
  8
LAYER_1
 62
     7
100
AcDbVertex
100
AcDb2dVertex
 10
2.742985
 20
9.195132
 30
0.0
  0
VERTEX
  5
47B
330
478
100
AcDbEntity
  8
LAYER_1
 62
     7
100
AcDbVertex
100
AcDb2dVertex
 10
2.6181
 20
9.14225
 30
0.0
  0
VERTEX
  5
47C
330
478
100
AcDbEntity
  8
LAYER_1
 62
     7
100
AcDbVertex
100
AcDb2dVertex
 10
2.509063
 20
9.060945999999999
 30
0.0
  0
VERTEX
  5
47D
330
478
100
AcDbEntity
  8
LAYER_1
 62
     7
100
AcDbVertex
100
AcDb2dVertex
 10
2.42483
 20
8.951736
 30
0.0
  0
VERTEX
  5
47E
330
478
100
AcDbEntity
  8
LAYER_1
 62
     7
100
AcDbVertex
100
AcDb2dVertex
 10
2.371604
 20
8.823922999999997
 30
0.0
  0
VERTEX
  5
47F
330
478
100
AcDbEntity
  8
LAYER_1
 62
     7
100
AcDbVertex
100
AcDb2dVertex
 10
2.356100999999998
 20
8.686636
 30
0.0
  0
SEQEND
  5
480
330
478
100
AcDbEntity
  8
LAYER_1
 62
     7
  0
POLYLINE
  5
472
330
3D9
100
AcDbEntity
  8
LAYER_1
 62
     7
100
AcDb2dPolyline
 66
     1
 10
0.0
 20
0.0
 30
0.0
 70
     1
  0
VERTEX
  5
473
330
472
100
AcDbEntity
  8
LAYER_1
 62
     7
100
AcDbVertex
100
AcDb2dVertex
 10
2.356100999999998
 20
9.412689999999999
 30
0.0
  0
VERTEX
  5
474
330
472
100
AcDbEntity
  8
LAYER_1
 62
     7
100
AcDbVertex
100
AcDb2dVertex
 10
2.356100999999998
 20
6.646795
 30
0.0
  0
VERTEX
  5
475
330
472
100
AcDbEntity
  8
LAYER_1
 62
     7
100
AcDbVertex
100
AcDb2dVertex
 10
3.404616
 20
6.646795
 30
0.0
  0
VERTEX
  5
476
330
472
100
AcDbEntity
  8
LAYER_1
 62
     7
100
AcDbVertex
100
AcDb2dVertex
 10
3.404616
 20
9.412689999999999
 30
0.0
  0
SEQEND
  5
477
330
472
100
AcDbEntity
  8
LAYER_1
 62
     7
  0
POLYLINE
  5
469
330
3D9
100
AcDbEntity
  8
LAYER_1
 62
     7
100
AcDb2dPolyline
 66
     1
 10
0.0
 20
0.0
 30
0.0
  0
VERTEX
  5
46A
330
469
100
AcDbEntity
  8
LAYER_1
 62
     7
100
AcDbVertex
100
AcDb2dVertex
 10
2.356100999999998
 20
7.372849
 30
0.0
  0
VERTEX
  5
46B
330
469
100
AcDbEntity
  8
LAYER_1
 62
     7
100
AcDbVertex
100
AcDb2dVertex
 10
2.371604
 20
7.238661999999998
 30
0.0
  0
VERTEX
  5
46C
330
469
100
AcDbEntity
  8
LAYER_1
 62
     7
100
AcDbVertex
100
AcDb2dVertex
 10
2.42483
 20
7.110677
 30
0.0
  0
VERTEX
  5
46D
330
469
100
AcDbEntity
  8
LAYER_1
 62
     7
100
AcDbVertex
100
AcDb2dVertex
 10
2.509063
 20
7.001467999999999
 30
0.0
  0
VERTEX
  5
46E
330
469
100
AcDbEntity
  8
LAYER_1
 62
     7
100
AcDbVertex
100
AcDb2dVertex
 10
2.618272999999998
 20
6.917235
 30
0.0
  0
VERTEX
  5
46F
330
469
100
AcDbEntity
  8
LAYER_1
 62
     7
100
AcDbVertex
100
AcDb2dVertex
 10
2.742985
 20
6.864180999999998
 30
0.0
  0
VERTEX
  5
470
330
469
100
AcDbEntity
  8
LAYER_1
 62
     7
100
AcDbVertex
100
AcDb2dVertex
 10
2.880272
 20
6.848677999999998
 30
0.0
  0
SEQEND
  5
471
330
469
100
AcDbEntity
  8
LAYER_1
 62
     7
  0
POLYLINE
  5
460
330
3D9
100
AcDbEntity
  8
LAYER_1
 62
     7
100
AcDb2dPolyline
 66
     1
 10
0.0
 20
0.0
 30
0.0
  0
VERTEX
  5
461
330
460
100
AcDbEntity
  8
LAYER_1
 62
     7
100
AcDbVertex
100
AcDb2dVertex
 10
1.960086999999998
 20
-7.611422
 30
0.0
  0
VERTEX
  5
462
330
460
100
AcDbEntity
  8
LAYER_1
 62
     7
100
AcDbVertex
100
AcDb2dVertex
 10
1.969388999999999
 20
-7.677050999999998
 30
0.0
  0
VERTEX
  5
463
330
460
100
AcDbEntity
  8
LAYER_1
 62
     7
100
AcDbVertex
100
AcDb2dVertex
 10
1.994366
 20
-7.742507999999999
 30
0.0
  0
VERTEX
  5
464
330
460
100
AcDbEntity
  8
LAYER_1
 62
     7
100
AcDbVertex
100
AcDb2dVertex
 10
2.038117999999998
 20
-7.795561999999998
 30
0.0
  0
VERTEX
  5
465
330
460
100
AcDbEntity
  8
LAYER_1
 62
     7
100
AcDbVertex
100
AcDb2dVertex
 10
2.091172999999999
 20
-7.836041999999999
 30
0.0
  0
VERTEX
  5
466
330
460
100
AcDbEntity
  8
LAYER_1
 62
     7
100
AcDbVertex
100
AcDb2dVertex
 10
2.156629999999998
 20
-7.864291999999998
 30
0.0
  0
VERTEX
  5
467
330
460
100
AcDbEntity
  8
LAYER_1
 62
     7
100
AcDbVertex
100
AcDb2dVertex
 10
2.222086999999999
 20
-7.873592999999998
 30
0.0
  0
SEQEND
  5
468
330
460
100
AcDbEntity
  8
LAYER_1
 62
     7
  0
LINE
  5
45F
330
3D9
100
AcDbEntity
  8
LAYER_1
 62
     7
100
AcDbLine
 10
2.222086999999999
 20
-7.873592999999998
 30
0.0
 11
6.428548
 21
-7.873592999999998
 31
0.0
  0
POLYLINE
  5
456
330
3D9
100
AcDbEntity
  8
LAYER_1
 62
     7
100
AcDb2dPolyline
 66
     1
 10
0.0
 20
0.0
 30
0.0
  0
VERTEX
  5
457
330
456
100
AcDbEntity
  8
LAYER_1
 62
     7
100
AcDbVertex
100
AcDb2dVertex
 10
4.325317
 20
-7.873592999999998
 30
0.0
  0
VERTEX
  5
458
330
456
100
AcDbEntity
  8
LAYER_1
 62
     7
100
AcDbVertex
100
AcDb2dVertex
 10
4.394047
 20
-7.864119
 30
0.0
  0
VERTEX
  5
459
330
456
100
AcDbEntity
  8
LAYER_1
 62
     7
100
AcDbVertex
100
AcDb2dVertex
 10
4.456402999999999
 20
-7.836041999999999
 30
0.0
  0
VERTEX
  5
45A
330
456
100
AcDbEntity
  8
LAYER_1
 62
     7
100
AcDbVertex
100
AcDb2dVertex
 10
4.512558
 20
-7.795561999999998
 30
0.0
  0
VERTEX
  5
45B
330
456
100
AcDbEntity
  8
LAYER_1
 62
     7
100
AcDbVertex
100
AcDb2dVertex
 10
4.553037999999999
 20
-7.742507999999999
 30
0.0
  0
VERTEX
  5
45C
330
456
100
AcDbEntity
  8
LAYER_1
 62
     7
100
AcDbVertex
100
AcDb2dVertex
 10
4.581287999999998
 20
-7.677050999999998
 30
0.0
  0
VERTEX
  5
45D
330
456
100
AcDbEntity
  8
LAYER_1
 62
     7
100
AcDbVertex
100
AcDb2dVertex
 10
4.590589999999998
 20
-7.611422
 30
0.0
  0
SEQEND
  5
45E
330
456
100
AcDbEntity
  8
LAYER_1
 62
     7
  0
LINE
  5
455
330
3D9
100
AcDbEntity
  8
LAYER_1
 62
     7
100
AcDbLine
 10
4.590589999999998
 20
-7.611422
 30
0.0
 11
4.590589999999998
 21
-4.446928999999999
 31
0.0
  0
LINE
  5
454
330
3D9
100
AcDbEntity
  8
LAYER_1
 62
     7
100
AcDbLine
 10
4.636753999999998
 20
-4.456576
 30
0.0
 11
6.428548
 21
-4.456576
 31
0.0
  0
POLYLINE
  5
44B
330
3D9
100
AcDbEntity
  8
LAYER_1
 62
     7
100
AcDb2dPolyline
 66
     1
 10
0.0
 20
0.0
 30
0.0
  0
VERTEX
  5
44C
330
44B
100
AcDbEntity
  8
LAYER_1
 62
     7
100
AcDbVertex
100
AcDb2dVertex
 10
6.428548
 20
-7.873592999999998
 30
0.0
  0
VERTEX
  5
44D
330
44B
100
AcDbEntity
  8
LAYER_1
 62
     7
100
AcDbVertex
100
AcDb2dVertex
 10
6.497105999999998
 20
-7.864119
 30
0.0
  0
VERTEX
  5
44E
330
44B
100
AcDbEntity
  8
LAYER_1
 62
     7
100
AcDbVertex
100
AcDb2dVertex
 10
6.559461999999999
 20
-7.836041999999999
 30
0.0
  0
VERTEX
  5
44F
330
44B
100
AcDbEntity
  8
LAYER_1
 62
     7
100
AcDbVertex
100
AcDb2dVertex
 10
6.615789
 20
-7.795561999999998
 30
0.0
  0
VERTEX
  5
450
330
44B
100
AcDbEntity
  8
LAYER_1
 62
     7
100
AcDbVertex
100
AcDb2dVertex
 10
6.656268999999999
 20
-7.742507999999999
 30
0.0
  0
VERTEX
  5
451
330
44B
100
AcDbEntity
  8
LAYER_1
 62
     7
100
AcDbVertex
100
AcDb2dVertex
 10
6.684346999999998
 20
-7.676878999999998
 30
0.0
  0
VERTEX
  5
452
330
44B
100
AcDbEntity
  8
LAYER_1
 62
     7
100
AcDbVertex
100
AcDb2dVertex
 10
6.693647999999998
 20
-7.611422
 30
0.0
  0
SEQEND
  5
453
330
44B
100
AcDbEntity
  8
LAYER_1
 62
     7
  0
POLYLINE
  5
442
330
3D9
100
AcDbEntity
  8
LAYER_1
 62
     7
100
AcDb2dPolyline
 66
     1
 10
0.0
 20
0.0
 30
0.0
  0
VERTEX
  5
443
330
442
100
AcDbEntity
  8
LAYER_1
 62
     7
100
AcDbVertex
100
AcDb2dVertex
 10
6.428548
 20
-4.456576
 30
0.0
  0
VERTEX
  5
444
330
442
100
AcDbEntity
  8
LAYER_1
 62
     7
100
AcDbVertex
100
AcDb2dVertex
 10
6.497105999999998
 20
-4.447274
 30
0.0
  0
VERTEX
  5
445
330
442
100
AcDbEntity
  8
LAYER_1
 62
     7
100
AcDbVertex
100
AcDb2dVertex
 10
6.559461999999999
 20
-4.419196
 30
0.0
  0
VERTEX
  5
446
330
442
100
AcDbEntity
  8
LAYER_1
 62
     7
100
AcDbVertex
100
AcDb2dVertex
 10
6.615789
 20
-4.378544
 30
0.0
  0
VERTEX
  5
447
330
442
100
AcDbEntity
  8
LAYER_1
 62
     7
100
AcDbVertex
100
AcDb2dVertex
 10
6.656268999999999
 20
-4.325662
 30
0.0
  0
VERTEX
  5
448
330
442
100
AcDbEntity
  8
LAYER_1
 62
     7
100
AcDbVertex
100
AcDb2dVertex
 10
6.684346999999998
 20
-4.260032999999999
 30
0.0
  0
VERTEX
  5
449
330
442
100
AcDbEntity
  8
LAYER_1
 62
     7
100
AcDbVertex
100
AcDb2dVertex
 10
6.693647999999998
 20
-4.191302999999998
 30
0.0
  0
SEQEND
  5
44A
330
442
100
AcDbEntity
  8
LAYER_1
 62
     7
  0
POLYLINE
  5
439
330
3D9
100
AcDbEntity
  8
LAYER_1
 62
     7
100
AcDb2dPolyline
 66
     1
 10
0.0
 20
0.0
 30
0.0
  0
VERTEX
  5
43A
330
439
100
AcDbEntity
  8
LAYER_1
 62
     7
100
AcDbVertex
100
AcDb2dVertex
 10
6.297462
 20
-5.508191
 30
0.0
  0
VERTEX
  5
43B
330
439
100
AcDbEntity
  8
LAYER_1
 62
     7
100
AcDbVertex
100
AcDb2dVertex
 10
6.278687
 20
-5.370904
 30
0.0
  0
VERTEX
  5
43C
330
439
100
AcDbEntity
  8
LAYER_1
 62
     7
100
AcDbVertex
100
AcDb2dVertex
 10
6.228733
 20
-5.243091
 30
0.0
  0
VERTEX
  5
43D
330
439
100
AcDbEntity
  8
LAYER_1
 62
     7
100
AcDbVertex
100
AcDb2dVertex
 10
6.141398999999998
 20
-5.133708999999998
 30
0.0
  0
VERTEX
  5
43E
330
439
100
AcDbEntity
  8
LAYER_1
 62
     7
100
AcDbVertex
100
AcDb2dVertex
 10
6.035290999999999
 20
-5.052576999999998
 30
0.0
  0
VERTEX
  5
43F
330
439
100
AcDbEntity
  8
LAYER_1
 62
     7
100
AcDbVertex
100
AcDb2dVertex
 10
5.907477
 20
-4.999522999999999
 30
0.0
  0
VERTEX
  5
440
330
439
100
AcDbEntity
  8
LAYER_1
 62
     7
100
AcDbVertex
100
AcDb2dVertex
 10
5.773119
 20
-4.980919
 30
0.0
  0
SEQEND
  5
441
330
439
100
AcDbEntity
  8
LAYER_1
 62
     7
  0
POLYLINE
  5
430
330
3D9
100
AcDbEntity
  8
LAYER_1
 62
     7
100
AcDb2dPolyline
 66
     1
 10
0.0
 20
0.0
 30
0.0
  0
VERTEX
  5
431
330
430
100
AcDbEntity
  8
LAYER_1
 62
     7
100
AcDbVertex
100
AcDb2dVertex
 10
5.773119
 20
-4.980919
 30
0.0
  0
VERTEX
  5
432
330
430
100
AcDbEntity
  8
LAYER_1
 62
     7
100
AcDbVertex
100
AcDb2dVertex
 10
5.635831999999998
 20
-4.999522999999999
 30
0.0
  0
VERTEX
  5
433
330
430
100
AcDbEntity
  8
LAYER_1
 62
     7
100
AcDbVertex
100
AcDb2dVertex
 10
5.507845999999998
 20
-5.052576999999998
 30
0.0
  0
VERTEX
  5
434
330
430
100
AcDbEntity
  8
LAYER_1
 62
     7
100
AcDbVertex
100
AcDb2dVertex
 10
5.401909999999999
 20
-5.133880999999998
 30
0.0
  0
VERTEX
  5
435
330
430
100
AcDbEntity
  8
LAYER_1
 62
     7
100
AcDbVertex
100
AcDb2dVertex
 10
5.317676999999998
 20
-5.243091
 30
0.0
  0
VERTEX
  5
436
330
430
100
AcDbEntity
  8
LAYER_1
 62
     7
100
AcDbVertex
100
AcDb2dVertex
 10
5.264623
 20
-5.371076
 30
0.0
  0
VERTEX
  5
437
330
430
100
AcDbEntity
  8
LAYER_1
 62
     7
100
AcDbVertex
100
AcDb2dVertex
 10
5.245847
 20
-5.508363
 30
0.0
  0
SEQEND
  5
438
330
430
100
AcDbEntity
  8
LAYER_1
 62
     7
  0
POLYLINE
  5
427
330
3D9
100
AcDbEntity
  8
LAYER_1
 62
     7
100
AcDb2dPolyline
 66
     1
 10
0.0
 20
0.0
 30
0.0
  0
VERTEX
  5
428
330
427
100
AcDbEntity
  8
LAYER_1
 62
     7
100
AcDbVertex
100
AcDb2dVertex
 10
5.773291
 20
-7.346149
 30
0.0
  0
VERTEX
  5
429
330
427
100
AcDbEntity
  8
LAYER_1
 62
     7
100
AcDbVertex
100
AcDb2dVertex
 10
5.907477
 20
-7.330646
 30
0.0
  0
VERTEX
  5
42A
330
427
100
AcDbEntity
  8
LAYER_1
 62
     7
100
AcDbVertex
100
AcDb2dVertex
 10
6.035290999999999
 20
-7.277591999999998
 30
0.0
  0
VERTEX
  5
42B
330
427
100
AcDbEntity
  8
LAYER_1
 62
     7
100
AcDbVertex
100
AcDb2dVertex
 10
6.141398999999998
 20
-7.193359
 30
0.0
  0
VERTEX
  5
42C
330
427
100
AcDbEntity
  8
LAYER_1
 62
     7
100
AcDbVertex
100
AcDb2dVertex
 10
6.228733
 20
-7.08415
 30
0.0
  0
VERTEX
  5
42D
330
427
100
AcDbEntity
  8
LAYER_1
 62
     7
100
AcDbVertex
100
AcDb2dVertex
 10
6.278687
 20
-6.956164999999998
 30
0.0
  0
VERTEX
  5
42E
330
427
100
AcDbEntity
  8
LAYER_1
 62
     7
100
AcDbVertex
100
AcDb2dVertex
 10
6.297462
 20
-6.821977999999998
 30
0.0
  0
SEQEND
  5
42F
330
427
100
AcDbEntity
  8
LAYER_1
 62
     7
  0
POLYLINE
  5
41E
330
3D9
100
AcDbEntity
  8
LAYER_1
 62
     7
100
AcDb2dPolyline
 66
     1
 10
0.0
 20
0.0
 30
0.0
  0
VERTEX
  5
41F
330
41E
100
AcDbEntity
  8
LAYER_1
 62
     7
100
AcDbVertex
100
AcDb2dVertex
 10
5.245847
 20
-6.821977999999998
 30
0.0
  0
VERTEX
  5
420
330
41E
100
AcDbEntity
  8
LAYER_1
 62
     7
100
AcDbVertex
100
AcDb2dVertex
 10
5.264623
 20
-6.956164999999998
 30
0.0
  0
VERTEX
  5
421
330
41E
100
AcDbEntity
  8
LAYER_1
 62
     7
100
AcDbVertex
100
AcDb2dVertex
 10
5.317676999999998
 20
-7.08415
 30
0.0
  0
VERTEX
  5
422
330
41E
100
AcDbEntity
  8
LAYER_1
 62
     7
100
AcDbVertex
100
AcDb2dVertex
 10
5.401909999999999
 20
-7.193359
 30
0.0
  0
VERTEX
  5
423
330
41E
100
AcDbEntity
  8
LAYER_1
 62
     7
100
AcDbVertex
100
AcDb2dVertex
 10
5.508018999999999
 20
-7.277591999999998
 30
0.0
  0
VERTEX
  5
424
330
41E
100
AcDbEntity
  8
LAYER_1
 62
     7
100
AcDbVertex
100
AcDb2dVertex
 10
5.635831999999998
 20
-7.330646
 30
0.0
  0
VERTEX
  5
425
330
41E
100
AcDbEntity
  8
LAYER_1
 62
     7
100
AcDbVertex
100
AcDb2dVertex
 10
5.773291
 20
-7.346149
 30
0.0
  0
SEQEND
  5
426
330
41E
100
AcDbEntity
  8
LAYER_1
 62
     7
  0
POLYLINE
  5
418
330
3D9
100
AcDbEntity
  8
LAYER_1
 62
     7
100
AcDb2dPolyline
 66
     1
 10
0.0
 20
0.0
 30
0.0
 70
     1
  0
VERTEX
  5
419
330
418
100
AcDbEntity
  8
LAYER_1
 62
     7
100
AcDbVertex
100
AcDb2dVertex
 10
6.297462
 20
-4.782137
 30
0.0
  0
VERTEX
  5
41A
330
418
100
AcDbEntity
  8
LAYER_1
 62
     7
100
AcDbVertex
100
AcDb2dVertex
 10
6.297462
 20
-7.548032
 30
0.0
  0
VERTEX
  5
41B
330
418
100
AcDbEntity
  8
LAYER_1
 62
     7
100
AcDbVertex
100
AcDb2dVertex
 10
5.245847
 20
-7.548032
 30
0.0
  0
VERTEX
  5
41C
330
418
100
AcDbEntity
  8
LAYER_1
 62
     7
100
AcDbVertex
100
AcDb2dVertex
 10
5.245847
 20
-4.782137
 30
0.0
  0
SEQEND
  5
41D
330
418
100
AcDbEntity
  8
LAYER_1
 62
     7
  0
POLYLINE
  5
3FD
330
3D9
100
AcDbEntity
  8
LAYER_1
 62
     7
100
AcDb2dPolyline
 66
     1
 10
0.0
 20
0.0
 30
0.0
  0
VERTEX
  5
3FE
330
3FD
100
AcDbEntity
  8
LAYER_1
 62
     7
100
AcDbVertex
100
AcDb2dVertex
 10
5.114588999999998
 20
3.297644999999998
 30
0.0
  0
VERTEX
  5
3FF
330
3FD
100
AcDbEntity
  8
LAYER_1
 62
     7
100
AcDbVertex
100
AcDb2dVertex
 10
5.351783999999998
 20
3.328824
 30
0.0
  0
VERTEX
  5
400
330
3FD
100
AcDbEntity
  8
LAYER_1
 62
     7
100
AcDbVertex
100
AcDb2dVertex
 10
5.573303
 20
3.422358
 30
0.0
  0
VERTEX
  5
401
330
3FD
100
AcDbEntity
  8
LAYER_1
 62
     7
100
AcDbVertex
100
AcDb2dVertex
 10
5.766744999999998
 20
3.569119
 30
0.0
  0
VERTEX
  5
402
330
3FD
100
AcDbEntity
  8
LAYER_1
 62
     7
100
AcDbVertex
100
AcDb2dVertex
 10
5.910406
 20
3.759459999999998
 30
0.0
  0
VERTEX
  5
403
330
3FD
100
AcDbEntity
  8
LAYER_1
 62
     7
100
AcDbVertex
100
AcDb2dVertex
 10
6.00394
 20
3.98098
 30
0.0
  0
VERTEX
  5
404
330
3FD
100
AcDbEntity
  8
LAYER_1
 62
     7
100
AcDbVertex
100
AcDb2dVertex
 10
6.035117999999998
 20
4.218174999999998
 30
0.0
  0
VERTEX
  5
405
330
3FD
100
AcDbEntity
  8
LAYER_1
 62
     7
100
AcDbVertex
100
AcDb2dVertex
 10
6.00394
 20
4.458469999999998
 30
0.0
  0
VERTEX
  5
406
330
3FD
100
AcDbEntity
  8
LAYER_1
 62
     7
100
AcDbVertex
100
AcDb2dVertex
 10
5.910233999999999
 20
4.67999
 30
0.0
  0
VERTEX
  5
407
330
3FD
100
AcDbEntity
  8
LAYER_1
 62
     7
100
AcDbVertex
100
AcDb2dVertex
 10
5.766744999999998
 20
4.870331
 30
0.0
  0
VERTEX
  5
408
330
3FD
100
AcDbEntity
  8
LAYER_1
 62
     7
100
AcDbVertex
100
AcDb2dVertex
 10
5.573303
 20
5.016919999999998
 30
0.0
  0
VERTEX
  5
409
330
3FD
100
AcDbEntity
  8
LAYER_1
 62
     7
100
AcDbVertex
100
AcDb2dVertex
 10
5.351783999999998
 20
5.107526
 30
0.0
  0
VERTEX
  5
40A
330
3FD
100
AcDbEntity
  8
LAYER_1
 62
     7
100
AcDbVertex
100
AcDb2dVertex
 10
5.114588999999998
 20
5.138703999999998
 30
0.0
  0
VERTEX
  5
40B
330
3FD
100
AcDbEntity
  8
LAYER_1
 62
     7
100
AcDbVertex
100
AcDb2dVertex
 10
4.877566
 20
5.107526
 30
0.0
  0
VERTEX
  5
40C
330
3FD
100
AcDbEntity
  8
LAYER_1
 62
     7
100
AcDbVertex
100
AcDb2dVertex
 10
4.655873999999998
 20
5.016919999999998
 30
0.0
  0
VERTEX
  5
40D
330
3FD
100
AcDbEntity
  8
LAYER_1
 62
     7
100
AcDbVertex
100
AcDb2dVertex
 10
4.465532999999998
 20
4.870331
 30
0.0
  0
VERTEX
  5
40E
330
3FD
100
AcDbEntity
  8
LAYER_1
 62
     7
100
AcDbVertex
100
AcDb2dVertex
 10
4.318944
 20
4.67999
 30
0.0
  0
VERTEX
  5
40F
330
3FD
100
AcDbEntity
  8
LAYER_1
 62
     7
100
AcDbVertex
100
AcDb2dVertex
 10
4.225236999999999
 20
4.458298
 30
0.0
  0
VERTEX
  5
410
330
3FD
100
AcDbEntity
  8
LAYER_1
 62
     7
100
AcDbVertex
100
AcDb2dVertex
 10
4.194058999999998
 20
4.218174999999998
 30
0.0
  0
VERTEX
  5
411
330
3FD
100
AcDbEntity
  8
LAYER_1
 62
     7
100
AcDbVertex
100
AcDb2dVertex
 10
4.225236999999999
 20
3.98098
 30
0.0
  0
VERTEX
  5
412
330
3FD
100
AcDbEntity
  8
LAYER_1
 62
     7
100
AcDbVertex
100
AcDb2dVertex
 10
4.318944
 20
3.759459999999998
 30
0.0
  0
VERTEX
  5
413
330
3FD
100
AcDbEntity
  8
LAYER_1
 62
     7
100
AcDbVertex
100
AcDb2dVertex
 10
4.465532999999998
 20
3.569119
 30
0.0
  0
VERTEX
  5
414
330
3FD
100
AcDbEntity
  8
LAYER_1
 62
     7
100
AcDbVertex
100
AcDb2dVertex
 10
4.655873999999998
 20
3.422358
 30
0.0
  0
VERTEX
  5
415
330
3FD
100
AcDbEntity
  8
LAYER_1
 62
     7
100
AcDbVertex
100
AcDb2dVertex
 10
4.877566
 20
3.328824
 30
0.0
  0
VERTEX
  5
416
330
3FD
100
AcDbEntity
  8
LAYER_1
 62
     7
100
AcDbVertex
100
AcDb2dVertex
 10
5.114588999999998
 20
3.297644999999998
 30
0.0
  0
SEQEND
  5
417
330
3FD
100
AcDbEntity
  8
LAYER_1
 62
     7
  0
POLYLINE
  5
3E2
330
3D9
100
AcDbEntity
  8
LAYER_1
 62
     7
100
AcDb2dPolyline
 66
     1
 10
0.0
 20
0.0
 30
0.0
  0
VERTEX
  5
3E3
330
3E2
100
AcDbEntity
  8
LAYER_1
 62
     7
100
AcDbVertex
100
AcDb2dVertex
 10
-8.570192
 20
3.297644999999998
 30
0.0
  0
VERTEX
  5
3E4
330
3E2
100
AcDbEntity
  8
LAYER_1
 62
     7
100
AcDbVertex
100
AcDb2dVertex
 10
-8.332997
 20
3.328824
 30
0.0
  0
VERTEX
  5
3E5
330
3E2
100
AcDbEntity
  8
LAYER_1
 62
     7
100
AcDbVertex
100
AcDb2dVertex
 10
-8.111477
 20
3.422358
 30
0.0
  0
VERTEX
  5
3E6
330
3E2
100
AcDbEntity
  8
LAYER_1
 62
     7
100
AcDbVertex
100
AcDb2dVertex
 10
-7.918035
 20
3.569119
 30
0.0
  0
VERTEX
  5
3E7
330
3E2
100
AcDbEntity
  8
LAYER_1
 62
     7
100
AcDbVertex
100
AcDb2dVertex
 10
-7.774375
 20
3.759459999999998
 30
0.0
  0
VERTEX
  5
3E8
330
3E2
100
AcDbEntity
  8
LAYER_1
 62
     7
100
AcDbVertex
100
AcDb2dVertex
 10
-7.680839999999999
 20
3.98098
 30
0.0
  0
VERTEX
  5
3E9
330
3E2
100
AcDbEntity
  8
LAYER_1
 62
     7
100
AcDbVertex
100
AcDb2dVertex
 10
-7.649661999999998
 20
4.218174999999998
 30
0.0
  0
VERTEX
  5
3EA
330
3E2
100
AcDbEntity
  8
LAYER_1
 62
     7
100
AcDbVertex
100
AcDb2dVertex
 10
-7.680839999999999
 20
4.458469999999998
 30
0.0
  0
VERTEX
  5
3EB
330
3E2
100
AcDbEntity
  8
LAYER_1
 62
     7
100
AcDbVertex
100
AcDb2dVertex
 10
-7.774547
 20
4.67999
 30
0.0
  0
VERTEX
  5
3EC
330
3E2
100
AcDbEntity
  8
LAYER_1
 62
     7
100
AcDbVertex
100
AcDb2dVertex
 10
-7.918035
 20
4.870331
 30
0.0
  0
VERTEX
  5
3ED
330
3E2
100
AcDbEntity
  8
LAYER_1
 62
     7
100
AcDbVertex
100
AcDb2dVertex
 10
-8.111477
 20
5.016919999999998
 30
0.0
  0
VERTEX
  5
3EE
330
3E2
100
AcDbEntity
  8
LAYER_1
 62
     7
100
AcDbVertex
100
AcDb2dVertex
 10
-8.332997
 20
5.107526
 30
0.0
  0
VERTEX
  5
3EF
330
3E2
100
AcDbEntity
  8
LAYER_1
 62
     7
100
AcDbVertex
100
AcDb2dVertex
 10
-8.570192
 20
5.138703999999998
 30
0.0
  0
VERTEX
  5
3F0
330
3E2
100
AcDbEntity
  8
LAYER_1
 62
     7
100
AcDbVertex
100
AcDb2dVertex
 10
-8.807387
 20
5.107526
 30
0.0
  0
VERTEX
  5
3F1
330
3E2
100
AcDbEntity
  8
LAYER_1
 62
     7
100
AcDbVertex
100
AcDb2dVertex
 10
-9.028905999999999
 20
5.016919999999998
 30
0.0
  0
VERTEX
  5
3F2
330
3E2
100
AcDbEntity
  8
LAYER_1
 62
     7
100
AcDbVertex
100
AcDb2dVertex
 10
-9.219248
 20
4.870331
 30
0.0
  0
VERTEX
  5
3F3
330
3E2
100
AcDbEntity
  8
LAYER_1
 62
     7
100
AcDbVertex
100
AcDb2dVertex
 10
-9.365837
 20
4.67999
 30
0.0
  0
VERTEX
  5
3F4
330
3E2
100
AcDbEntity
  8
LAYER_1
 62
     7
100
AcDbVertex
100
AcDb2dVertex
 10
-9.459543
 20
4.458298
 30
0.0
  0
VERTEX
  5
3F5
330
3E2
100
AcDbEntity
  8
LAYER_1
 62
     7
100
AcDbVertex
100
AcDb2dVertex
 10
-9.490721
 20
4.218174999999998
 30
0.0
  0
VERTEX
  5
3F6
330
3E2
100
AcDbEntity
  8
LAYER_1
 62
     7
100
AcDbVertex
100
AcDb2dVertex
 10
-9.459543
 20
3.98098
 30
0.0
  0
VERTEX
  5
3F7
330
3E2
100
AcDbEntity
  8
LAYER_1
 62
     7
100
AcDbVertex
100
AcDb2dVertex
 10
-9.365837
 20
3.759459999999998
 30
0.0
  0
VERTEX
  5
3F8
330
3E2
100
AcDbEntity
  8
LAYER_1
 62
     7
100
AcDbVertex
100
AcDb2dVertex
 10
-9.219248
 20
3.569119
 30
0.0
  0
VERTEX
  5
3F9
330
3E2
100
AcDbEntity
  8
LAYER_1
 62
     7
100
AcDbVertex
100
AcDb2dVertex
 10
-9.028905999999999
 20
3.422358
 30
0.0
  0
VERTEX
  5
3FA
330
3E2
100
AcDbEntity
  8
LAYER_1
 62
     7
100
AcDbVertex
100
AcDb2dVertex
 10
-8.807387
 20
3.328824
 30
0.0
  0
VERTEX
  5
3FB
330
3E2
100
AcDbEntity
  8
LAYER_1
 62
     7
100
AcDbVertex
100
AcDb2dVertex
 10
-8.570192
 20
3.297644999999998
 30
0.0
  0
SEQEND
  5
3FC
330
3E2
100
AcDbEntity
  8
LAYER_1
 62
     7
  0
LINE
  5
3E1
330
3D9
100
AcDbEntity
  8
LAYER_1
 62
     7
100
AcDbLine
 10
1.959742999999999
 20
12.655558
 30
0.0
 11
1.959915
 21
-0.603064
 31
0.0
  0
MTEXT
  5
3E0
330
3D9
100
AcDbEntity
  8
LAYER_1
 62
     7
100
AcDbMText
 10
-1.164097999999998
 20
-8.596316999999999
 30
0.0
 40
1.745515
 41
0.0
 71
     1
 72
     2
  1
\fGill Sans|b0|i0;4
  7
STD
 73
     1
 44
1.0
1001
ACAD
1000
MTEXTBEGIN
1070
    73
1070
     1
1070
    44
1040
1.0
1070
    74
1070
     0
1000
MTEXTEND
  0
MTEXT
  5
3DF
330
3D9
100
AcDbEntity
  8
LAYER_1
 62
     7
100
AcDbMText
 10
10.530623
 20
-9.371290999999999
 30
0.0
 40
1.745515
 41
0.0
 71
     1
 72
     2
  1
\fGill Sans|b0|i0;4 (0.16)
  7
STD
 73
     1
 44
1.0
1001
ACAD
1000
MTEXTBEGIN
1070
    73
1070
     1
1070
    44
1040
1.0
1070
    74
1070
     0
1000
MTEXTEND
  0
MTEXT
  5
3DE
330
3D9
100
AcDbEntity
  8
LAYER_1
 62
     7
100
AcDbMText
 10
-5.648750999999998
 20
-12.778491
 30
0.0
 40
1.745515
 41
0.0
 71
     1
 72
     2
  1
\fGill Sans|b0|i0;(0.28)
  7
STD
 73
     1
 44
1.0
1001
ACAD
1000
MTEXTBEGIN
1070
    73
1070
     1
1070
    44
1040
1.0
1070
    74
1070
     0
1000
MTEXTEND
  0
MTEXT
  5
3DD
330
3D9
100
AcDbEntity
  8
LAYER_1
 62
     7
100
AcDbMText
 10
-3.461114999999998
 20
-10.432553
 30
0.0
 40
1.745515
 41
0.0
 71
     1
 72
     2
  1
\fGill Sans|b0|i0;7
  7
STD
 73
     1
 44
1.0
1001
ACAD
1000
MTEXTBEGIN
1070
    73
1070
     1
1070
    44
1040
1.0
1070
    74
1070
     0
1000
MTEXTEND
  0
MTEXT
  5
3DC
330
3D9
100
AcDbEntity
  8
LAYER_1
 62
     7
100
AcDbMText
 10
0.113516
 20
-19.202044
 30
0.0
 40
1.745515
 41
0.0
 71
     1
 72
     2
  1
\fGill Sans|b0|i0;19 (0.75)
  7
STD
 73
     1
 44
1.0
1001
ACAD
1000
MTEXTBEGIN
1070
    73
1070
     1
1070
    44
1040
1.0
1070
    74
1070
     0
1000
MTEXTEND
  0
ENDBLK
  5
615
330
3D9
100
AcDbEntity
  8
0
100
AcDbBlockEnd
  0
BLOCK
  5
6CB
330
6C9
100
AcDbEntity
  8
0
100
AcDbBlockBegin
  2
GENAXEH
 70
     0
 10
0.0
 20
0.0
 30
0.0
  3
GENAXEH
  1

  0
LINE
  5
6CA
330
6C9
100
AcDbEntity
  8
0
100
AcDbLine
 10
-1.0
 20
0.0
 30
0.0
 11
1.0
 21
0.0
 31
0.0
  0
ENDBLK
  5
6CC
330
6C9
100
AcDbEntity
  8
0
100
AcDbBlockEnd
  0
ENDSEC
  0
SECTION
  2
ENTITIES
  0
INSERT
  5
3DA
330
A
100
AcDbEntity
  8
LAYER_1
 62
     7
100
AcDbBlockReference
  2
AI9-BLK2
 10
54.556877
 20
136.866409
 30
0.0
  0
MTEXT
  5
3D8
330
A
100
AcDbEntity
  8
LAYER_1
 62
     7
100
AcDbMText
 10
39.39415
 20
161.3859
 30
0.0
 40
1.745515
 41
0.0
 71
     1
 72
     2
  1
\fGill Sans|b1|i0;Switch, Cable Version
  7
STD
 73
     1
 44
1.0
1001
ACAD
1000
MTEXTBEGIN
1070
    73
1070
     1
1070
    44
1040
1.0
1070
    74
1070
     0
1000
MTEXTEND
  0
INSERT
  5
29
330
A
100
AcDbEntity
  8
LAYER_1
 62
     7
100
AcDbBlockReference
  2
AI9-BLK1
 10
133.841357
 20
135.455987
 30
0.0
  0
MTEXT
  5
27
330
A
100
AcDbEntity
  8
LAYER_1
 62
     7
100
AcDbMText
 10
148.282766
 20
161.3859
 30
0.0
 40
1.745515
 41
0.0
 71
     1
 72
     2
  1
\fGill Sans|b1|i0;Switch, QD Version
  7
STD
 73
     1
 44
1.0
1001
ACAD
1000
MTEXTBEGIN
1070
    73
1070
     1
1070
    44
1040
1.0
1070
    74
1070
     0
1000
MTEXTEND
  0
MTEXT
  5
26
330
A
100
AcDbEntity
  8
LAYER_1
 62
     7
100
AcDbMText
 10
100.90478
 20
161.3859
 30
0.0
 40
1.745515
 41
0.0
 71
     1
 72
     2
  1
\fGill Sans|b1|i0;Actuator
  7
STD
 73
     1
 44
1.0
1001
ACAD
1000
MTEXTBEGIN
1070
    73
1070
     1
1070
    44
1040
1.0
1070
    74
1070
     0
1000
MTEXTEND
  0
MTEXT
  5
25
330
A
100
AcDbEntity
  8
LAYER_1
 62
     7
100
AcDbMText
 10
92.82585899999999
 20
158.137003
 30
0.0
 40
1.745515
 41
0.0
 71
     1
 72
     2
  1
\fGill Sans|b0|i0;19.5 (0.77)
  7
STD
 73
     1
 44
1.0
1001
ACAD
1000
MTEXTBEGIN
1070
    73
1070
     1
1070
    44
1040
1.0
1070
    74
1070
     0
1000
MTEXTEND
  0
MTEXT
  5
24
330
A
100
AcDbEntity
  8
LAYER_1
 62
     7
100
AcDbMText
 10
108.689145
 20
158.137003
 30
0.0
 40
1.745515
 41
0.0
 71
     1
 72
     2
  1
\fGill Sans|b0|i0;19.5 (0.77)
  7
STD
 73
     1
 44
1.0
1001
ACAD
1000
MTEXTBEGIN
1070
    73
1070
     1
1070
    44
1040
1.0
1070
    74
1070
     0
1000
MTEXTEND
  0
MTEXT
  5
23
330
A
100
AcDbEntity
  8
LAYER_1
 62
     7
100
AcDbMText
 10
100.705136
 20
106.690079
 30
0.0
 40
3.149802
 41
0.0
 71
     1
 72
     2
  1
\fAbadi MT Condensed Light|b0|i0;mm (in)
  7
STD
 73
     1
 44
1.0
1001
ACAD
1000
MTEXTBEGIN
1070
    73
1070
     1
1070
    44
1040
1.0
1070
    74
1070
     0
1000
MTEXTEND
  0
MTEXT
  5
22
330
A
100
AcDbEntity
  8
LAYER_1
 62
     7
100
AcDbMText
 10
91.824025
 20
111.805357
 30
0.0
 40
3.149802
 41
0.0
 71
     1
 72
     2
  1
\fAbadi MT Condensed Light|b0|i0;Ferrogard 6, 9 & 10
  7
STD
 73
     1
 44
1.0
1001
ACAD
1000
MTEXTBEGIN
1070
    73
1070
     1
1070
    44
1040
1.0
1070
    74
1070
     0
1000
MTEXTEND
  0
ENDSEC
  0
SECTION
  2
OBJECTS
  0
DICTIONARY
  5
19
330
0
100
AcDbDictionary
281
     1
  3
ACAD_COLOR
350
61D
  3
ACAD_GROUP
350
1A
  3
ACAD_LAYOUT
350
620
  3
ACAD_MATERIAL
350
61C
  3
ACAD_MLINESTYLE
350
1B
  3
ACAD_PLOTSETTINGS
350
621
  3
ACAD_PLOTSTYLENAME
350
61A
  3
ACAD_TABLESTYLE
350
61E
  3
ACDBHEADERROUNDTRIPXREC
350
76C
  3
AcDbVariableDictionary
350
6E0
  3
AcmDictionary
350
681
  3
AMG
350
627
  3
AMGSNAPSETTINGS
350
6D5
  3
ASE_INDEX_DICTIONARY
350
6DD
  0
DICTIONARY
  5
61D
102
{ACAD_REACTORS
330
19
102
}
330
19
100
AcDbDictionary
281
     1
  0
DICTIONARY
  5
1A
102
{ACAD_REACTORS
330
19
102
}
330
19
100
AcDbDictionary
281
     1
  0
DICTIONARY
  5
620
102
{ACAD_REACTORS
330
19
102
}
330
19
100
AcDbDictionary
281
     1
  3
Layout1
350
623
  3
Model
350
622
  0
DICTIONARY
  5
61C
102
{ACAD_REACTORS
330
19
102
}
330
19
100
AcDbDictionary
281
     1
  0
DICTIONARY
  5
1B
102
{ACAD_REACTORS
330
19
102
}
330
19
100
AcDbDictionary
281
     1
  3
STANDARD
350
1C
  0
DICTIONARY
  5
621
102
{ACAD_REACTORS
330
19
102
}
330
19
100
AcDbDictionary
281
     1
  0
ACDBDICTIONARYWDFLT
  5
61A
102
{ACAD_REACTORS
330
19
102
}
330
19
100
AcDbDictionary
281
     1
  3
Normal
350
61B
100
AcDbDictionaryWithDefault
340
61B
  0
DICTIONARY
  5
61E
102
{ACAD_REACTORS
330
19
102
}
330
19
100
AcDbDictionary
281
     1
  3
Standard
350
61F
  0
DICTIONARY
  5
76C
102
{ACAD_REACTORS
330
19
102
}
330
19
100
AcDbDictionary
281
     1
  0
DICTIONARY
  5
6E0
102
{ACAD_REACTORS
330
19
102
}
330
19
100
AcDbDictionary
281
     1
  3
CTABLESTYLE
350
6E1
  3
DIMASSOC
350
6E2
  3
PROJECTNAME
350
6E3
  0
DICTIONARY
  5
681
102
{ACAD_REACTORS
330
19
102
}
330
19
100
AcDbDictionary
281
     1
  3
AcmStdDictionary
350
68C
  3
AMDTSECTSYM_ARROWCOLOR
350
6AB
  0
DICTIONARY
  5
627
102
{ACAD_REACTORS
330
19
102
}
330
19
100
AcDbDictionary
281
     1
  0
DICTIONARY
  5
6D5
102
{ACAD_REACTORS
330
19
102
}
330
19
100
AcDbDictionary
281
     1
  0
DICTIONARY
  5
6DD
102
{ACAD_REACTORS
330
19
102
}
330
19
100
AcDbDictionary
281
     1
  3
ASEBlockHierarchyIndexRecord
350
6DF
1001
DCO15
1040
1733131662.111
  0
LAYOUT
  5
623
102
{ACAD_XDICTIONARY
360
76F
102
}
102
{ACAD_REACTORS
330
620
102
}
330
620
100
AcDbPlotSettings
  1

  2
\\USMKEVPRNT001\USMKEPD0431
  4

  6

 40
0.0
 41
0.0
 42
0.0
 43
0.0
 44
0.0
 45
0.0
 46
0.0
 47
0.0
 48
0.0
 49
0.0
140
0.0
141
0.0
142
1.0
143
1.0
 70
   688
 72
     0
 73
     0
 74
     5
  7

 75
    16
147
1.0
148
0.0
149
0.0
100
AcDbLayout
  1
Layout1
 70
     0
 71
     1
 10
0.0
 20
0.0
 11
12.0
 21
9.0
 12
0.0
 22
0.0
 32
0.0
 14
1.000000000000000E+20
 24
1.000000000000000E+20
 34
1.000000000000000E+20
 15
-1.000000000000000E+20
 25
-1.000000000000000E+20
 35
-1.000000000000000E+20
146
0.0
 13
0.0
 23
0.0
 33
0.0
 16
1.0
 26
0.0
 36
0.0
 17
0.0
 27
1.0
 37
0.0
 76
     0
330
B
  0
LAYOUT
  5
622
102
{ACAD_XDICTIONARY
360
76D
102
}
102
{ACAD_REACTORS
330
620
102
}
330
620
100
AcDbPlotSettings
  1

  2
\\USMKEVPRNT001\USMKEPD0431
  4

  6

 40
0.0
 41
0.0
 42
0.0
 43
0.0
 44
0.0
 45
0.0
 46
0.0
 47
0.0
 48
0.0
 49
0.0
140
0.0
141
0.0
142
1.0
143
1.0
 70
  1712
 72
     0
 73
     0
 74
     0
  7

 75
     0
147
1.0
148
0.0
149
0.0
100
AcDbLayout
  1
Model
 70
     1
 71
     0
 10
0.0
 20
0.0
 11
12.0
 21
9.0
 12
0.0
 22
0.0
 32
0.0
 14
0.0
 24
0.0
 34
0.0
 15
0.0
 25
0.0
 35
0.0
146
0.0
 13
0.0
 23
0.0
 33
0.0
 16
1.0
 26
0.0
 36
0.0
 17
0.0
 27
1.0
 37
0.0
 76
     0
330
A
  0
MLINESTYLE
  5
1C
102
{ACAD_REACTORS
330
1B
102
}
330
1B
100
AcDbMlineStyle
  2
STANDARD
 70
     0
  3

 62
     0
 51
90.0
 52
90.0
 71
     2
 49
0.5
 62
   256
  6
BYLAYER
 49
-0.5
 62
   256
  6
BYLAYER
  0
ACDBPLACEHOLDER
  5
61B
102
{ACAD_REACTORS
330
61A
102
}
330
61A
  0
TABLESTYLE
  5
61F
102
{ACAD_REACTORS
330
61E
102
}
330
61E
100
AcDbTableStyle
  3
Standard
 70
     0
 71
     0
 40
0.06
 41
0.06
280
     0
281
     0
  7
STANDARD
140
0.18
170
     2
 62
     0
 63
     7
283
     0
274
    -2
284
     1
 64
     0
275
    -2
285
     1
 65
     0
276
    -2
286
     1
 66
     0
277
    -2
287
     1
 67
     0
278
    -2
288
     1
 68
     0
279
    -2
289
     1
 69
     0
  7
STANDARD
140
0.25
170
     5
 62
     0
 63
     7
283
     0
274
    -2
284
     1
 64
     0
275
    -2
285
     1
 65
     0
276
    -2
286
     1
 66
     0
277
    -2
287
     1
 67
     0
278
    -2
288
     1
 68
     0
279
    -2
289
     1
 69
     0
  7
STANDARD
140
0.18
170
     5
 62
     0
 63
     7
283
     0
274
    -2
284
     1
 64
     0
275
    -2
285
     1
 65
     0
276
    -2
286
     1
 66
     0
277
    -2
287
     1
 67
     0
278
    -2
288
     1
 68
     0
279
    -2
289
     1
 69
     0
  0
DICTIONARYVAR
  5
6E1
102
{ACAD_REACTORS
330
6E0
102
}
330
6E0
100
DictionaryVariables
280
     0
  1
STANDARD
  0
DICTIONARYVAR
  5
6E2
102
{ACAD_REACTORS
330
6E0
102
}
330
6E0
100
DictionaryVariables
280
     0
  1
1
  0
DICTIONARYVAR
  5
6E3
102
{ACAD_REACTORS
330
6E0
102
}
330
6E0
100
DictionaryVariables
280
     0
  1

  0
DICTIONARY
  5
68C
102
{ACAD_REACTORS
330
681
102
}
330
681
100
AcDbDictionary
281
     1
  0
XRECORD
  5
6AB
102
{ACAD_REACTORS
330
681
102
}
330
681
100
AcDbXrecord
280
     1
 90
-1023410169
  0
XRECORD
  5
6DF
102
{ACAD_REACTORS
330
6DD
102
}
330
6DD
100
AcDbXrecord
280
     1
330
29
330
3DA
  0
DICTIONARY
  5
76F
330
623
100
AcDbDictionary
280
     1
281
     1
  3
ACAD_XREC_ROUNDTRIP
360
770
  0
DICTIONARY
  5
76D
330
622
100
AcDbDictionary
280
     1
281
     1
  3
ACAD_XREC_ROUNDTRIP
360
76E
  0
XRECORD
  5
770
102
{ACAD_REACTORS
330
76F
102
}
330
76F
100
AcDbXrecord
280
     1
102
SHADEPLOT
 70
     0
102
SHADEPLOTRESLEVEL
 70
     2
102
SHADEPLOTCUSTOMDPI
 70
   300
  0
XRECORD
  5
76E
102
{ACAD_REACTORS
330
76D
102
}
330
76D
100
AcDbXrecord
280
     1
102
SHADEPLOT
 70
     0
102
SHADEPLOTRESLEVEL
 70
     2
102
SHADEPLOTCUSTOMDPI
 70
   300
  0
ENDSEC
  0
EOF
