  0
SECTION
  2
HEADER
  9
$ACADVER
  1
AC1015
  9
$ACADMAINTVER
 70
    20
  9
$DWGCODEPAGE
  3
ANSI_1252
  9
$INSBASE
 10
0.0
 20
0.0
 30
0.0
  9
$EXTMIN
 10
48.50453300000001
 20
94.30565871428571
 30
0.0
  9
$EXTMAX
 10
171.738699
 20
161.790551
 30
0.0
  9
$LIMMIN
 10
48.504533
 20
94.91169199999999
  9
$LIMMAX
 10
171.738699
 20
162.312573
  9
$ORTHOMODE
 70
     0
  9
$REGENMODE
 70
     1
  9
$FILLMODE
 70
     1
  9
$QTEXTMODE
 70
     0
  9
$MIRRTEXT
 70
     1
  9
$LTSCALE
 40
1.0
  9
$ATTMODE
 70
     1
  9
$TEXTSIZE
 40
0.0
  9
$TRACEWID
 40
0.05
  9
$TEXTSTYLE
  7
STANDARD
  9
$CLAYER
  8
0
  9
$CELTYPE
  6
CONTINUOUS
  9
$CECOLOR
 62
   256
  9
$CELTSCALE
 40
1.0
  9
$DISPSILH
 70
     0
  9
$DIMSCALE
 40
1.0
  9
$DIMASZ
 40
0.18
  9
$DIMEXO
 40
0.0625
  9
$DIMDLI
 40
0.38
  9
$DIMRND
 40
0.0
  9
$DIMDLE
 40
0.0
  9
$DIMEXE
 40
0.18
  9
$DIMTP
 40
0.0
  9
$DIMTM
 40
0.0
  9
$DIMTXT
 40
0.18
  9
$DIMCEN
 40
0.09
  9
$DIMTSZ
 40
0.0
  9
$DIMTOL
 70
     0
  9
$DIMLIM
 70
     0
  9
$DIMTIH
 70
     1
  9
$DIMTOH
 70
     1
  9
$DIMSE1
 70
     0
  9
$DIMSE2
 70
     0
  9
$DIMTAD
 70
     0
  9
$DIMZIN
 70
     0
  9
$DIMBLK
  1

  9
$DIMASO
 70
     1
  9
$DIMSHO
 70
     1
  9
$DIMPOST
  1

  9
$DIMAPOST
  1

  9
$DIMALT
 70
     0
  9
$DIMALTD
 70
     2
  9
$DIMALTF
 40
25.4
  9
$DIMLFAC
 40
1.0
  9
$DIMTOFL
 70
     0
  9
$DIMTVP
 40
0.0
  9
$DIMTIX
 70
     0
  9
$DIMSOXD
 70
     0
  9
$DIMSAH
 70
     0
  9
$DIMBLK1
  1

  9
$DIMBLK2
  1

  9
$DIMSTYLE
  2
STANDARD
  9
$DIMCLRD
 70
     0
  9
$DIMCLRE
 70
     0
  9
$DIMCLRT
 70
     0
  9
$DIMTFAC
 40
1.0
  9
$DIMGAP
 40
0.09
  9
$DIMJUST
 70
     0
  9
$DIMSD1
 70
     0
  9
$DIMSD2
 70
     0
  9
$DIMTOLJ
 70
     1
  9
$DIMTZIN
 70
     0
  9
$DIMALTZ
 70
     0
  9
$DIMALTTZ
 70
     0
  9
$DIMUPT
 70
     0
  9
$DIMDEC
 70
     4
  9
$DIMTDEC
 70
     4
  9
$DIMALTU
 70
     2
  9
$DIMALTTD
 70
     2
  9
$DIMTXSTY
  7
STANDARD
  9
$DIMAUNIT
 70
     0
  9
$DIMADEC
 70
     0
  9
$DIMALTRND
 40
0.0
  9
$DIMAZIN
 70
     0
  9
$DIMDSEP
 70
    46
  9
$DIMATFIT
 70
     3
  9
$DIMFRAC
 70
     0
  9
$DIMLDRBLK
  1

  9
$DIMLUNIT
 70
     2
  9
$DIMLWD
 70
    -2
  9
$DIMLWE
 70
    -2
  9
$DIMTMOVE
 70
     0
  9
$LUNITS
 70
     2
  9
$LUPREC
 70
     4
  9
$SKETCHINC
 40
0.1
  9
$FILLETRAD
 40
0.0
  9
$AUNITS
 70
     0
  9
$AUPREC
 70
     0
  9
$MENU
  1
acad
  9
$ELEVATION
 40
0.0
  9
$PELEVATION
 40
0.0
  9
$THICKNESS
 40
0.0
  9
$LIMCHECK
 70
     0
  9
$CHAMFERA
 40
0.0
  9
$CHAMFERB
 40
0.0
  9
$CHAMFERC
 40
0.0
  9
$CHAMFERD
 40
0.0
  9
$SKPOLY
 70
     0
  9
$TDCREATE
 40
2305814.042176054
  9
$TDUCREATE
 40
2305814.250509387
  9
$TDUPDATE
 40
2455862.605604398
  9
$TDUUPDATE
 40
2455862.813937732
  9
$TDINDWG
 40
0.0003336574
  9
$TDUSRTIMER
 40
0.0003336574
  9
$USRTIMER
 70
     1
  9
$ANGBASE
 50
0.0
  9
$ANGDIR
 70
     0
  9
$PDMODE
 70
     0
  9
$PDSIZE
 40
0.0
  9
$PLINEWID
 40
0.0
  9
$SPLFRAME
 70
     0
  9
$SPLINETYPE
 70
     6
  9
$SPLINESEGS
 70
     8
  9
$HANDSEED
  5
283
  9
$SURFTAB1
 70
     6
  9
$SURFTAB2
 70
     6
  9
$SURFTYPE
 70
     6
  9
$SURFU
 70
     6
  9
$SURFV
 70
     6
  9
$UCSBASE
  2

  9
$UCSNAME
  2

  9
$UCSORG
 10
0.0
 20
0.0
 30
0.0
  9
$UCSXDIR
 10
1.0
 20
0.0
 30
0.0
  9
$UCSYDIR
 10
0.0
 20
1.0
 30
0.0
  9
$UCSORTHOREF
  2

  9
$UCSORTHOVIEW
 70
     0
  9
$UCSORGTOP
 10
0.0
 20
0.0
 30
0.0
  9
$UCSORGBOTTOM
 10
0.0
 20
0.0
 30
0.0
  9
$UCSORGLEFT
 10
0.0
 20
0.0
 30
0.0
  9
$UCSORGRIGHT
 10
0.0
 20
0.0
 30
0.0
  9
$UCSORGFRONT
 10
0.0
 20
0.0
 30
0.0
  9
$UCSORGBACK
 10
0.0
 20
0.0
 30
0.0
  9
$PUCSBASE
  2

  9
$PUCSNAME
  2

  9
$PUCSORG
 10
0.0
 20
0.0
 30
0.0
  9
$PUCSXDIR
 10
1.0
 20
0.0
 30
0.0
  9
$PUCSYDIR
 10
0.0
 20
1.0
 30
0.0
  9
$PUCSORTHOREF
  2

  9
$PUCSORTHOVIEW
 70
     0
  9
$PUCSORGTOP
 10
0.0
 20
0.0
 30
0.0
  9
$PUCSORGBOTTOM
 10
0.0
 20
0.0
 30
0.0
  9
$PUCSORGLEFT
 10
0.0
 20
0.0
 30
0.0
  9
$PUCSORGRIGHT
 10
0.0
 20
0.0
 30
0.0
  9
$PUCSORGFRONT
 10
0.0
 20
0.0
 30
0.0
  9
$PUCSORGBACK
 10
0.0
 20
0.0
 30
0.0
  9
$USERI1
 70
     0
  9
$USERI2
 70
     0
  9
$USERI3
 70
     0
  9
$USERI4
 70
     0
  9
$USERI5
 70
     0
  9
$USERR1
 40
0.0
  9
$USERR2
 40
0.0
  9
$USERR3
 40
0.0
  9
$USERR4
 40
0.0
  9
$USERR5
 40
0.0
  9
$WORLDVIEW
 70
     1
  9
$SHADEDGE
 70
     3
  9
$SHADEDIF
 70
    70
  9
$TILEMODE
 70
     1
  9
$MAXACTVP
 70
    16
  9
$PINSBASE
 10
0.0
 20
0.0
 30
0.0
  9
$PLIMCHECK
 70
     0
  9
$PEXTMIN
 10
1.000000000000000E+20
 20
1.000000000000000E+20
 30
1.000000000000000E+20
  9
$PEXTMAX
 10
-1.000000000000000E+20
 20
-1.000000000000000E+20
 30
-1.000000000000000E+20
  9
$PLIMMIN
 10
0.0
 20
0.0
  9
$PLIMMAX
 10
12.0
 20
9.0
  9
$UNITMODE
 70
     0
  9
$VISRETAIN
 70
     0
  9
$PLINEGEN
 70
     1
  9
$PSLTSCALE
 70
     0
  9
$TREEDEPTH
 70
  3020
  9
$CMLSTYLE
  2
STANDARD
  9
$CMLJUST
 70
     0
  9
$CMLSCALE
 40
1.0
  9
$PROXYGRAPHICS
 70
     1
  9
$MEASUREMENT
 70
     0
  9
$CELWEIGHT
370
    -1
  9
$ENDCAPS
280
     0
  9
$JOINSTYLE
280
     0
  9
$LWDISPLAY
290
     0
  9
$INSUNITS
 70
     0
  9
$HYPERLINKBASE
  1

  9
$STYLESHEET
  1

  9
$XEDIT
290
     1
  9
$CEPSNTYPE
380
     0
  9
$PSTYLEMODE
290
     1
  9
$FINGERPRINTGUID
  2
{2FE0084B-E132-4E8A-BADD-8162EFAA1371}
  9
$VERSIONGUID
  2
{018CAC13-6F4E-4529-AA85-8FF98FF064A5}
  9
$EXTNAMES
290
     1
  9
$PSVPSCALE
 40
0.0
  9
$OLESTARTUP
290
     0
  0
ENDSEC
  0
SECTION
  2
CLASSES
  0
CLASS
  1
IMAGE
  2
AcDbRasterImage
  3
ISM
 90
    32895
280
     0
281
     1
  0
CLASS
  1
DICTIONARYVAR
  2
AcDbDictionaryVar
  3
ObjectDBX Classes
 90
        0
280
     0
281
     0
  0
CLASS
  1
RASTERVARIABLES
  2
AcDbRasterVariables
  3
ISM
 90
    32768
280
     0
281
     0
  0
CLASS
  1
IMAGEDEF
  2
AcDbRasterImageDef
  3
ISM
 90
    32768
280
     0
281
     0
  0
CLASS
  1
IMAGEDEF_REACTOR
  2
AcDbRasterImageDefReactor
  3
ISM
 90
    32769
280
     0
281
     0
  0
CLASS
  1
IDBUFFER
  2
AcDbIdBuffer
  3
ObjectDBX Classes
 90
    32768
280
     0
281
     0
  0
CLASS
  1
SPATIAL_FILTER
  2
AcDbSpatialFilter
  3
ObjectDBX Classes
 90
    32768
280
     0
281
     0
  0
CLASS
  1
SORTENTSTABLE
  2
AcDbSortentsTable
  3
ObjectDBX Classes
 90
    32768
280
     0
281
     0
  0
CLASS
  1
LAYER_INDEX
  2
AcDbLayerIndex
  3
ObjectDBX Classes
 90
    32768
280
     0
281
     0
  0
CLASS
  1
SPATIAL_INDEX
  2
AcDbSpatialIndex
  3
ObjectDBX Classes
 90
    32768
280
     0
281
     0
  0
CLASS
  1
OBJECT_PTR
  2
CAseDLPNTableRecord
  3
ASE-LPNTableRecord
 90
    32769
280
     0
281
     0
  0
CLASS
  1
LAYOUT
  2
AcDbLayout
  3
ObjectDBX Classes
 90
        0
280
     0
281
     0
  0
CLASS
  1
PLOTSETTINGS
  2
AcDbPlotSettings
  3
ObjectDBX Classes
 90
    32768
280
     0
281
     0
  0
CLASS
  1
ACDBDICTIONARYWDFLT
  2
AcDbDictionaryWithDefault
  3
ObjectDBX Classes
 90
        0
280
     0
281
     0
  0
CLASS
  1
ACDBPLACEHOLDER
  2
AcDbPlaceHolder
  3
ObjectDBX Classes
 90
        0
280
     0
281
     0
  0
CLASS
  1
VBA_PROJECT
  2
AcDbVbaProject
  3
acad
 90
    32768
280
     0
281
     0
  0
CLASS
  1
WIPEOUT
  2
AcDbWipeout
  3
"WipeOut|Product Desc: Object Enabler for WipeOut entity^I^I^I^I^I^I|Company: Autodesk, Inc.^I^I^I^I^I^I|WEB Address: www.autodesk.com"
 90
    32895
280
     0
281
     1
  0
CLASS
  1
WIPEOUTVARIABLES
  2
AcDbWipeoutVariables
  3
"WipeOut|Product Desc:     WipeOut Dbx Application|Company:          Autodesk, Inc.|WEB Address:      www.autodesk.com"
 90
    32768
280
     0
281
     0
  0
CLASS
  1
RTEXT
  2
RText
  3
RText|AutoCAD Express Tool|expresstools@autodesk.com
 90
    32768
280
     0
281
     1
  0
CLASS
  1
ARCALIGNEDTEXT
  2
AcDbArcAlignedText
  3
ATEXT|AutoCAD Express Tool|expresstools@autodesk.com
 90
    32768
280
     0
281
     1
  0
CLASS
  1
TABLESTYLE
  2
AcDbTableStyle
  3
ObjectDBX Classes
 90
     2047
280
     0
281
     0
  0
CLASS
  1
AMGSETTINGSOBJ
  2
AmgSettingsObj
  3
"AcadM|Product Description: AutoCAD Mechanical 2000|Company: Autodesk"
 90
        0
280
     0
281
     0
  0
CLASS
  1
ACME_DOCUMENT
  2
AcMeDbDoc
  3
AcMeServices
 90
        0
280
     0
281
     0
  0
CLASS
  1
ACMESCOPE
  2
AcMeScope
  3
AcMeServices
 90
        0
280
     0
281
     0
  0
CLASS
  1
ACMECOMMANDHISTORY
  2
AcMeCommandHistory
  3
AcMeServices
 90
        0
280
     0
281
     0
  0
CLASS
  1
ACIMSYSVARMAN
  2
AcImSysVarManager
  3
AcMeServices
 90
        0
280
     0
281
     0
  0
CLASS
  1
ACIMINTSYSVAR
  2
AcImIntSysVar
  3
AcMeServices
 90
        0
280
     0
281
     0
  0
CLASS
  1
ACMEDRAWINGMAN
  2
AcMeDrawingMan
  3
AcMeServices
 90
        0
280
     0
281
     0
  0
CLASS
  1
ACMEVIEW
  2
AcMeView
  3
AcMeServices
 90
        0
280
     0
281
     0
  0
CLASS
  1
ACDBENTITYCACHE
  2
AcMeEntityCache
  3
AcMeServices
 90
        0
280
     0
281
     0
  0
CLASS
  1
GSMANAGER
  2
AcMeGSManager
  3
AcMeServices
 90
        0
280
     0
281
     0
  0
CLASS
  1
AMDTINTERNALREACTOR
  2
AmdtInternalReactor
  3
AcMeServices
 90
        0
280
     0
281
     0
  0
CLASS
  1
ACMESTATEMGR
  2
AcMeStateMgr
  3
AcMeServices
 90
        0
280
     0
281
     0
  0
CLASS
  1
ACGREFMASTER
  2
AcGrefMaster
  3
AcAttribServices
 90
        0
280
     0
281
     0
  0
CLASS
  1
AM_DRAWING_MGR
  2
AcDmDwgMgr
  3
AcMechDwgViewMgmt
 90
        0
280
     0
281
     0
  0
CLASS
  1
AM_DWG_DOCUMENT
  2
AcDmDwgDocument
  3
AcMechDwgViewMgmt
 90
        0
280
     0
281
     0
  0
CLASS
  1
AM_DWG_SHEET
  2
AcDmSheet
  3
AcMechDwgViewMgmt
 90
        0
280
     0
281
     0
  0
CLASS
  1
AM_VIEWDIMPARMAP
  2
AcDmViewDimParMap
  3
AcMechDwgViewMgmt
 90
        0
280
     0
281
     0
  0
CLASS
  1
ACIMREALSYSVAR
  2
AcImRealSysVar
  3
AcMeServices
 90
        0
280
     0
281
     0
  0
CLASS
  1
AM_DWGMGR_NAME
  2
AcDmDwgMgrName
  3
AcMechDwgViewMgmt
 90
        0
280
     0
281
     0
  0
CLASS
  1
ACME_DATABASE
  2
AcMeDbDatabase
  3
AcMeServices
 90
        0
280
     0
281
     0
  0
CLASS
  1
ACRFINSADJUSTERMGR
  2
AcRfInsAdjusterMgr
  3
AcMeServices
 90
        0
280
     0
281
     0
  0
CLASS
  1
ACGREFACADMASTER
  2
AcGrefacadMaster
  3
AcGrefServices
 90
        0
280
     0
281
     0
  0
CLASS
  1
AMDTMENUSTATEMGR
  2
AmdtMenuStateMgr
  3
McadcomServices
 90
        0
280
     0
281
     0
  0
CLASS
  1
AMDTMCOMMENUSTATE
  2
AmdtMcomMenuState
  3
McadcomServices
 90
        0
280
     0
281
     0
  0
CLASS
  1
AMIMASTER
  2
AmiMaster
  3
AmiServices
 90
        0
280
     0
281
     0
  0
CLASS
  1
MAPIAMMOUDLE
  2
MApiAmModule
  3
MApiAmServices
 90
        0
280
     0
281
     0
  0
CLASS
  1
ACIMSTRSYSVAR
  2
AcImStrSysVar
  3
AcMeServices
 90
        0
280
     0
281
     0
  0
CLASS
  1
AMDTADMENUSTATE
  2
AmdtAdMenuState
  3
DesignerServices
 90
        0
280
     0
281
     0
  0
CLASS
  1
ADAPPL
  2
AcAdAppl
  3
DesignerServices
 90
        0
280
     0
281
     0
  0
CLASS
  1
DEPMGR
  2
AcAdDepMgr
  3
DesignerServices
 90
        0
280
     0
281
     0
  0
CLASS
  1
PARAMMGR
  2
AcAdParamMgr
  3
DesignerServices
 90
        0
280
     0
281
     0
  0
CLASS
  1
PARAMSCOPE
  2
AcAdParamScope
  3
DesignerServices
 90
        0
280
     0
281
     0
  0
CLASS
  1
NAMEDAPPL
  2
AcAdNamedAppl
  3
DesignerServices
 90
        0
280
     0
281
     0
  0
CLASS
  1
AMDTDMMENUSTATE
  2
AmdtDmMenuState
  3
AcMechDwgViewMgmt
 90
        0
280
     0
281
     0
  0
CLASS
  1
AMDTAMMENUSTATE
  2
AmdtAmMenuState
  3
DesignerAssemblies
 90
        0
280
     0
281
     0
  0
CLASS
  1
ACAMPROJECT
  2
AcAmProject
  3
DesignerAssemblies
 90
        0
280
     0
281
     0
  0
CLASS
  1
ACAMGRCOMPDEF
  2
AcAmGrCompDef
  3
DesignerAssemblies
 90
        0
280
     0
281
     0
  0
CLASS
  1
ACCMCONTEXT
  2
AcCmContext
  3
DesignerAssemblies
 90
        0
280
     0
281
     0
  0
CLASS
  1
ACAMCOMPDEF
  2
AcAmCompDef
  3
DesignerAssemblies
 90
        0
280
     0
281
     0
  0
CLASS
  1
ACAMCOMPDEFMGR
  2
AcAmCompDefMgr
  3
DesignerAssemblies
 90
        0
280
     0
281
     0
  0
CLASS
  1
AMCONTEXTMGR
  2
AcAmContextMgr
  3
DesignerAssemblies
 90
        0
280
     0
281
     0
  0
CLASS
  1
ACAMCONTEXTMODELER
  2
AcAmContextModeler
  3
DesignerAssemblies
 90
        0
280
     0
281
     0
  0
CLASS
  1
ACMDATADICTIONARY
  2
AcmDataDictionary
  3
"AcmSymBB|Product Description: AutoCAD Mechanical 2004 DX|Company: Autodesk"
 90
        0
280
     0
281
     0
  0
CLASS
  1
CATALOGSTATE
  2
AcAmCatalogState
  3
DesignerAssemblies
 90
        0
280
     0
281
     0
  0
CLASS
  1
ACAMGRCOMPDEFSET
  2
AcAmGrCompDefSet
  3
DesignerAssemblies
 90
        0
280
     0
281
     0
  0
CLASS
  1
AMDTBROWSERDBTAB
  2
AmdtBrowserDbTab
  3
McadcomServices
 90
        0
280
     0
281
     0
  0
CLASS
  1
CBROWSERAPPOBJECT
  2
CBrowserAppObject
  3
McadcomServices
 90
        0
280
     0
281
     0
  0
CLASS
  1
DM_PLACEHOLDER
  2
AcDmSelsetPlaceholder
  3
AcMechDwgViewMgmt
 90
        0
280
     0
281
     0
  0
CLASS
  1
ACMSTANDARDANSI
  2
AcmStandardANSI
  3
"Amdt_StdImp|Product Description: AutoCAD Mechanical 2004 DX|Company: Autodesk"
 90
        0
280
     0
281
     0
  0
CLASS
  1
AMGOBJPROPCFG
  2
AmgObjPropCfg
  3
"AmgLay|Product Description: AutoCAD Mechanical 2000|Company: Autodesk"
 90
        1
280
     0
281
     0
  0
CLASS
  1
ACMSURFSTANDARDANSI
  2
AcmSurfTextStdANSI
  3
"Amdt_StdImp|Product Description: AutoCAD Mechanical 2004 DX|Company: Autodesk"
 90
        0
280
     0
281
     0
  0
CLASS
  1
ACMFCFSTANDARDANSI
  2
AcmFCFStdANSI
  3
"Amdt_StdImp|Product Description: AutoCAD Mechanical 2004 DX|Company: Autodesk"
 90
        0
280
     0
281
     0
  0
CLASS
  1
ACMWELDSTANDARDANSI
  2
AcmWeldingStdANSI
  3
"Amdt_StdImp|Product Description: AutoCAD Mechanical 2004 DX|Company: Autodesk"
 90
        0
280
     0
281
     0
  0
CLASS
  1
ACMIDSTANDARDANSI
  2
AcmIdStdANSI
  3
"Amdt_StdImp|Product Description: AutoCAD Mechanical 2004 DX|Company: Autodesk"
 90
        0
280
     0
281
     0
  0
CLASS
  1
ACMDATUMSTANDARDANSI
  2
AcmDatumStdANSI
  3
"Amdt_StdImp|Product Description: AutoCAD Mechanical 2004 DX|Company: Autodesk"
 90
        0
280
     0
281
     0
  0
CLASS
  1
ACMBOMSTANDARDANSI
  2
AcmBOMStdANSI
  3
"Amdt_StdImp|Product Description: AutoCAD Mechanical 2004 DX|Company: Autodesk"
 90
        0
280
     0
281
     0
  0
CLASS
  1
ACMDETAILSTANDARDANSI
  2
AmdtDetailSymStdANSI
  3
"Amdt_StdImp|Product Description: AutoCAD Mechanical 2004 DX|Company: Autodesk"
 90
        0
280
     0
281
     0
  0
CLASS
  1
ACMSECTIONSTANDARDANSI
  2
AmdtSectionSymStdANSI
  3
"Amdt_StdImp|Product Description: AutoCAD Mechanical 2004 DX|Company: Autodesk"
 90
        0
280
     0
281
     0
  0
CLASS
  1
ACMCENTERLINESTANDARDANSI
  2
AmdtCenterLineStdANSI
  3
"Amdt_StdImp|Product Description: AutoCAD Mechanical 2004 DX|Company: Autodesk"
 90
        0
280
     0
281
     0
  0
CLASS
  1
ACMTHREADLINESTANDARDANSI
  2
AmdtThreadLineStdANSI
  3
"Amdt_StdImp|Product Description: AutoCAD Mechanical 2004 DX|Company: Autodesk"
 90
        0
280
     0
281
     0
  0
CLASS
  1
ACMNOTESTANDARDANSI
  2
AmdtNoteStdANSI
  3
"Amdt_StdImp|Product Description: AutoCAD Mechanical 2004 DX|Company: Autodesk"
 90
        0
280
     0
281
     0
  0
CLASS
  1
AMDTNOTETEMPLATEDB
  2
AmdtNoteTemplateDB
  3
AMDT_STDIMP_MODULE_NAME
 90
        0
280
     0
281
     0
  0
CLASS
  1
ACAMGLAYSTD
  2
AcAmgLayStd
  3
"AcAmgLayStd|Product Description: AutoCAD Mechanical 2000|Company: Autodesk"
 90
        0
280
     0
281
     0
  0
CLASS
  1
ACAMGDIMSTD
  2
AcAmgDimStd
  3
"AcAmgDimStd|Product Description: AutoCAD Mechanical 2000|Company: Autodesk"
 90
        0
280
     0
281
     0
  0
CLASS
  1
ACAMGHOLECHARTSTDANSI
  2
AcAmgHoleChartStdANSI
  3
ACMSYMBB_MODULE_NAME
 90
        0
280
     0
281
     0
  0
CLASS
  1
ACAMGTITLESTD
  2
AcAmgTitleStd
  3
"TITLEAPP"
 90
        0
280
     0
281
     0
  0
CLASS
  1
ACAMGFILTERDAT
  2
AcAmgFilterDat
  3
"AcadM|Product Description: AutoCAD Mechanical 2000|Company: Autodesk"
 90
        0
280
     0
281
     0
  0
ENDSEC
  0
SECTION
  2
TABLES
  0
TABLE
  2
VPORT
  5
7
330
0
100
AcDbSymbolTable
 70
     3
  0
VPORT
  5
27D
330
7
100
AcDbSymbolTableRecord
100
AcDbViewportTableRecord
  2
*Active
 70
     0
 10
0.0
 20
0.0
 11
1.0
 21
1.0
 12
113.1154244795171
 22
121.5996591651051
 13
0.0
 23
0.0
 14
1.0
 24
1.0
 15
0.0
 25
0.0
 16
0.0
 26
0.0
 36
1.0
 17
0.0
 27
0.0
 37
0.0
 40
120.5841705819255
 41
1.181318681318681
 42
50.0
 43
0.0
 44
0.0
 50
0.0
 51
0.0
 71
     0
 72
   100
 73
     1
 74
     1
 75
     0
 76
     0
 77
     0
 78
     0
281
     0
 65
     0
110
0.0
120
0.0
130
0.0
111
1.0
121
0.0
131
0.0
112
0.0
122
1.0
132
0.0
 79
     0
146
0.0
  0
ENDTAB
  0
TABLE
  2
LTYPE
  5
4
330
0
100
AcDbSymbolTable
 70
    16
  0
LTYPE
  5
11
330
4
100
AcDbSymbolTableRecord
100
AcDbLinetypeTableRecord
  2
BYBLOCK
 70
     0
  3

 72
    65
 73
     0
 40
0.0
  0
LTYPE
  5
12
330
4
100
AcDbSymbolTableRecord
100
AcDbLinetypeTableRecord
  2
BYLAYER
 70
     0
  3

 72
    65
 73
     0
 40
0.0
  0
LTYPE
  5
13
330
4
100
AcDbSymbolTableRecord
100
AcDbLinetypeTableRecord
  2
CONTINUOUS
 70
     0
  3
Solid line
 72
    65
 73
     0
 40
0.0
  0
LTYPE
  5
1F2
330
4
100
AcDbSymbolTableRecord
100
AcDbLinetypeTableRecord
  2
HIDDEN
 70
     0
  3
Hidden __ __ __ __ __ __ __ __ __ __ __ __ __ _
 72
    65
 73
     2
 40
0.375
 49
0.25
 74
     0
 49
-0.125
 74
     0
  0
LTYPE
  5
1F3
330
4
100
AcDbSymbolTableRecord
100
AcDbLinetypeTableRecord
  2
PHANTOM2
 70
     0
  3
Phantom (.5x) ___ _ _ ___ _ _ ___ _ _ ___ _ _
 72
    65
 73
     6
 40
1.25
 49
0.625
 74
     0
 49
-0.125
 74
     0
 49
0.125
 74
     0
 49
-0.125
 74
     0
 49
0.125
 74
     0
 49
-0.125
 74
     0
  0
LTYPE
  5
1F4
330
4
100
AcDbSymbolTableRecord
100
AcDbLinetypeTableRecord
  2
CENTER
 70
     0
  3
Center ____ _ ____ _ ____ _ ____ _ ____ _ ____
 72
    65
 73
     4
 40
2.0
 49
1.25
 74
     0
 49
-0.25
 74
     0
 49
0.25
 74
     0
 49
-0.25
 74
     0
  0
LTYPE
  5
228
330
4
100
AcDbSymbolTableRecord
100
AcDbLinetypeTableRecord
  2
AM_ISO02W050
 70
     0
  3
__ __ __ __ __ __ __ __ __ __ __ __ __ __ __
 72
    65
 73
     2
 40
7.5
 49
6.0
 74
     0
 49
-1.5
 74
     0
  0
LTYPE
  5
229
330
4
100
AcDbSymbolTableRecord
100
AcDbLinetypeTableRecord
  2
AM_ISO08W050
 70
     0
  3
____ . ____ . ____ . ____ . ____ . ____ . ____
 72
    65
 73
     4
 40
18.0
 49
12.0
 74
     0
 49
-1.5
 74
     0
 49
3.0
 74
     0
 49
-1.5
 74
     0
  0
LTYPE
  5
22A
330
4
100
AcDbSymbolTableRecord
100
AcDbLinetypeTableRecord
  2
AM_ISO09W050
 70
     0
  3
_____ . . _____ . . _____ . . ____ .. ____
 72
    65
 73
     6
 40
22.5
 49
12.0
 74
     0
 49
-1.5
 74
     0
 49
3.0
 74
     0
 49
-1.5
 74
     0
 49
3.0
 74
     0
 49
-1.5
 74
     0
  0
LTYPE
  5
22B
330
4
100
AcDbSymbolTableRecord
100
AcDbLinetypeTableRecord
  2
Amconstr
 70
     0
  3
_______________________
 72
    65
 73
     2
 40
9999.0
 49
9999.0
 74
     0
 49
0.0
 74
     0
  0
LTYPE
  5
22C
330
4
100
AcDbSymbolTableRecord
100
AcDbLinetypeTableRecord
  2
AM_ISO08W050x2
 70
     0
  3
__ . __ . __ . __ . __ . __
 72
    65
 73
     4
 40
9.0
 49
6.0
 74
     0
 49
-0.75
 74
     0
 49
1.5
 74
     0
 49
-0.75
 74
     0
  0
LTYPE
  5
22D
330
4
100
AcDbSymbolTableRecord
100
AcDbLinetypeTableRecord
  2
AM_ISO02W050x2
 70
     0
  3
 _ _ _ _ _ _ _ _ _ _ _ _
 72
    65
 73
     2
 40
3.75
 49
3.0
 74
     0
 49
-0.75
 74
     0
  0
LTYPE
  5
230
330
4
100
AcDbSymbolTableRecord
100
AcDbLinetypeTableRecord
  2
Amzigzag
 70
     0
  3
/\/-/\/-/\/-/\/-/\/-/\/
 72
    65
 73
     2
 40
11.0001
 49
0.0001
 74
     4
 75
   136
340
22F
 46
0.04
 50
0.0
 44
0.0
 45
0.0
 49
-11.0
 74
     0
  0
LTYPE
  5
231
330
4
100
AcDbSymbolTableRecord
100
AcDbLinetypeTableRecord
  2
CENTER2
 70
     0
  3
Center (.5x) ___ _ ___ _ ___ _ ___ _ ___ _ ___
 72
    65
 73
     4
 40
1.125
 49
0.75
 74
     0
 49
-0.125
 74
     0
 49
0.125
 74
     0
 49
-0.125
 74
     0
  0
LTYPE
  5
232
330
4
100
AcDbSymbolTableRecord
100
AcDbLinetypeTableRecord
  2
HIDDEN2
 70
     0
  3
Hidden (.5x) _ _ _ _ _ _ _ _ _ _ _ _ _ _ _ _ _
 72
    65
 73
     2
 40
0.1875
 49
0.125
 74
     0
 49
-0.0625
 74
     0
  0
LTYPE
  5
233
330
4
100
AcDbSymbolTableRecord
100
AcDbLinetypeTableRecord
  2
Amzigzag2
 70
     0
  3
/\/-/\/-/\/-/\/-/\/-/\/
 72
    65
 73
     2
 40
0.4401
 49
0.0001
 74
     4
 75
   136
340
22F
 46
0.0016
 50
0.0
 44
0.0
 45
0.0
 49
-0.4400000000000001
 74
     0
  0
LTYPE
  5
241
330
4
100
AcDbSymbolTableRecord
100
AcDbLinetypeTableRecord
  2
ACANSTGB
 70
     0
  3
__ . . __ . .
 72
    65
 73
     6
 40
0.35433070866
 49
0.15748031496
 74
     0
 49
-0.03937007874
 74
     0
 49
0.03937007874
 74
     0
 49
-0.03937007874
 74
     0
 49
0.03937007874
 74
     0
 49
-0.03937007874
 74
     0
  0
LTYPE
  5
242
330
4
100
AcDbSymbolTableRecord
100
AcDbLinetypeTableRecord
  2
ACANSTGL
 70
     0
  3
_ _ _ _ _
 72
    65
 73
     2
 40
0.11811023622
 49
0.07874015748
 74
     0
 49
-0.03937007874
 74
     0
  0
ENDTAB
  0
TABLE
  2
LAYER
  5
2
330
0
100
AcDbSymbolTable
 70
     2
  0
LAYER
  5
14
330
2
100
AcDbSymbolTableRecord
100
AcDbLayerTableRecord
  2
0
 70
     0
 62
     7
  6
CONTINUOUS
370
    -3
390
1B4
  0
LAYER
  5
21
330
2
100
AcDbSymbolTableRecord
100
AcDbLayerTableRecord
  2
LAYER_1
 70
     0
 62
     5
  6
CONTINUOUS
370
    -3
390
1B4
  0
ENDTAB
  0
TABLE
  2
STYLE
  5
3
330
0
100
AcDbSymbolTable
 70
     8
  0
STYLE
  5
17
330
3
100
AcDbSymbolTableRecord
100
AcDbTextStyleTableRecord
  2
STANDARD
 70
     0
 40
0.0
 41
1.0
 50
0.0
 71
     0
 42
0.0
  3
txt
  4

  0
STYLE
  5
1D
330
3
100
AcDbSymbolTableRecord
100
AcDbTextStyleTableRecord
  2
STD
 70
     0
 40
0.0
 41
1.0
 50
0.0
 71
     0
 42
0.0
  3
txt
  4

  0
STYLE
  5
1E
330
3
100
AcDbSymbolTableRecord
100
AcDbTextStyleTableRecord
  2
TATESTD
 70
     4
 40
0.0
 41
1.0
 50
0.0
 71
     0
 42
0.0
  3
txt
  4

  0
STYLE
  5
1F
330
3
100
AcDbSymbolTableRecord
100
AcDbTextStyleTableRecord
  2
KANJISTD
 70
     0
 40
0.0
 41
1.0
 50
0.0
 71
     0
 42
0.0
  3
txt
  4
extfont
  0
STYLE
  5
20
330
3
100
AcDbSymbolTableRecord
100
AcDbTextStyleTableRecord
  2
KANJITATE
 70
     4
 40
0.0
 41
1.0
 50
0.0
 71
     0
 42
0.0
  3
txt
  4
extfont
  0
STYLE
  5
22F
330
3
100
AcDbSymbolTableRecord
100
AcDbTextStyleTableRecord
  2

 70
     1
 40
0.0
 41
1.0
 50
0.0
 71
     0
 42
0.2
  3
genltshp.shx
  4

  0
STYLE
  5
234
330
3
100
AcDbSymbolTableRecord
100
AcDbTextStyleTableRecord
  2
ACANSTS
 70
     0
 40
1.0
 41
1.0
 50
0.0
 71
     0
 42
0.2
  3
romans.shx
  4

  0
STYLE
  5
240
330
3
100
AcDbSymbolTableRecord
100
AcDbTextStyleTableRecord
  2
ACANSGDT
 70
     0
 40
0.0
 41
1.0
 50
0.0
 71
     0
 42
0.2
  3
AMGDT
  4

  0
ENDTAB
  0
TABLE
  2
VIEW
  5
5
330
0
100
AcDbSymbolTable
 70
     0
  0
ENDTAB
  0
TABLE
  2
UCS
  5
6
330
0
100
AcDbSymbolTable
 70
     0
  0
ENDTAB
  0
TABLE
  2
APPID
  5
8
330
0
100
AcDbSymbolTable
 70
    11
  0
APPID
  5
16
330
8
100
AcDbSymbolTableRecord
100
AcDbRegAppTableRecord
  2
ACAD
 70
     0
  0
APPID
  5
1C5
330
8
100
AcDbSymbolTableRecord
100
AcDbRegAppTableRecord
  2
MCAD_NO_VIS
 70
     0
  0
APPID
  5
1C6
330
8
100
AcDbSymbolTableRecord
100
AcDbRegAppTableRecord
  2
ACAD_TEMP_GRAPHIC
 70
     0
  0
APPID
  5
1F6
330
8
100
AcDbSymbolTableRecord
100
AcDbRegAppTableRecord
  2
AD_DRAW
 70
     0
  0
APPID
  5
1F9
330
8
100
AcDbSymbolTableRecord
100
AcDbRegAppTableRecord
  2
ACATTRIBSERVICES
 70
     0
  0
APPID
  5
219
330
8
100
AcDbSymbolTableRecord
100
AcDbRegAppTableRecord
  2
DESIGNERASSEMBLIES
 70
     0
  0
APPID
  5
21F
330
8
100
AcDbSymbolTableRecord
100
AcDbRegAppTableRecord
  2
ACADM_DIM_EDIT
 70
     0
  0
APPID
  5
220
330
8
100
AcDbSymbolTableRecord
100
AcDbRegAppTableRecord
  2
AMDT_DM_ADJ
 70
     0
  0
APPID
  5
24E
330
8
100
AcDbSymbolTableRecord
100
AcDbRegAppTableRecord
  2
ACAD_DSTYLE_DIMARC_LENGTH_SYMBOL
 70
     0
  0
APPID
  5
24F
330
8
100
AcDbSymbolTableRecord
100
AcDbRegAppTableRecord
  2
ACAD_DSTYLE_DIMJOGGED_JOGANGLE_SYMBOL
 70
     0
  0
APPID
  5
277
330
8
100
AcDbSymbolTableRecord
100
AcDbRegAppTableRecord
  2
DCO15
 70
     0
  0
ENDTAB
  0
TABLE
  2
DIMSTYLE
  5
9
330
0
100
AcDbSymbolTable
 70
     7
100
AcDbDimStyleTable
 71
     0
  0
DIMSTYLE
105
18
330
9
100
AcDbSymbolTableRecord
100
AcDbDimStyleTableRecord
  2
STANDARD
 70
     0
340
17
  0
DIMSTYLE
105
24D
330
9
100
AcDbSymbolTableRecord
100
AcDbDimStyleTableRecord
  2
AM_ANSI
 70
     0
  4
mm
 41
0.1
 42
0.05
 43
0.5
 44
0.1
 47
0.1
 48
0.1
 78
     7
 79
     2
140
0.12
141
0.0
146
0.71
147
0.06
176
   256
177
   256
178
     2
274
     4
284
     7
340
17
371
    -1
372
    -1
1001
ACAD_DSTYLE_DIMARC_LENGTH_SYMBOL
1070
   379
1070
     1
1001
ACAD_DSTYLE_DIMJOGGED_JOGANGLE_SYMBOL
1070
   384
1040
0.7853981633974483
  0
DIMSTYLE
105
256
330
9
100
AcDbSymbolTableRecord
100
AcDbDimStyleTableRecord
  2
AM_ANSI$3
 70
     0
  4
mm
 41
0.1
 42
0.05
 43
0.5
 44
0.1
 47
0.1
 48
0.1
 78
     7
 79
     2
140
0.12
141
0.0
146
0.71
147
0.06
176
   256
177
   256
178
     2
274
     4
284
     7
288
     1
289
     0
340
17
371
    -1
372
    -1
1001
ACAD_DSTYLE_DIMARC_LENGTH_SYMBOL
1070
   379
1070
     1
1001
ACAD_DSTYLE_DIMJOGGED_JOGANGLE_SYMBOL
1070
   384
1040
0.7853981633974483
  0
DIMSTYLE
105
259
330
9
100
AcDbSymbolTableRecord
100
AcDbDimStyleTableRecord
  2
AM_ANSI$4
 70
     0
  4
mm
 41
0.1
 42
0.05
 43
0.5
 44
0.1
 47
0.1
 48
0.1
 78
     7
 79
     2
140
0.12
141
0.0
146
0.71
147
0.06
176
   256
177
   256
178
     2
274
     4
284
     7
288
     1
289
     0
340
17
371
    -1
372
    -1
1001
ACAD_DSTYLE_DIMARC_LENGTH_SYMBOL
1070
   379
1070
     1
1001
ACAD_DSTYLE_DIMJOGGED_JOGANGLE_SYMBOL
1070
   384
1040
0.7853981633974483
  0
DIMSTYLE
105
25E
330
9
100
AcDbSymbolTableRecord
100
AcDbDimStyleTableRecord
  2
AM_ANSI$7
 70
     0
  4
mm
 41
0.1
 42
0.05
 43
0.5
 44
0.1
 47
0.1
 48
0.1
 78
     7
 79
     2
140
0.24
141
0.0
146
0.71
147
0.06
176
   256
177
   256
178
     2
274
     4
284
     7
340
17
371
    -1
372
    -1
1001
ACAD_DSTYLE_DIMARC_LENGTH_SYMBOL
1070
   379
1070
     1
1001
ACAD_DSTYLE_DIMJOGGED_JOGANGLE_SYMBOL
1070
   384
1040
0.7853981633974483
  0
DIMSTYLE
105
261
330
9
100
AcDbSymbolTableRecord
100
AcDbDimStyleTableRecord
  2
AM_ANSI$SF
 70
     0
  4
mm
 41
0.1
 42
0.05
 43
0.5
 44
0.1
 47
0.1
 48
0.1
 75
     1
 76
     1
 78
     7
 79
     2
140
0.12
141
0.0
146
0.71
147
0.06
176
   256
177
   256
178
     2
274
     4
284
     7
340
17
371
    -1
372
    -1
1001
ACAD_DSTYLE_DIMARC_LENGTH_SYMBOL
1070
   379
1070
     1
1001
ACAD_DSTYLE_DIMJOGGED_JOGANGLE_SYMBOL
1070
   384
1040
0.7853981633974483
  0
DIMSTYLE
105
268
330
9
100
AcDbSymbolTableRecord
100
AcDbDimStyleTableRecord
  2
AM_ANSI$SH
 70
     0
  4
mm
 41
0.1
 42
0.05
 43
0.5
 44
0.1
 47
0.1
 48
0.1
 75
     1
 76
     1
 78
     7
 79
     2
140
0.12
141
0.0
146
0.71
147
0.06
173
     1
176
   256
177
   256
178
     2
274
     4
284
     7
340
17
343
262
371
    -1
372
    -1
1001
ACAD_DSTYLE_DIMARC_LENGTH_SYMBOL
1070
   379
1070
     1
1001
ACAD_DSTYLE_DIMJOGGED_JOGANGLE_SYMBOL
1070
   384
1040
0.7853981633974483
  0
ENDTAB
  0
TABLE
  2
BLOCK_RECORD
  5
1
330
0
100
AcDbSymbolTable
 70
     3
  0
BLOCK_RECORD
  5
A
330
1
100
AcDbSymbolTableRecord
100
AcDbBlockTableRecord
  2
*MODEL_SPACE
340
1BB
  0
BLOCK_RECORD
  5
B
330
1
100
AcDbSymbolTableRecord
100
AcDbBlockTableRecord
  2
*PAPER_SPACE
340
1BC
  0
BLOCK_RECORD
  5
B3
330
1
100
AcDbSymbolTableRecord
100
AcDbBlockTableRecord
  2
AI9-BLK1
340
0
102
{BLKREFS
331
B4
102
}
  0
BLOCK_RECORD
  5
262
330
1
100
AcDbSymbolTableRecord
100
AcDbBlockTableRecord
  2
GENAXEH
340
0
  0
ENDTAB
  0
ENDSEC
  0
SECTION
  2
BLOCKS
  0
BLOCK
  5
D
330
A
100
AcDbEntity
  8
0
100
AcDbBlockBegin
  2
*MODEL_SPACE
 70
     0
 10
0.0
 20
0.0
 30
0.0
  3
*MODEL_SPACE
  1

  0
ENDBLK
  5
E
330
A
100
AcDbEntity
  8
0
100
AcDbBlockEnd
  0
BLOCK
  5
F
330
B
100
AcDbEntity
 67
     1
  8
0
100
AcDbBlockBegin
  2
*PAPER_SPACE
 70
     0
 10
0.0
 20
0.0
 30
0.0
  3
*PAPER_SPACE
  1

  0
ENDBLK
  5
10
330
B
100
AcDbEntity
 67
     1
  8
0
100
AcDbBlockEnd
  0
BLOCK
  5
B5
330
B3
100
AcDbEntity
  8
0
 62
     7
100
AcDbBlockBegin
  2
AI9-BLK1
 70
     0
 10
0.0
 20
0.0
 30
0.0
  3
AI9-BLK1
  1

  0
LINE
  5
C0
330
B3
100
AcDbEntity
  8
LAYER_1
 62
     7
100
AcDbLine
 10
0.0
 20
4.498089
 30
0.0
 11
0.0
 21
-4.145483
 31
0.0
  0
POLYLINE
  5
BB
330
B3
100
AcDbEntity
  8
LAYER_1
 62
     7
100
AcDb2dPolyline
 66
     1
 10
0.0
 20
0.0
 30
0.0
 70
     1
  0
VERTEX
  5
BC
330
BB
100
AcDbEntity
  8
LAYER_1
 62
     7
100
AcDbVertex
100
AcDb2dVertex
 10
-0.441144
 20
-4.016637
 30
0.0
  0
VERTEX
  5
BD
330
BB
100
AcDbEntity
  8
LAYER_1
 62
     7
100
AcDbVertex
100
AcDb2dVertex
 10
-0.001378
 20
-4.778347
 30
0.0
  0
VERTEX
  5
BE
330
BB
100
AcDbEntity
  8
LAYER_1
 62
     7
100
AcDbVertex
100
AcDb2dVertex
 10
0.438388
 20
-4.016637
 30
0.0
  0
SEQEND
  5
BF
330
BB
100
AcDbEntity
  8
LAYER_1
 62
     7
  0
POLYLINE
  5
B6
330
B3
100
AcDbEntity
  8
LAYER_1
 62
     7
100
AcDb2dPolyline
 66
     1
 10
0.0
 20
0.0
 30
0.0
 70
     1
  0
VERTEX
  5
B7
330
B6
100
AcDbEntity
  8
LAYER_1
 62
     7
100
AcDbVertex
100
AcDb2dVertex
 10
0.441144
 20
4.016637
 30
0.0
  0
VERTEX
  5
B8
330
B6
100
AcDbEntity
  8
LAYER_1
 62
     7
100
AcDbVertex
100
AcDb2dVertex
 10
0.001378
 20
4.778347
 30
0.0
  0
VERTEX
  5
B9
330
B6
100
AcDbEntity
  8
LAYER_1
 62
     7
100
AcDbVertex
100
AcDb2dVertex
 10
-0.438388
 20
4.016637
 30
0.0
  0
SEQEND
  5
BA
330
B6
100
AcDbEntity
  8
LAYER_1
 62
     7
  0
ENDBLK
  5
C1
330
B3
100
AcDbEntity
  8
0
100
AcDbBlockEnd
  0
BLOCK
  5
264
330
262
100
AcDbEntity
  8
0
100
AcDbBlockBegin
  2
GENAXEH
 70
     0
 10
0.0
 20
0.0
 30
0.0
  3
GENAXEH
  1

  0
LINE
  5
263
330
262
100
AcDbEntity
  8
0
100
AcDbLine
 10
-1.0
 20
0.0
 30
0.0
 11
1.0
 21
0.0
 31
0.0
  0
ENDBLK
  5
265
330
262
100
AcDbEntity
  8
0
100
AcDbBlockEnd
  0
ENDSEC
  0
SECTION
  2
ENTITIES
  0
POLYLINE
  5
1AA
330
A
100
AcDbEntity
  8
LAYER_1
 62
     7
100
AcDb2dPolyline
 66
     1
 10
0.0
 20
0.0
 30
0.0
 70
     1
  0
VERTEX
  5
1AB
330
1AA
100
AcDbEntity
  8
LAYER_1
 62
     7
100
AcDbVertex
100
AcDb2dVertex
 10
117.101552
 20
124.227732
 30
0.0
  0
VERTEX
  5
1AC
330
1AA
100
AcDbEntity
  8
LAYER_1
 62
     7
100
AcDbVertex
100
AcDb2dVertex
 10
118.721263
 20
124.661641
 30
0.0
  0
VERTEX
  5
1AD
330
1AA
100
AcDbEntity
  8
LAYER_1
 62
     7
100
AcDbVertex
100
AcDb2dVertex
 10
117.101552
 20
125.095723
 30
0.0
  0
SEQEND
  5
1AE
330
1AA
100
AcDbEntity
  8
LAYER_1
 62
     7
  0
POLYLINE
  5
1A5
330
A
100
AcDbEntity
  8
LAYER_1
 62
     7
100
AcDb2dPolyline
 66
     1
 10
0.0
 20
0.0
 30
0.0
 70
     1
  0
VERTEX
  5
1A6
330
1A5
100
AcDbEntity
  8
LAYER_1
 62
     7
100
AcDbVertex
100
AcDb2dVertex
 10
116.527599
 20
125.085044
 30
0.0
  0
VERTEX
  5
1A7
330
1A5
100
AcDbEntity
  8
LAYER_1
 62
     7
100
AcDbVertex
100
AcDb2dVertex
 10
114.907715
 20
124.651134
 30
0.0
  0
VERTEX
  5
1A8
330
1A5
100
AcDbEntity
  8
LAYER_1
 62
     7
100
AcDbVertex
100
AcDb2dVertex
 10
116.527599
 20
124.217052
 30
0.0
  0
SEQEND
  5
1A9
330
1A5
100
AcDbEntity
  8
LAYER_1
 62
     7
  0
POLYLINE
  5
1A0
330
A
100
AcDbEntity
  8
LAYER_1
 62
     7
100
AcDb2dPolyline
 66
     1
 10
0.0
 20
0.0
 30
0.0
 70
     1
  0
VERTEX
  5
1A1
330
1A0
100
AcDbEntity
  8
LAYER_1
 62
     7
100
AcDbVertex
100
AcDb2dVertex
 10
121.969816
 20
129.502345
 30
0.0
  0
VERTEX
  5
1A2
330
1A0
100
AcDbEntity
  8
LAYER_1
 62
     7
100
AcDbVertex
100
AcDb2dVertex
 10
122.403898
 20
127.882633
 30
0.0
  0
VERTEX
  5
1A3
330
1A0
100
AcDbEntity
  8
LAYER_1
 62
     7
100
AcDbVertex
100
AcDb2dVertex
 10
122.837808
 20
129.502345
 30
0.0
  0
SEQEND
  5
1A4
330
1A0
100
AcDbEntity
  8
LAYER_1
 62
     7
  0
POLYLINE
  5
19B
330
A
100
AcDbEntity
  8
LAYER_1
 62
     7
100
AcDb2dPolyline
 66
     1
 10
0.0
 20
0.0
 30
0.0
 70
     1
  0
VERTEX
  5
19C
330
19B
100
AcDbEntity
  8
LAYER_1
 62
     7
100
AcDbVertex
100
AcDb2dVertex
 10
122.827128
 20
145.396121
 30
0.0
  0
VERTEX
  5
19D
330
19B
100
AcDbEntity
  8
LAYER_1
 62
     7
100
AcDbVertex
100
AcDb2dVertex
 10
122.393218
 20
147.015833
 30
0.0
  0
VERTEX
  5
19E
330
19B
100
AcDbEntity
  8
LAYER_1
 62
     7
100
AcDbVertex
100
AcDb2dVertex
 10
121.959309
 20
145.396121
 30
0.0
  0
SEQEND
  5
19F
330
19B
100
AcDbEntity
  8
LAYER_1
 62
     7
  0
POLYLINE
  5
196
330
A
100
AcDbEntity
  8
LAYER_1
 62
     7
100
AcDb2dPolyline
 66
     1
 10
0.0
 20
0.0
 30
0.0
 70
     1
  0
VERTEX
  5
197
330
196
100
AcDbEntity
  8
LAYER_1
 62
     7
100
AcDbVertex
100
AcDb2dVertex
 10
107.906936
 20
124.082176
 30
0.0
  0
VERTEX
  5
198
330
196
100
AcDbEntity
  8
LAYER_1
 62
     7
100
AcDbVertex
100
AcDb2dVertex
 10
109.526648
 20
124.516086
 30
0.0
  0
VERTEX
  5
199
330
196
100
AcDbEntity
  8
LAYER_1
 62
     7
100
AcDbVertex
100
AcDb2dVertex
 10
107.906936
 20
124.950168
 30
0.0
  0
SEQEND
  5
19A
330
196
100
AcDbEntity
  8
LAYER_1
 62
     7
  0
POLYLINE
  5
191
330
A
100
AcDbEntity
  8
LAYER_1
 62
     7
100
AcDb2dPolyline
 66
     1
 10
0.0
 20
0.0
 30
0.0
 70
     1
  0
VERTEX
  5
192
330
191
100
AcDbEntity
  8
LAYER_1
 62
     7
100
AcDbVertex
100
AcDb2dVertex
 10
105.650743
 20
124.939488
 30
0.0
  0
VERTEX
  5
193
330
191
100
AcDbEntity
  8
LAYER_1
 62
     7
100
AcDbVertex
100
AcDb2dVertex
 10
104.031032
 20
124.505579
 30
0.0
  0
VERTEX
  5
194
330
191
100
AcDbEntity
  8
LAYER_1
 62
     7
100
AcDbVertex
100
AcDb2dVertex
 10
105.650743
 20
124.071497
 30
0.0
  0
SEQEND
  5
195
330
191
100
AcDbEntity
  8
LAYER_1
 62
     7
  0
POLYLINE
  5
18C
330
A
100
AcDbEntity
  8
LAYER_1
 62
     7
100
AcDb2dPolyline
 66
     1
 10
0.0
 20
0.0
 30
0.0
 70
     1
  0
VERTEX
  5
18D
330
18C
100
AcDbEntity
  8
LAYER_1
 62
     7
100
AcDbVertex
100
AcDb2dVertex
 10
100.662073
 20
131.520999
 30
0.0
  0
VERTEX
  5
18E
330
18C
100
AcDbEntity
  8
LAYER_1
 62
     7
100
AcDbVertex
100
AcDb2dVertex
 10
101.095983
 20
129.901287
 30
0.0
  0
VERTEX
  5
18F
330
18C
100
AcDbEntity
  8
LAYER_1
 62
     7
100
AcDbVertex
100
AcDb2dVertex
 10
101.530065
 20
131.520999
 30
0.0
  0
SEQEND
  5
190
330
18C
100
AcDbEntity
  8
LAYER_1
 62
     7
  0
POLYLINE
  5
187
330
A
100
AcDbEntity
  8
LAYER_1
 62
     7
100
AcDb2dPolyline
 66
     1
 10
0.0
 20
0.0
 30
0.0
 70
     1
  0
VERTEX
  5
188
330
187
100
AcDbEntity
  8
LAYER_1
 62
     7
100
AcDbVertex
100
AcDb2dVertex
 10
101.519385
 20
143.185575
 30
0.0
  0
VERTEX
  5
189
330
187
100
AcDbEntity
  8
LAYER_1
 62
     7
100
AcDbVertex
100
AcDb2dVertex
 10
101.085303
 20
144.805287
 30
0.0
  0
VERTEX
  5
18A
330
187
100
AcDbEntity
  8
LAYER_1
 62
     7
100
AcDbVertex
100
AcDb2dVertex
 10
100.651393
 20
143.185575
 30
0.0
  0
SEQEND
  5
18B
330
187
100
AcDbEntity
  8
LAYER_1
 62
     7
  0
POLYLINE
  5
182
330
A
100
AcDbEntity
  8
LAYER_1
 62
     7
100
AcDb2dPolyline
 66
     1
 10
0.0
 20
0.0
 30
0.0
 70
     1
  0
VERTEX
  5
183
330
182
100
AcDbEntity
  8
LAYER_1
 62
     7
100
AcDbVertex
100
AcDb2dVertex
 10
101.592249
 20
126.071547
 30
0.0
  0
VERTEX
  5
184
330
182
100
AcDbEntity
  8
LAYER_1
 62
     7
100
AcDbVertex
100
AcDb2dVertex
 10
101.158167
 20
127.691258
 30
0.0
  0
VERTEX
  5
185
330
182
100
AcDbEntity
  8
LAYER_1
 62
     7
100
AcDbVertex
100
AcDb2dVertex
 10
100.724257
 20
126.071547
 30
0.0
  0
SEQEND
  5
186
330
182
100
AcDbEntity
  8
LAYER_1
 62
     7
  0
POLYLINE
  5
17D
330
A
100
AcDbEntity
  8
LAYER_1
 62
     7
100
AcDb2dPolyline
 66
     1
 10
0.0
 20
0.0
 30
0.0
 70
     1
  0
VERTEX
  5
17E
330
17D
100
AcDbEntity
  8
LAYER_1
 62
     7
100
AcDbVertex
100
AcDb2dVertex
 10
79.23134000000001
 20
119.90517
 30
0.0
  0
VERTEX
  5
17F
330
17D
100
AcDbEntity
  8
LAYER_1
 62
     7
100
AcDbVertex
100
AcDb2dVertex
 10
79.621841
 20
118.44755
 30
0.0
  0
VERTEX
  5
180
330
17D
100
AcDbEntity
  8
LAYER_1
 62
     7
100
AcDbVertex
100
AcDb2dVertex
 10
80.012515
 20
119.90517
 30
0.0
  0
SEQEND
  5
181
330
17D
100
AcDbEntity
  8
LAYER_1
 62
     7
  0
POLYLINE
  5
178
330
A
100
AcDbEntity
  8
LAYER_1
 62
     7
100
AcDb2dPolyline
 66
     1
 10
0.0
 20
0.0
 30
0.0
 70
     1
  0
VERTEX
  5
179
330
178
100
AcDbEntity
  8
LAYER_1
 62
     7
100
AcDbVertex
100
AcDb2dVertex
 10
80.00286899999998
 20
145.332387
 30
0.0
  0
VERTEX
  5
17A
330
178
100
AcDbEntity
  8
LAYER_1
 62
     7
100
AcDbVertex
100
AcDb2dVertex
 10
79.612367
 20
146.790007
 30
0.0
  0
VERTEX
  5
17B
330
178
100
AcDbEntity
  8
LAYER_1
 62
     7
100
AcDbVertex
100
AcDb2dVertex
 10
79.221693
 20
145.332387
 30
0.0
  0
SEQEND
  5
17C
330
178
100
AcDbEntity
  8
LAYER_1
 62
     7
  0
POLYLINE
  5
173
330
A
100
AcDbEntity
  8
LAYER_1
 62
     7
100
AcDb2dPolyline
 66
     1
 10
0.0
 20
0.0
 30
0.0
 70
     1
  0
VERTEX
  5
174
330
173
100
AcDbEntity
  8
LAYER_1
 62
     7
100
AcDbVertex
100
AcDb2dVertex
 10
79.23134000000001
 20
148.48775
 30
0.0
  0
VERTEX
  5
175
330
173
100
AcDbEntity
  8
LAYER_1
 62
     7
100
AcDbVertex
100
AcDb2dVertex
 10
79.621841
 20
147.03013
 30
0.0
  0
VERTEX
  5
176
330
173
100
AcDbEntity
  8
LAYER_1
 62
     7
100
AcDbVertex
100
AcDb2dVertex
 10
80.012515
 20
148.48775
 30
0.0
  0
SEQEND
  5
177
330
173
100
AcDbEntity
  8
LAYER_1
 62
     7
  0
POLYLINE
  5
16E
330
A
100
AcDbEntity
  8
LAYER_1
 62
     7
100
AcDb2dPolyline
 66
     1
 10
0.0
 20
0.0
 30
0.0
 70
     1
  0
VERTEX
  5
16F
330
16E
100
AcDbEntity
  8
LAYER_1
 62
     7
100
AcDbVertex
100
AcDb2dVertex
 10
80.00286899999998
 20
150.258184
 30
0.0
  0
VERTEX
  5
170
330
16E
100
AcDbEntity
  8
LAYER_1
 62
     7
100
AcDbVertex
100
AcDb2dVertex
 10
79.612367
 20
151.715804
 30
0.0
  0
VERTEX
  5
171
330
16E
100
AcDbEntity
  8
LAYER_1
 62
     7
100
AcDbVertex
100
AcDb2dVertex
 10
79.221693
 20
150.258184
 30
0.0
  0
SEQEND
  5
172
330
16E
100
AcDbEntity
  8
LAYER_1
 62
     7
  0
POLYLINE
  5
169
330
A
100
AcDbEntity
  8
LAYER_1
 62
     7
100
AcDb2dPolyline
 66
     1
 10
0.0
 20
0.0
 30
0.0
 70
     1
  0
VERTEX
  5
16A
330
169
100
AcDbEntity
  8
LAYER_1
 62
     7
100
AcDbVertex
100
AcDb2dVertex
 10
74.46694499999999
 20
114.864134
 30
0.0
  0
VERTEX
  5
16B
330
169
100
AcDbEntity
  8
LAYER_1
 62
     7
100
AcDbVertex
100
AcDb2dVertex
 10
75.92473699999999
 20
115.254636
 30
0.0
  0
VERTEX
  5
16C
330
169
100
AcDbEntity
  8
LAYER_1
 62
     7
100
AcDbVertex
100
AcDb2dVertex
 10
74.46694499999999
 20
115.64531
 30
0.0
  0
SEQEND
  5
16D
330
169
100
AcDbEntity
  8
LAYER_1
 62
     7
  0
POLYLINE
  5
164
330
A
100
AcDbEntity
  8
LAYER_1
 62
     7
100
AcDb2dPolyline
 66
     1
 10
0.0
 20
0.0
 30
0.0
 70
     1
  0
VERTEX
  5
165
330
164
100
AcDbEntity
  8
LAYER_1
 62
     7
100
AcDbVertex
100
AcDb2dVertex
 10
73.086839
 20
115.635664
 30
0.0
  0
VERTEX
  5
166
330
164
100
AcDbEntity
  8
LAYER_1
 62
     7
100
AcDbVertex
100
AcDb2dVertex
 10
71.629047
 20
115.245162
 30
0.0
  0
VERTEX
  5
167
330
164
100
AcDbEntity
  8
LAYER_1
 62
     7
100
AcDbVertex
100
AcDb2dVertex
 10
73.086839
 20
114.854488
 30
0.0
  0
SEQEND
  5
168
330
164
100
AcDbEntity
  8
LAYER_1
 62
     7
  0
POLYLINE
  5
15F
330
A
100
AcDbEntity
  8
LAYER_1
 62
     7
100
AcDb2dPolyline
 66
     1
 10
0.0
 20
0.0
 30
0.0
 70
     1
  0
VERTEX
  5
160
330
15F
100
AcDbEntity
  8
LAYER_1
 62
     7
100
AcDbVertex
100
AcDb2dVertex
 10
51.57618
 20
119.917745
 30
0.0
  0
VERTEX
  5
161
330
15F
100
AcDbEntity
  8
LAYER_1
 62
     7
100
AcDbVertex
100
AcDb2dVertex
 10
51.966682
 20
118.459953
 30
0.0
  0
VERTEX
  5
162
330
15F
100
AcDbEntity
  8
LAYER_1
 62
     7
100
AcDbVertex
100
AcDb2dVertex
 10
52.357355
 20
119.917745
 30
0.0
  0
SEQEND
  5
163
330
15F
100
AcDbEntity
  8
LAYER_1
 62
     7
  0
POLYLINE
  5
15A
330
A
100
AcDbEntity
  8
LAYER_1
 62
     7
100
AcDb2dPolyline
 66
     1
 10
0.0
 20
0.0
 30
0.0
 70
     1
  0
VERTEX
  5
15B
330
15A
100
AcDbEntity
  8
LAYER_1
 62
     7
100
AcDbVertex
100
AcDb2dVertex
 10
52.347881
 20
130.348805
 30
0.0
  0
VERTEX
  5
15C
330
15A
100
AcDbEntity
  8
LAYER_1
 62
     7
100
AcDbVertex
100
AcDb2dVertex
 10
51.957208
 20
131.806597
 30
0.0
  0
VERTEX
  5
15D
330
15A
100
AcDbEntity
  8
LAYER_1
 62
     7
100
AcDbVertex
100
AcDb2dVertex
 10
51.566534
 20
130.348805
 30
0.0
  0
SEQEND
  5
15E
330
15A
100
AcDbEntity
  8
LAYER_1
 62
     7
  0
POLYLINE
  5
155
330
A
100
AcDbEntity
  8
LAYER_1
 62
     7
100
AcDb2dPolyline
 66
     1
 10
0.0
 20
0.0
 30
0.0
 70
     1
  0
VERTEX
  5
156
330
155
100
AcDbEntity
  8
LAYER_1
 62
     7
100
AcDbVertex
100
AcDb2dVertex
 10
63.939939
 20
121.967405
 30
0.0
  0
VERTEX
  5
157
330
155
100
AcDbEntity
  8
LAYER_1
 62
     7
100
AcDbVertex
100
AcDb2dVertex
 10
64.330613
 20
120.509785
 30
0.0
  0
VERTEX
  5
158
330
155
100
AcDbEntity
  8
LAYER_1
 62
     7
100
AcDbVertex
100
AcDb2dVertex
 10
64.721114
 20
121.967405
 30
0.0
  0
SEQEND
  5
159
330
155
100
AcDbEntity
  8
LAYER_1
 62
     7
  0
POLYLINE
  5
150
330
A
100
AcDbEntity
  8
LAYER_1
 62
     7
100
AcDb2dPolyline
 66
     1
 10
0.0
 20
0.0
 30
0.0
 70
     1
  0
VERTEX
  5
151
330
150
100
AcDbEntity
  8
LAYER_1
 62
     7
100
AcDbVertex
100
AcDb2dVertex
 10
64.71146800000001
 20
134.049527
 30
0.0
  0
VERTEX
  5
152
330
150
100
AcDbEntity
  8
LAYER_1
 62
     7
100
AcDbVertex
100
AcDb2dVertex
 10
64.321139
 20
135.507319
 30
0.0
  0
VERTEX
  5
153
330
150
100
AcDbEntity
  8
LAYER_1
 62
     7
100
AcDbVertex
100
AcDb2dVertex
 10
63.930465
 20
134.049527
 30
0.0
  0
SEQEND
  5
154
330
150
100
AcDbEntity
  8
LAYER_1
 62
     7
  0
POLYLINE
  5
14B
330
A
100
AcDbEntity
  8
LAYER_1
 62
     7
100
AcDb2dPolyline
 66
     1
 10
0.0
 20
0.0
 30
0.0
 70
     1
  0
VERTEX
  5
14C
330
14B
100
AcDbEntity
  8
LAYER_1
 62
     7
100
AcDbVertex
100
AcDb2dVertex
 10
64.71164
 20
116.894674
 30
0.0
  0
VERTEX
  5
14D
330
14B
100
AcDbEntity
  8
LAYER_1
 62
     7
100
AcDbVertex
100
AcDb2dVertex
 10
64.321139
 20
118.352466
 30
0.0
  0
VERTEX
  5
14E
330
14B
100
AcDbEntity
  8
LAYER_1
 62
     7
100
AcDbVertex
100
AcDb2dVertex
 10
63.930465
 20
116.894674
 30
0.0
  0
SEQEND
  5
14F
330
14B
100
AcDbEntity
  8
LAYER_1
 62
     7
  0
POLYLINE
  5
146
330
A
100
AcDbEntity
  8
LAYER_1
 62
     7
100
AcDb2dPolyline
 66
     1
 10
0.0
 20
0.0
 30
0.0
 70
     1
  0
VERTEX
  5
147
330
146
100
AcDbEntity
  8
LAYER_1
 62
     7
100
AcDbVertex
100
AcDb2dVertex
 10
56.427391
 20
144.505736
 30
0.0
  0
VERTEX
  5
148
330
146
100
AcDbEntity
  8
LAYER_1
 62
     7
100
AcDbVertex
100
AcDb2dVertex
 10
54.96977099999999
 20
144.115234
 30
0.0
  0
VERTEX
  5
149
330
146
100
AcDbEntity
  8
LAYER_1
 62
     7
100
AcDbVertex
100
AcDb2dVertex
 10
56.427391
 20
143.724561
 30
0.0
  0
SEQEND
  5
14A
330
146
100
AcDbEntity
  8
LAYER_1
 62
     7
  0
POLYLINE
  5
141
330
A
100
AcDbEntity
  8
LAYER_1
 62
     7
100
AcDb2dPolyline
 66
     1
 10
0.0
 20
0.0
 30
0.0
 70
     1
  0
VERTEX
  5
142
330
141
100
AcDbEntity
  8
LAYER_1
 62
     7
100
AcDbVertex
100
AcDb2dVertex
 10
56.804974
 20
143.734207
 30
0.0
  0
VERTEX
  5
143
330
141
100
AcDbEntity
  8
LAYER_1
 62
     7
100
AcDbVertex
100
AcDb2dVertex
 10
58.262766
 20
144.124708
 30
0.0
  0
VERTEX
  5
144
330
141
100
AcDbEntity
  8
LAYER_1
 62
     7
100
AcDbVertex
100
AcDb2dVertex
 10
56.804974
 20
144.515382
 30
0.0
  0
SEQEND
  5
145
330
141
100
AcDbEntity
  8
LAYER_1
 62
     7
  0
POLYLINE
  5
13C
330
A
100
AcDbEntity
  8
LAYER_1
 62
     7
100
AcDb2dPolyline
 66
     1
 10
0.0
 20
0.0
 30
0.0
 70
     1
  0
VERTEX
  5
13D
330
13C
100
AcDbEntity
  8
LAYER_1
 62
     7
100
AcDbVertex
100
AcDb2dVertex
 10
60.870359
 20
138.682319
 30
0.0
  0
VERTEX
  5
13E
330
13C
100
AcDbEntity
  8
LAYER_1
 62
     7
100
AcDbVertex
100
AcDb2dVertex
 10
59.412566
 20
138.2918169999999
 30
0.0
  0
VERTEX
  5
13F
330
13C
100
AcDbEntity
  8
LAYER_1
 62
     7
100
AcDbVertex
100
AcDb2dVertex
 10
60.870359
 20
137.901143
 30
0.0
  0
SEQEND
  5
140
330
13C
100
AcDbEntity
  8
LAYER_1
 62
     7
  0
POLYLINE
  5
137
330
A
100
AcDbEntity
  8
LAYER_1
 62
     7
100
AcDb2dPolyline
 66
     1
 10
0.0
 20
0.0
 30
0.0
 70
     1
  0
VERTEX
  5
138
330
137
100
AcDbEntity
  8
LAYER_1
 62
     7
100
AcDbVertex
100
AcDb2dVertex
 10
55.02006999999999
 20
137.91079
 30
0.0
  0
VERTEX
  5
139
330
137
100
AcDbEntity
  8
LAYER_1
 62
     7
100
AcDbVertex
100
AcDb2dVertex
 10
56.477862
 20
138.301291
 30
0.0
  0
VERTEX
  5
13A
330
137
100
AcDbEntity
  8
LAYER_1
 62
     7
100
AcDbVertex
100
AcDb2dVertex
 10
55.02006999999999
 20
138.691965
 30
0.0
  0
SEQEND
  5
13B
330
137
100
AcDbEntity
  8
LAYER_1
 62
     7
  0
POLYLINE
  5
132
330
A
100
AcDbEntity
  8
LAYER_1
 62
     7
100
AcDb2dPolyline
 66
     1
 10
0.0
 20
0.0
 30
0.0
 70
     1
  0
VERTEX
  5
133
330
132
100
AcDbEntity
  8
LAYER_1
 62
     7
100
AcDbVertex
100
AcDb2dVertex
 10
59.435649
 20
114.936826
 30
0.0
  0
VERTEX
  5
134
330
132
100
AcDbEntity
  8
LAYER_1
 62
     7
100
AcDbVertex
100
AcDb2dVertex
 10
60.893441
 20
115.327327
 30
0.0
  0
VERTEX
  5
135
330
132
100
AcDbEntity
  8
LAYER_1
 62
     7
100
AcDbVertex
100
AcDb2dVertex
 10
59.435649
 20
115.718001
 30
0.0
  0
SEQEND
  5
136
330
132
100
AcDbEntity
  8
LAYER_1
 62
     7
  0
POLYLINE
  5
12D
330
A
100
AcDbEntity
  8
LAYER_1
 62
     7
100
AcDb2dPolyline
 66
     1
 10
0.0
 20
0.0
 30
0.0
 70
     1
  0
VERTEX
  5
12E
330
12D
100
AcDbEntity
  8
LAYER_1
 62
     7
100
AcDbVertex
100
AcDb2dVertex
 10
56.11561
 20
115.708355
 30
0.0
  0
VERTEX
  5
12F
330
12D
100
AcDbEntity
  8
LAYER_1
 62
     7
100
AcDbVertex
100
AcDb2dVertex
 10
54.65781800000001
 20
115.317853
 30
0.0
  0
VERTEX
  5
130
330
12D
100
AcDbEntity
  8
LAYER_1
 62
     7
100
AcDbVertex
100
AcDb2dVertex
 10
56.11561
 20
114.92718
 30
0.0
  0
SEQEND
  5
131
330
12D
100
AcDbEntity
  8
LAYER_1
 62
     7
  0
POLYLINE
  5
128
330
A
100
AcDbEntity
  8
LAYER_1
 62
     7
100
AcDb2dPolyline
 66
     1
 10
0.0
 20
0.0
 30
0.0
 70
     1
  0
VERTEX
  5
129
330
128
100
AcDbEntity
  8
LAYER_1
 62
     7
100
AcDbVertex
100
AcDb2dVertex
 10
170.513279
 20
120.14426
 30
0.0
  0
VERTEX
  5
12A
330
128
100
AcDbEntity
  8
LAYER_1
 62
     7
100
AcDbVertex
100
AcDb2dVertex
 10
170.947188
 20
118.524721
 30
0.0
  0
VERTEX
  5
12B
330
128
100
AcDbEntity
  8
LAYER_1
 62
     7
100
AcDbVertex
100
AcDb2dVertex
 10
171.38127
 20
120.14426
 30
0.0
  0
SEQEND
  5
12C
330
128
100
AcDbEntity
  8
LAYER_1
 62
     7
  0
POLYLINE
  5
123
330
A
100
AcDbEntity
  8
LAYER_1
 62
     7
100
AcDb2dPolyline
 66
     1
 10
0.0
 20
0.0
 30
0.0
 70
     1
  0
VERTEX
  5
124
330
123
100
AcDbEntity
  8
LAYER_1
 62
     7
100
AcDbVertex
100
AcDb2dVertex
 10
171.370591
 20
149.208464
 30
0.0
  0
VERTEX
  5
125
330
123
100
AcDbEntity
  8
LAYER_1
 62
     7
100
AcDbVertex
100
AcDb2dVertex
 10
170.936681
 20
150.828175
 30
0.0
  0
VERTEX
  5
126
330
123
100
AcDbEntity
  8
LAYER_1
 62
     7
100
AcDbVertex
100
AcDb2dVertex
 10
170.502599
 20
149.208464
 30
0.0
  0
SEQEND
  5
127
330
123
100
AcDbEntity
  8
LAYER_1
 62
     7
  0
POLYLINE
  5
11E
330
A
100
AcDbEntity
  8
LAYER_1
 62
     7
100
AcDb2dPolyline
 66
     1
 10
0.0
 20
0.0
 30
0.0
 70
     1
  0
VERTEX
  5
11F
330
11E
100
AcDbEntity
  8
LAYER_1
 62
     7
100
AcDbVertex
100
AcDb2dVertex
 10
165.963858
 20
115.259287
 30
0.0
  0
VERTEX
  5
120
330
11E
100
AcDbEntity
  8
LAYER_1
 62
     7
100
AcDbVertex
100
AcDb2dVertex
 10
167.5835689999999
 20
115.693197
 30
0.0
  0
VERTEX
  5
121
330
11E
100
AcDbEntity
  8
LAYER_1
 62
     7
100
AcDbVertex
100
AcDb2dVertex
 10
165.963858
 20
116.127279
 30
0.0
  0
SEQEND
  5
122
330
11E
100
AcDbEntity
  8
LAYER_1
 62
     7
  0
POLYLINE
  5
119
330
A
100
AcDbEntity
  8
LAYER_1
 62
     7
100
AcDb2dPolyline
 66
     1
 10
0.0
 20
0.0
 30
0.0
 70
     1
  0
VERTEX
  5
11A
330
119
100
AcDbEntity
  8
LAYER_1
 62
     7
100
AcDbVertex
100
AcDb2dVertex
 10
163.726096
 20
116.116599
 30
0.0
  0
VERTEX
  5
11B
330
119
100
AcDbEntity
  8
LAYER_1
 62
     7
100
AcDbVertex
100
AcDb2dVertex
 10
162.106384
 20
115.682689
 30
0.0
  0
VERTEX
  5
11C
330
119
100
AcDbEntity
  8
LAYER_1
 62
     7
100
AcDbVertex
100
AcDb2dVertex
 10
163.726096
 20
115.248607
 30
0.0
  0
SEQEND
  5
11D
330
119
100
AcDbEntity
  8
LAYER_1
 62
     7
  0
POLYLINE
  5
114
330
A
100
AcDbEntity
  8
LAYER_1
 62
     7
100
AcDb2dPolyline
 66
     1
 10
0.0
 20
0.0
 30
0.0
 70
     1
  0
VERTEX
  5
115
330
114
100
AcDbEntity
  8
LAYER_1
 62
     7
100
AcDbVertex
100
AcDb2dVertex
 10
141.550361
 20
120.241239
 30
0.0
  0
VERTEX
  5
116
330
114
100
AcDbEntity
  8
LAYER_1
 62
     7
100
AcDbVertex
100
AcDb2dVertex
 10
141.984271
 20
118.6217
 30
0.0
  0
VERTEX
  5
117
330
114
100
AcDbEntity
  8
LAYER_1
 62
     7
100
AcDbVertex
100
AcDb2dVertex
 10
142.418353
 20
120.241239
 30
0.0
  0
SEQEND
  5
118
330
114
100
AcDbEntity
  8
LAYER_1
 62
     7
  0
POLYLINE
  5
10F
330
A
100
AcDbEntity
  8
LAYER_1
 62
     7
100
AcDb2dPolyline
 66
     1
 10
0.0
 20
0.0
 30
0.0
 70
     1
  0
VERTEX
  5
110
330
10F
100
AcDbEntity
  8
LAYER_1
 62
     7
100
AcDbVertex
100
AcDb2dVertex
 10
142.407673
 20
126.672199
 30
0.0
  0
VERTEX
  5
111
330
10F
100
AcDbEntity
  8
LAYER_1
 62
     7
100
AcDbVertex
100
AcDb2dVertex
 10
141.973591
 20
128.291911
 30
0.0
  0
VERTEX
  5
112
330
10F
100
AcDbEntity
  8
LAYER_1
 62
     7
100
AcDbVertex
100
AcDb2dVertex
 10
141.539681
 20
126.672199
 30
0.0
  0
SEQEND
  5
113
330
10F
100
AcDbEntity
  8
LAYER_1
 62
     7
  0
POLYLINE
  5
10A
330
A
100
AcDbEntity
  8
LAYER_1
 62
     7
100
AcDb2dPolyline
 66
     1
 10
0.0
 20
0.0
 30
0.0
 70
     1
  0
VERTEX
  5
10B
330
10A
100
AcDbEntity
  8
LAYER_1
 62
     7
100
AcDbVertex
100
AcDb2dVertex
 10
153.786134
 20
122.70655
 30
0.0
  0
VERTEX
  5
10C
330
10A
100
AcDbEntity
  8
LAYER_1
 62
     7
100
AcDbVertex
100
AcDb2dVertex
 10
154.220044
 20
121.086838
 30
0.0
  0
VERTEX
  5
10D
330
10A
100
AcDbEntity
  8
LAYER_1
 62
     7
100
AcDbVertex
100
AcDb2dVertex
 10
154.654126
 20
122.70655
 30
0.0
  0
SEQEND
  5
10E
330
10A
100
AcDbEntity
  8
LAYER_1
 62
     7
  0
POLYLINE
  5
105
330
A
100
AcDbEntity
  8
LAYER_1
 62
     7
100
AcDb2dPolyline
 66
     1
 10
0.0
 20
0.0
 30
0.0
 70
     1
  0
VERTEX
  5
106
330
105
100
AcDbEntity
  8
LAYER_1
 62
     7
100
AcDbVertex
100
AcDb2dVertex
 10
154.643446
 20
135.363486
 30
0.0
  0
VERTEX
  5
107
330
105
100
AcDbEntity
  8
LAYER_1
 62
     7
100
AcDbVertex
100
AcDb2dVertex
 10
154.209536
 20
136.983198
 30
0.0
  0
VERTEX
  5
108
330
105
100
AcDbEntity
  8
LAYER_1
 62
     7
100
AcDbVertex
100
AcDb2dVertex
 10
153.775454
 20
135.363486
 30
0.0
  0
SEQEND
  5
109
330
105
100
AcDbEntity
  8
LAYER_1
 62
     7
  0
POLYLINE
  5
100
330
A
100
AcDbEntity
  8
LAYER_1
 62
     7
100
AcDb2dPolyline
 66
     1
 10
0.0
 20
0.0
 30
0.0
 70
     1
  0
VERTEX
  5
101
330
100
100
AcDbEntity
  8
LAYER_1
 62
     7
100
AcDbVertex
100
AcDb2dVertex
 10
154.643446
 20
116.878998
 30
0.0
  0
VERTEX
  5
102
330
100
100
AcDbEntity
  8
LAYER_1
 62
     7
100
AcDbVertex
100
AcDb2dVertex
 10
154.209536
 20
118.49871
 30
0.0
  0
VERTEX
  5
103
330
100
100
AcDbEntity
  8
LAYER_1
 62
     7
100
AcDbVertex
100
AcDb2dVertex
 10
153.775454
 20
116.878998
 30
0.0
  0
SEQEND
  5
104
330
100
100
AcDbEntity
  8
LAYER_1
 62
     7
  0
POLYLINE
  5
FB
330
A
100
AcDbEntity
  8
LAYER_1
 62
     7
100
AcDb2dPolyline
 66
     1
 10
0.0
 20
0.0
 30
0.0
 70
     1
  0
VERTEX
  5
FC
330
FB
100
AcDbEntity
  8
LAYER_1
 62
     7
100
AcDbVertex
100
AcDb2dVertex
 10
151.593848
 20
140.581428
 30
0.0
  0
VERTEX
  5
FD
330
FB
100
AcDbEntity
  8
LAYER_1
 62
     7
100
AcDbVertex
100
AcDb2dVertex
 10
149.974136
 20
140.147518
 30
0.0
  0
VERTEX
  5
FE
330
FB
100
AcDbEntity
  8
LAYER_1
 62
     7
100
AcDbVertex
100
AcDb2dVertex
 10
151.593848
 20
139.713436
 30
0.0
  0
SEQEND
  5
FF
330
FB
100
AcDbEntity
  8
LAYER_1
 62
     7
  0
POLYLINE
  5
F6
330
A
100
AcDbEntity
  8
LAYER_1
 62
     7
100
AcDb2dPolyline
 66
     1
 10
0.0
 20
0.0
 30
0.0
 70
     1
  0
VERTEX
  5
F7
330
F6
100
AcDbEntity
  8
LAYER_1
 62
     7
100
AcDbVertex
100
AcDb2dVertex
 10
144.322974
 20
139.724116
 30
0.0
  0
VERTEX
  5
F8
330
F6
100
AcDbEntity
  8
LAYER_1
 62
     7
100
AcDbVertex
100
AcDb2dVertex
 10
145.942685
 20
140.158198
 30
0.0
  0
VERTEX
  5
F9
330
F6
100
AcDbEntity
  8
LAYER_1
 62
     7
100
AcDbVertex
100
AcDb2dVertex
 10
144.322974
 20
140.592107
 30
0.0
  0
SEQEND
  5
FA
330
F6
100
AcDbEntity
  8
LAYER_1
 62
     7
  0
POLYLINE
  5
F1
330
A
100
AcDbEntity
  8
LAYER_1
 62
     7
100
AcDb2dPolyline
 66
     1
 10
0.0
 20
0.0
 30
0.0
 70
     1
  0
VERTEX
  5
F2
330
F1
100
AcDbEntity
  8
LAYER_1
 62
     7
100
AcDbVertex
100
AcDb2dVertex
 10
149.487
 20
115.331978
 30
0.0
  0
VERTEX
  5
F3
330
F1
100
AcDbEntity
  8
LAYER_1
 62
     7
100
AcDbVertex
100
AcDb2dVertex
 10
151.106711
 20
115.76606
 30
0.0
  0
VERTEX
  5
F4
330
F1
100
AcDbEntity
  8
LAYER_1
 62
     7
100
AcDbVertex
100
AcDb2dVertex
 10
149.487
 20
116.19997
 30
0.0
  0
SEQEND
  5
F5
330
F1
100
AcDbEntity
  8
LAYER_1
 62
     7
  0
POLYLINE
  5
EC
330
A
100
AcDbEntity
  8
LAYER_1
 62
     7
100
AcDb2dPolyline
 66
     1
 10
0.0
 20
0.0
 30
0.0
 70
     1
  0
VERTEX
  5
ED
330
EC
100
AcDbEntity
  8
LAYER_1
 62
     7
100
AcDbVertex
100
AcDb2dVertex
 10
146.344039
 20
116.189463
 30
0.0
  0
VERTEX
  5
EE
330
EC
100
AcDbEntity
  8
LAYER_1
 62
     7
100
AcDbVertex
100
AcDb2dVertex
 10
144.724327
 20
115.755381
 30
0.0
  0
VERTEX
  5
EF
330
EC
100
AcDbEntity
  8
LAYER_1
 62
     7
100
AcDbVertex
100
AcDb2dVertex
 10
146.344039
 20
115.321471
 30
0.0
  0
SEQEND
  5
F0
330
EC
100
AcDbEntity
  8
LAYER_1
 62
     7
  0
MTEXT
  5
EB
330
A
100
AcDbEntity
  8
LAYER_1
 62
     7
100
AcDbMText
 10
61.64900799999999
 20
123.212807
 30
0.0
 40
1.837383999999999
 41
0.0
 71
     1
 72
     2
  1
\fGill Sans|b0|i0;54 (2.13)
  7
STD
 11
0.0
 21
1.0
 31
0.0
 73
     1
 44
1.0
1001
ACAD
1000
MTEXTBEGIN
1070
    73
1070
     1
1070
    44
1040
1.0
1070
    74
1070
     0
1000
MTEXTEND
  0
MTEXT
  5
EA
330
A
100
AcDbEntity
  8
LAYER_1
 62
     7
100
AcDbMText
 10
49.188097
 20
120.44295
 30
0.0
 40
1.837383999999999
 41
0.0
 71
     1
 72
     2
  1
\fGill Sans|b0|i0;46 (1.81)
  7
STD
 11
0.0
 21
1.0
 31
0.0
 73
     1
 44
1.0
1001
ACAD
1000
MTEXTBEGIN
1070
    73
1070
     1
1070
    44
1040
1.0
1070
    74
1070
     0
1000
MTEXTEND
  0
MTEXT
  5
E9
330
A
100
AcDbEntity
  8
LAYER_1
 62
     7
100
AcDbMText
 10
54.995093
 20
114.72145
 30
0.0
 40
1.837383999999999
 41
0.0
 71
     1
 72
     2
  1
\fGill Sans|b0|i0;(0.87)
  7
STD
 73
     1
 44
1.0
1001
ACAD
1000
MTEXTBEGIN
1070
    73
1070
     1
1070
    44
1040
1.0
1070
    74
1070
     0
1000
MTEXTEND
  0
MTEXT
  5
E8
330
A
100
AcDbEntity
  8
LAYER_1
 62
     7
100
AcDbMText
 10
56.68043299999999
 20
117.89645
 30
0.0
 40
1.837383999999999
 41
0.0
 71
     1
 72
     2
  1
\fGill Sans|b0|i0;22
  7
STD
 73
     1
 44
1.0
1001
ACAD
1000
MTEXTBEGIN
1070
    73
1070
     1
1070
    44
1040
1.0
1070
    74
1070
     0
1000
MTEXTEND
  0
MTEXT
  5
E7
330
A
100
AcDbEntity
  8
LAYER_1
 62
     7
100
AcDbMText
 10
61.34182
 20
111.509243
 30
0.0
 40
1.837383999999999
 41
0.0
 71
     1
 72
     2
  1
\fGill Sans|b0|i0;(0.26)
  7
STD
 73
     1
 44
1.0
1001
ACAD
1000
MTEXTBEGIN
1070
    73
1070
     1
1070
    44
1040
1.0
1070
    74
1070
     0
1000
MTEXTEND
  0
MTEXT
  5
E6
330
A
100
AcDbEntity
  8
LAYER_1
 62
     7
100
AcDbMText
 10
62.756721
 20
114.507854
 30
0.0
 40
1.837383999999999
 41
0.0
 71
     1
 72
     2
  1
\fGill Sans|b0|i0;6.5
  7
STD
 73
     1
 44
1.0
1001
ACAD
1000
MTEXTBEGIN
1070
    73
1070
     1
1070
    44
1040
1.0
1070
    74
1070
     0
1000
MTEXTEND
  0
MTEXT
  5
E5
330
A
100
AcDbEntity
  8
LAYER_1
 62
     7
100
AcDbMText
 10
77.25529
 20
126.676161
 30
0.0
 40
1.837383999999999
 41
0.0
 71
     1
 72
     2
  1
\fGill Sans|b0|i0;114.5 (4.51)
  7
STD
 11
0.0
 21
1.0
 31
0.0
 73
     1
 44
1.0
1001
ACAD
1000
MTEXTBEGIN
1070
    73
1070
     1
1070
    44
1040
1.0
1070
    74
1070
     0
1000
MTEXTEND
  0
MTEXT
  5
E4
330
A
100
AcDbEntity
  8
LAYER_1
 62
     7
100
AcDbMText
 10
71.243886
 20
114.462551
 30
0.0
 40
1.837383999999999
 41
0.0
 71
     1
 72
     2
  1
\fGill Sans|b0|i0;(0.63)
  7
STD
 73
     1
 44
1.0
1001
ACAD
1000
MTEXTBEGIN
1070
    73
1070
     1
1070
    44
1040
1.0
1070
    74
1070
     0
1000
MTEXTEND
  0
MTEXT
  5
E3
330
A
100
AcDbEntity
  8
LAYER_1
 62
     7
100
AcDbMText
 10
72.929226
 20
117.637551
 30
0.0
 40
1.837383999999999
 41
0.0
 71
     1
 72
     2
  1
\fGill Sans|b0|i0;16
  7
STD
 73
     1
 44
1.0
1001
ACAD
1000
MTEXTBEGIN
1070
    73
1070
     1
1070
    44
1040
1.0
1070
    74
1070
     0
1000
MTEXTEND
  0
MTEXT
  5
E2
330
A
100
AcDbEntity
  8
LAYER_1
 62
     7
100
AcDbMText
 10
118.493887
 20
122.569205
 30
0.0
 40
1.837383999999999
 41
0.0
 71
     1
 72
     2
  1
\fGill Sans|b0|i0;(0.51)
  7
STD
 73
     1
 44
1.0
1001
ACAD
1000
MTEXTBEGIN
1070
    73
1070
     1
1070
    44
1040
1.0
1070
    74
1070
     0
1000
MTEXTEND
  0
MTEXT
  5
E1
330
A
100
AcDbEntity
  8
LAYER_1
 62
     7
100
AcDbMText
 10
120.179228
 20
125.03865
 30
0.0
 40
1.837383999999999
 41
0.0
 71
     1
 72
     2
  1
\fGill Sans|b0|i0;13
  7
STD
 73
     1
 44
1.0
1001
ACAD
1000
MTEXTBEGIN
1070
    73
1070
     1
1070
    44
1040
1.0
1070
    74
1070
     0
1000
MTEXTEND
  0
MTEXT
  5
E0
330
A
100
AcDbEntity
  8
LAYER_1
 62
     7
100
AcDbMText
 10
119.893687
 20
132.77553
 30
0.0
 40
1.837383999999999
 41
0.0
 71
     1
 72
     2
  1
\fGill Sans|b0|i0;67 (2.64)
  7
STD
 11
0.0
 21
1.0
 31
0.0
 73
     1
 44
1.0
1001
ACAD
1000
MTEXTBEGIN
1070
    73
1070
     1
1070
    44
1040
1.0
1070
    74
1070
     0
1000
MTEXTEND
  0
MTEXT
  5
DF
330
A
100
AcDbEntity
  8
LAYER_1
 62
     7
100
AcDbMText
 10
112.124652
 20
129.999817
 30
0.0
 40
1.837383999999999
 41
0.0
 71
     1
 72
     2
  1
\fGill Sans|b0|i0;(1.32)
  7
STD
 11
0.0
 21
1.0
 31
0.0
 73
     1
 44
1.0
1001
ACAD
1000
MTEXTBEGIN
1070
    73
1070
     1
1070
    44
1040
1.0
1070
    74
1070
     0
1000
MTEXTEND
  0
MTEXT
  5
DE
330
A
100
AcDbEntity
  8
LAYER_1
 62
     7
100
AcDbMText
 10
109.655207
 20
130.797356
 30
0.0
 40
1.837383999999999
 41
0.0
 71
     1
 72
     2
  1
\fGill Sans|b0|i0;33.5
  7
STD
 11
0.0
 21
1.0
 31
0.0
 73
     1
 44
1.0
1001
ACAD
1000
MTEXTBEGIN
1070
    73
1070
     1
1070
    44
1040
1.0
1070
    74
1070
     0
1000
MTEXTEND
  0
MTEXT
  5
DD
330
A
100
AcDbEntity
  8
LAYER_1
 62
     7
100
AcDbMText
 10
98.03225900000001
 20
161.790551
 30
0.0
 40
2.099867999999999
 41
0.0
 71
     1
 72
     2
  1
\fGill Sans|b1|i0;GS1 & GS2 Actuator
  7
STD
 73
     1
 44
1.0
1001
ACAD
1000
MTEXTBEGIN
1070
    73
1070
     1
1070
    44
1040
1.0
1070
    74
1070
     0
1000
MTEXTEND
  0
MTEXT
  5
DC
330
A
100
AcDbEntity
  8
LAYER_1
 62
     7
100
AcDbMText
 10
168.2743679999999
 20
131.255382
 30
0.0
 40
1.837383999999999
 41
0.0
 71
     1
 72
     2
  1
\fGill Sans|b0|i0;127 (5)
  7
STD
 11
0.0
 21
1.0
 31
0.0
 73
     1
 44
1.0
1001
ACAD
1000
MTEXTBEGIN
1070
    73
1070
     1
1070
    44
1040
1.0
1070
    74
1070
     0
1000
MTEXTEND
  0
MTEXT
  5
DB
330
A
100
AcDbEntity
  8
LAYER_1
 62
     7
100
AcDbMText
 10
161.975815
 20
115.114708
 30
0.0
 40
1.837383999999999
 41
0.0
 71
     1
 72
     2
  1
\fGill Sans|b0|i0;(0.79)
  7
STD
 73
     1
 44
1.0
1001
ACAD
1000
MTEXTBEGIN
1070
    73
1070
     1
1070
    44
1040
1.0
1070
    74
1070
     0
1000
MTEXTEND
  0
MTEXT
  5
DA
330
A
100
AcDbEntity
  8
LAYER_1
 62
     7
100
AcDbMText
 10
163.661156
 20
118.113319
 30
0.0
 40
1.837383999999999
 41
0.0
 71
     1
 72
     2
  1
\fGill Sans|b0|i0;20
  7
STD
 73
     1
 44
1.0
1001
ACAD
1000
MTEXTBEGIN
1070
    73
1070
     1
1070
    44
1040
1.0
1070
    74
1070
     0
1000
MTEXTEND
  0
MTEXT
  5
D9
330
A
100
AcDbEntity
  8
LAYER_1
 62
     7
100
AcDbMText
 10
151.754274
 20
124.023437
 30
0.0
 40
1.837383999999999
 41
0.0
 71
     1
 72
     2
  1
\fGill Sans|b0|i0;60 (2.36)
  7
STD
 11
0.0
 21
1.0
 31
0.0
 73
     1
 44
1.0
1001
ACAD
1000
MTEXTBEGIN
1070
    73
1070
     1
1070
    44
1040
1.0
1070
    74
1070
     0
1000
MTEXTEND
  0
MTEXT
  5
D8
330
A
100
AcDbEntity
  8
LAYER_1
 62
     7
100
AcDbMText
 10
139.160211
 20
119.188246
 30
0.0
 40
1.837383999999999
 41
0.0
 71
     1
 72
     2
  1
\fGill Sans|b0|i0;30 (1.18)
  7
STD
 11
0.0
 21
1.0
 31
0.0
 73
     1
 44
1.0
1001
ACAD
1000
MTEXTBEGIN
1070
    73
1070
     1
1070
    44
1040
1.0
1070
    74
1070
     0
1000
MTEXTEND
  0
MTEXT
  5
D7
330
A
100
AcDbEntity
  8
LAYER_1
 62
     7
100
AcDbMText
 10
138.799452
 20
139.687368
 30
0.0
 40
1.837383999999999
 41
0.0
 71
     1
 72
     2
  1
\fGill Sans|b0|i0;(0.67)
  7
STD
 73
     1
 44
1.0
1001
ACAD
1000
MTEXTBEGIN
1070
    73
1070
     1
1070
    44
1040
1.0
1070
    74
1070
     0
1000
MTEXTEND
  0
MTEXT
  5
D6
330
A
100
AcDbEntity
  8
LAYER_1
 62
     7
100
AcDbMText
 10
140.484793
 20
142.156812
 30
0.0
 40
1.837383999999999
 41
0.0
 71
     1
 72
     2
  1
\fGill Sans|b0|i0;17
  7
STD
 73
     1
 44
1.0
1001
ACAD
1000
MTEXTBEGIN
1070
    73
1070
     1
1070
    44
1040
1.0
1070
    74
1070
     0
1000
MTEXTEND
  0
MTEXT
  5
D5
330
A
100
AcDbEntity
  8
LAYER_1
 62
     7
100
AcDbMText
 10
144.945158
 20
115.116258
 30
0.0
 40
1.837383999999999
 41
0.0
 71
     1
 72
     2
  1
\fGill Sans|b0|i0;(0.98)
  7
STD
 73
     1
 44
1.0
1001
ACAD
1000
MTEXTBEGIN
1070
    73
1070
     1
1070
    44
1040
1.0
1070
    74
1070
     0
1000
MTEXTEND
  0
MTEXT
  5
D4
330
A
100
AcDbEntity
  8
LAYER_1
 62
     7
100
AcDbMText
 10
146.630499
 20
118.114869
 30
0.0
 40
1.837383999999999
 41
0.0
 71
     1
 72
     2
  1
\fGill Sans|b0|i0;25
  7
STD
 73
     1
 44
1.0
1001
ACAD
1000
MTEXTBEGIN
1070
    73
1070
     1
1070
    44
1040
1.0
1070
    74
1070
     0
1000
MTEXTEND
  0
LINE
  5
D3
330
A
100
AcDbEntity
  8
LAYER_1
 62
     7
100
AcDbLine
 10
106.877714
 20
138.531424
 30
0.0
 11
106.877714
 21
136.493133
 31
0.0
  0
LINE
  5
D2
330
A
100
AcDbEntity
  8
LAYER_1
 62
     7
100
AcDbLine
 10
105.858655
 20
137.512364
 30
0.0
 11
107.896773
 21
137.512364
 31
0.0
  0
LINE
  5
D1
330
A
100
AcDbEntity
  8
LAYER_1
 62
     7
100
AcDbLine
 10
57.86089499999999
 20
132.910061
 30
0.0
 11
57.86089499999999
 21
130.871771
 31
0.0
  0
LINE
  5
D0
330
A
100
AcDbEntity
  8
LAYER_1
 62
     7
100
AcDbLine
 10
56.841664
 20
131.89083
 30
0.0
 11
58.879955
 21
131.89083
 31
0.0
  0
LINE
  5
CF
330
A
100
AcDbEntity
  8
LAYER_1
 62
     7
100
AcDbLine
 10
147.933089
 20
129.452391
 30
0.0
 11
147.933089
 21
127.414273
 31
0.0
  0
LINE
  5
CE
330
A
100
AcDbEntity
  8
LAYER_1
 62
     7
100
AcDbLine
 10
146.91403
 20
128.433332
 30
0.0
 11
148.952148
 21
128.433332
 31
0.0
  0
LINE
  5
CD
330
A
100
AcDbEntity
  8
LAYER_1
 62
     7
100
AcDbLine
 10
114.821415
 20
127.612538
 30
0.0
 11
114.821415
 21
124.037735
 31
0.0
  0
LINE
  5
CC
330
A
100
AcDbEntity
  8
LAYER_1
 62
     7
100
AcDbLine
 10
118.824961
 20
127.612538
 30
0.0
 11
118.824961
 21
124.037735
 31
0.0
  0
LINE
  5
CB
330
A
100
AcDbEntity
  8
LAYER_1
 62
     7
100
AcDbLine
 10
115.484424
 20
124.656474
 30
0.0
 11
118.064456
 21
124.656474
 31
0.0
  0
LINE
  5
CA
330
A
100
AcDbEntity
  8
LAYER_1
 62
     7
100
AcDbLine
 10
122.398558
 20
146.332498
 30
0.0
 11
122.398558
 21
128.725993
 31
0.0
  0
LINE
  5
C9
330
A
100
AcDbEntity
  8
LAYER_1
 62
     7
100
AcDbLine
 10
119.116243
 20
127.830957
 30
0.0
 11
123.23296
 21
127.830957
 31
0.0
  0
LINE
  5
C8
330
A
100
AcDbEntity
  8
LAYER_1
 62
     7
100
AcDbLine
 10
118.970688
 20
147.120908
 30
0.0
 11
123.087405
 21
147.120908
 31
0.0
  0
LINE
  5
C7
330
A
100
AcDbEntity
  8
LAYER_1
 62
     7
100
AcDbLine
 10
103.966092
 20
127.466983
 30
0.0
 11
103.966092
 21
123.892179
 31
0.0
  0
LINE
  5
C6
330
A
100
AcDbEntity
  8
LAYER_1
 62
     7
100
AcDbLine
 10
109.643781
 20
127.466983
 30
0.0
 11
109.643781
 21
123.892179
 31
0.0
  0
LINE
  5
C5
330
A
100
AcDbEntity
  8
LAYER_1
 62
     7
100
AcDbLine
 10
104.581041
 20
124.510746
 30
0.0
 11
109.243461
 21
124.510746
 31
0.0
  0
LINE
  5
C4
330
A
100
AcDbEntity
  8
LAYER_1
 62
     7
100
AcDbLine
 10
99.59839999999999
 20
144.937062
 30
0.0
 11
108.479167
 21
144.937062
 31
0.0
  0
LINE
  5
C3
330
A
100
AcDbEntity
  8
LAYER_1
 62
     7
100
AcDbLine
 10
99.74412700000002
 20
129.796384
 30
0.0
 11
108.624722
 21
129.796384
 31
0.0
  0
LINE
  5
C2
330
A
100
AcDbEntity
  8
LAYER_1
 62
     7
100
AcDbLine
 10
101.090643
 20
144.202051
 30
0.0
 11
101.090643
 21
130.66472
 31
0.0
  0
INSERT
  5
B4
330
A
100
AcDbEntity
  8
LAYER_1
 62
     7
100
AcDbBlockReference
  2
AI9-BLK1
 10
111.573896
 20
132.56848
 30
0.0
  0
LINE
  5
B2
330
A
100
AcDbEntity
  8
LAYER_1
 62
     7
100
AcDbLine
 10
105.49468
 20
137.512364
 30
0.0
 11
113.614943
 21
137.512364
 31
0.0
  0
LINE
  5
B1
330
A
100
AcDbEntity
  8
LAYER_1
 62
     7
100
AcDbLine
 10
109.8622
 20
127.830957
 30
0.0
 11
113.466804
 21
127.830957
 31
0.0
  0
LINE
  5
B0
330
A
100
AcDbEntity
  8
LAYER_1
 62
     7
100
AcDbLine
 10
99.38015300000001
 20
127.830957
 30
0.0
 11
103.674809
 21
127.830957
 31
0.0
  0
LINE
  5
AF
330
A
100
AcDbEntity
  8
LAYER_1
 62
     7
100
AcDbLine
 10
101.163506
 20
127.408072
 30
0.0
 11
101.163506
 21
124.082176
 31
0.0
  0
LINE
  5
AE
330
A
100
AcDbEntity
  8
LAYER_1
 62
     7
100
AcDbLine
 10
76.482842
 20
151.835866
 30
0.0
 11
80.599731
 21
151.835866
 31
0.0
  0
LINE
  5
AD
330
A
100
AcDbEntity
  8
LAYER_1
 62
     7
100
AcDbLine
 10
76.482842
 20
146.886125
 30
0.0
 11
80.599731
 21
146.886125
 31
0.0
  0
LINE
  5
AC
330
A
100
AcDbEntity
  8
LAYER_1
 62
     7
100
AcDbLine
 10
76.337459
 20
118.351605
 30
0.0
 11
80.454176
 21
118.351605
 31
0.0
  0
LINE
  5
AB
330
A
100
AcDbEntity
  8
LAYER_1
 62
     7
100
AcDbLine
 10
79.617018
 20
146.631188
 30
0.0
 11
79.617018
 21
118.606369
 31
0.0
  0
LINE
  5
AA
330
A
100
AcDbEntity
  8
LAYER_1
 62
     7
100
AcDbLine
 10
79.617018
 20
151.581101
 30
0.0
 11
79.617018
 21
147.765141
 31
0.0
  0
LINE
  5
A9
330
A
100
AcDbEntity
  8
LAYER_1
 62
     7
100
AcDbLine
 10
71.533101
 20
118.206049
 30
0.0
 11
71.533101
 21
114.631074
 31
0.0
  0
LINE
  5
A8
330
A
100
AcDbEntity
  8
LAYER_1
 62
     7
100
AcDbLine
 10
76.046176
 20
118.206049
 30
0.0
 11
76.046176
 21
114.631074
 31
0.0
  0
LINE
  5
A7
330
A
100
AcDbEntity
  8
LAYER_1
 62
     7
100
AcDbLine
 10
72.48429200000001
 20
115.249813
 30
0.0
 11
75.141667
 21
115.249813
 31
0.0
  0
LINE
  5
A6
330
A
100
AcDbEntity
  8
LAYER_1
 62
     7
100
AcDbLine
 10
58.152006
 20
120.389723
 30
0.0
 11
64.871665
 21
120.389723
 31
0.0
  0
LINE
  5
A5
330
A
100
AcDbEntity
  8
LAYER_1
 62
     7
100
AcDbLine
 10
55.67704899999999
 20
135.530573
 30
0.0
 11
65.45405799999999
 21
135.530573
 31
0.0
  0
LINE
  5
A4
330
A
100
AcDbEntity
  8
LAYER_1
 62
     7
100
AcDbLine
 10
51.30953
 20
131.89083
 30
0.0
 11
56.13800300000001
 21
131.89083
 31
0.0
  0
LINE
  5
A3
330
A
100
AcDbEntity
  8
LAYER_1
 62
     7
100
AcDbLine
 10
51.163974
 20
118.351605
 30
0.0
 11
54.512435
 21
118.351605
 31
0.0
  0
LINE
  5
A2
330
A
100
AcDbEntity
  8
LAYER_1
 62
     7
100
AcDbLine
 10
56.550553
 20
140.043648
 30
0.0
 11
56.550553
 21
133.965466
 31
0.0
  0
LINE
  5
A1
330
A
100
AcDbEntity
  8
LAYER_1
 62
     7
100
AcDbLine
 10
59.316621
 20
140.040548
 30
0.0
 11
59.316621
 21
118.89748
 31
0.0
  0
LINE
  5
A0
330
A
100
AcDbEntity
  8
LAYER_1
 62
     7
100
AcDbLine
 10
58.297561
 20
156.41612
 30
0.0
 11
58.297561
 21
143.246554
 31
0.0
  0
LINE
  5
9F
330
A
100
AcDbEntity
  8
LAYER_1
 62
     7
100
AcDbLine
 10
51.962031
 20
131.599719
 30
0.0
 11
51.962031
 21
118.642715
 31
0.0
  0
LINE
  5
9E
330
A
100
AcDbEntity
  8
LAYER_1
 62
     7
100
AcDbLine
 10
64.325789
 20
135.3485
 30
0.0
 11
64.325789
 21
120.644488
 31
0.0
  0
LINE
  5
9D
330
A
100
AcDbEntity
  8
LAYER_1
 62
     7
100
AcDbLine
 10
61.063628
 20
118.424296
 30
0.0
 11
65.017392
 21
118.424296
 31
0.0
  0
LINE
  5
9C
330
A
100
AcDbEntity
  8
LAYER_1
 62
     7
100
AcDbLine
 10
64.325789
 20
118.169531
 30
0.0
 11
64.325789
 21
114.736494
 31
0.0
  0
LINE
  5
9B
330
A
100
AcDbEntity
  8
LAYER_1
 62
     7
100
AcDbLine
 10
57.551698
 20
144.120058
 30
0.0
 11
55.344598
 21
144.120058
 31
0.0
  0
LINE
  5
9A
330
A
100
AcDbEntity
  8
LAYER_1
 62
     7
100
AcDbLine
 10
54.696231
 20
144.120058
 30
0.0
 11
52.328589
 21
144.120058
 31
0.0
  0
LINE
  5
99
330
A
100
AcDbEntity
  8
LAYER_1
 62
     7
100
AcDbLine
 10
59.571385
 20
138.29664
 30
0.0
 11
61.908538
 21
138.29664
 31
0.0
  0
LINE
  5
98
330
A
100
AcDbEntity
  8
LAYER_1
 62
     7
100
AcDbLine
 10
51.964615
 20
138.29664
 30
0.0
 11
56.222925
 21
138.29664
 31
0.0
  0
LINE
  5
97
330
A
100
AcDbEntity
  8
LAYER_1
 62
     7
100
AcDbLine
 10
54.65799
 20
118.278741
 30
0.0
 11
54.65799
 21
114.703937
 31
0.0
  0
LINE
  5
96
330
A
100
AcDbEntity
  8
LAYER_1
 62
     7
100
AcDbLine
 10
60.990937
 20
118.278741
 30
0.0
 11
60.990937
 21
114.703937
 31
0.0
  0
LINE
  5
95
330
A
100
AcDbEntity
  8
LAYER_1
 62
     7
100
AcDbLine
 10
54.912755
 20
115.322677
 30
0.0
 11
60.590617
 21
115.322677
 31
0.0
  0
LINE
  5
94
330
A
100
AcDbEntity
  8
LAYER_1
 62
     7
100
AcDbLine
 10
167.805261
 20
150.926016
 30
0.0
 11
171.665835
 21
150.926016
 31
0.0
  0
LINE
  5
93
330
A
100
AcDbEntity
  8
LAYER_1
 62
     7
100
AcDbLine
 10
167.877953
 20
118.533506
 30
0.0
 11
171.738699
 21
118.533506
 31
0.0
  0
LINE
  5
92
330
A
100
AcDbEntity
  8
LAYER_1
 62
     7
100
AcDbLine
 10
170.942021
 20
150.598387
 30
0.0
 11
170.942021
 21
118.861134
 31
0.0
  0
LINE
  5
91
330
A
100
AcDbEntity
  8
LAYER_1
 62
     7
100
AcDbLine
 10
161.981844
 20
118.38795
 30
0.0
 11
161.981844
 21
115.06929
 31
0.0
  0
LINE
  5
90
330
A
100
AcDbEntity
  8
LAYER_1
 62
     7
100
AcDbLine
 10
167.659706
 20
118.38795
 30
0.0
 11
167.659706
 21
115.06929
 31
0.0
  0
LINE
  5
8F
330
A
100
AcDbEntity
  8
LAYER_1
 62
     7
100
AcDbLine
 10
163.469092
 20
115.688029
 30
0.0
 11
168.27345
 21
115.688029
 31
0.0
  0
LINE
  5
8E
330
A
100
AcDbEntity
  8
LAYER_1
 62
     7
100
AcDbLine
 10
148.297064
 20
121.008462
 30
0.0
 11
154.760752
 21
121.008462
 31
0.0
  0
LINE
  5
8D
330
A
100
AcDbEntity
  8
LAYER_1
 62
     7
100
AcDbLine
 10
144.157437
 20
137.095508
 30
0.0
 11
155.342973
 21
137.095508
 31
0.0
  0
LINE
  5
8C
330
A
100
AcDbEntity
  8
LAYER_1
 62
     7
100
AcDbLine
 10
141.454587
 20
128.433332
 30
0.0
 11
148.588174
 21
128.433332
 31
0.0
  0
LINE
  5
8B
330
A
100
AcDbEntity
  8
LAYER_1
 62
     7
100
AcDbLine
 10
141.309032
 20
118.533506
 30
0.0
 11
144.657492
 21
118.533506
 31
0.0
  0
LINE
  5
8A
330
A
100
AcDbEntity
  8
LAYER_1
 62
     7
100
AcDbLine
 10
146.040526
 20
141.899866
 30
0.0
 11
146.040526
 21
135.821684
 31
0.0
  0
LINE
  5
89
330
A
100
AcDbEntity
  8
LAYER_1
 62
     7
100
AcDbLine
 10
149.898516
 20
141.608583
 30
0.0
 11
149.898516
 21
119.734638
 31
0.0
  0
LINE
  5
88
330
A
100
AcDbEntity
  8
LAYER_1
 62
     7
100
AcDbLine
 10
141.978931
 20
127.475079
 30
0.0
 11
141.978931
 21
119.598385
 31
0.0
  0
LINE
  5
87
330
A
100
AcDbEntity
  8
LAYER_1
 62
     7
100
AcDbLine
 10
154.214704
 20
136.166538
 30
0.0
 11
154.214704
 21
122.19702
 31
0.0
  0
LINE
  5
86
330
A
100
AcDbEntity
  8
LAYER_1
 62
     7
100
AcDbLine
 10
151.208686
 20
118.606369
 30
0.0
 11
154.906307
 21
118.606369
 31
0.0
  0
LINE
  5
85
330
A
100
AcDbEntity
  8
LAYER_1
 62
     7
100
AcDbLine
 10
154.214704
 20
118.135425
 30
0.0
 11
154.214704
 21
115.801545
 31
0.0
  0
LINE
  5
84
330
A
100
AcDbEntity
  8
LAYER_1
 62
     7
100
AcDbLine
 10
150.417348
 20
140.152858
 30
0.0
 11
152.810139
 21
140.152858
 31
0.0
  0
LINE
  5
83
330
A
100
AcDbEntity
  8
LAYER_1
 62
     7
100
AcDbLine
 10
142.764929
 20
140.152858
 30
0.0
 11
145.712897
 21
140.152858
 31
0.0
  0
LINE
  5
82
330
A
100
AcDbEntity
  8
LAYER_1
 62
     7
100
AcDbLine
 10
144.657492
 20
118.460814
 30
0.0
 11
144.657492
 21
115.06929
 31
0.0
  0
LINE
  5
81
330
A
100
AcDbEntity
  8
LAYER_1
 62
     7
100
AcDbLine
 10
151.28155
 20
118.38795
 30
0.0
 11
151.28155
 21
115.06929
 31
0.0
  0
LINE
  5
80
330
A
100
AcDbEntity
  8
LAYER_1
 62
     7
100
AcDbLine
 10
145.247637
 20
115.76072
 30
0.0
 11
150.6635
 21
115.76072
 31
0.0
  0
SPLINE
  5
7F
330
A
100
AcDbEntity
  8
LAYER_1
 62
     7
100
AcDbSpline
210
0.0
220
0.0
230
1.0
 70
     8
 71
     3
 72
    11
 73
     7
 74
     0
 42
0.0000000001
 43
0.0000000001
 40
0.0
 40
0.0
 40
0.0
 40
0.0
 40
1.0
 40
1.0
 40
1.0
 40
2.0
 40
2.0
 40
2.0
 40
2.0
 10
56.00467800564235
 20
149.6521918402777
 30
0.0
 10
56.00467800564235
 20
149.6521918402777
 30
0.0
 10
56.44134385850694
 20
150.3072767469618
 30
0.0
 10
57.16929253472223
 20
149.6885375976562
 30
0.0
 10
57.16929253472223
 20
149.6885375976562
 30
0.0
 10
57.16929253472223
 20
147.0316799587673
 30
0.0
 10
57.16929253472223
 20
147.0316799587673
 30
0.0
  0
SPLINE
  5
7E
330
A
100
AcDbEntity
  8
LAYER_1
 62
     7
100
AcDbSpline
210
0.0
220
0.0
230
1.0
 70
     8
 71
     3
 72
    11
 73
     7
 74
     0
 42
0.0000000001
 43
0.0000000001
 40
0.0
 40
0.0
 40
0.0
 40
0.0
 40
1.0
 40
1.0
 40
1.0
 40
2.0
 40
2.0
 40
2.0
 40
2.0
 10
57.20563829210068
 20
149.6521918402777
 30
0.0
 10
57.20563829210068
 20
149.6521918402777
 30
0.0
 10
58.37025282118054
 20
150.380140516493
 30
0.0
 10
59.425830078125
 20
149.5793280707465
 30
0.0
 10
59.425830078125
 20
149.5793280707465
 30
0.0
 10
59.425830078125
 20
147.0316799587673
 30
0.0
 10
59.425830078125
 20
147.0316799587673
 30
0.0
  0
SPLINE
  5
7D
330
A
100
AcDbEntity
  8
LAYER_1
 62
     7
100
AcDbSpline
210
0.0
220
0.0
230
1.0
 70
     8
 71
     3
 72
     8
 73
     4
 74
     0
 42
0.0000000001
 43
0.0000000001
 40
0.0
 40
0.0
 40
0.0
 40
0.0
 40
1.0
 40
1.0
 40
1.0
 40
1.0
 10
59.46217583550346
 20
149.6158460828993
 30
0.0
 10
59.46217583550346
 20
149.6158460828993
 30
0.0
 10
60.11743299696179
 20
150.380140516493
 30
0.0
 10
60.62679036458333
 20
149.5793280707465
 30
0.0
  0
SPLINE
  5
7C
330
A
100
AcDbEntity
  8
LAYER_1
 62
     7
100
AcDbSpline
210
0.0
220
0.0
230
1.0
 70
     8
 71
     3
 72
    14
 73
    10
 74
     0
 42
0.0000000001
 43
0.0000000001
 40
0.0
 40
0.0
 40
0.0
 40
0.0
 40
1.0
 40
1.0
 40
1.0
 40
2.0
 40
2.0
 40
2.0
 40
3.0
 40
3.0
 40
3.0
 40
3.0
 10
57.13294677734374
 20
150.9988796657986
 30
0.0
 10
57.13294677734374
 20
150.9988796657986
 30
0.0
 10
57.13294677734374
 20
151.4355455186632
 30
0.0
 10
57.13294677734374
 20
151.4355455186632
 30
0.0
 10
56.40499810112847
 20
152.0542846679687
 30
0.0
 10
55.96815999348958
 20
151.3991997612847
 30
0.0
 10
55.96815999348958
 20
151.3991997612847
 30
0.0
 10
55.96815999348958
 20
151.3991997612847
 30
0.0
 10
55.96815999348958
 20
151.0352254231771
 30
0.0
 10
55.96815999348958
 20
151.0352254231771
 30
0.0
  0
SPLINE
  5
7B
330
A
100
AcDbEntity
  8
LAYER_1
 62
     7
100
AcDbSpline
210
0.0
220
0.0
230
1.0
 70
     8
 71
     3
 72
    11
 73
     7
 74
     0
 42
0.0000000001
 43
0.0000000001
 40
0.0
 40
0.0
 40
0.0
 40
0.0
 40
1.0
 40
1.0
 40
1.0
 40
2.0
 40
2.0
 40
2.0
 40
2.0
 10
57.16929253472223
 20
151.3991997612847
 30
0.0
 10
57.16929253472223
 20
151.3991997612847
 30
0.0
 10
58.33407931857639
 20
152.1271484374999
 30
0.0
 10
59.38931206597222
 20
151.3263359917534
 30
0.0
 10
59.38931206597222
 20
151.3263359917534
 30
0.0
 10
59.38931206597222
 20
150.9988796657986
 30
0.0
 10
59.38931206597222
 20
150.9988796657986
 30
0.0
  0
SPLINE
  5
7A
330
A
100
AcDbEntity
  8
LAYER_1
 62
     7
100
AcDbSpline
210
0.0
220
0.0
230
1.0
 70
     8
 71
     3
 72
    11
 73
     7
 74
     0
 42
0.0000000001
 43
0.0000000001
 40
0.0
 40
0.0
 40
0.0
 40
0.0
 40
1.0
 40
1.0
 40
1.0
 40
2.0
 40
2.0
 40
2.0
 40
2.0
 10
59.425830078125
 20
151.3628540039062
 30
0.0
 10
59.425830078125
 20
151.3628540039062
 30
0.0
 10
60.11743299696179
 20
152.1271484374999
 30
0.0
 10
60.62679036458333
 20
151.3263359917534
 30
0.0
 10
60.62679036458333
 20
151.3263359917534
 30
0.0
 10
60.62679036458333
 20
150.9260158962674
 30
0.0
 10
60.62679036458333
 20
150.9260158962674
 30
0.0
  0
SPLINE
  5
79
330
A
100
AcDbEntity
  8
LAYER_1
 62
     7
100
AcDbSpline
210
0.0
220
0.0
230
1.0
 70
     8
 71
     3
 72
     8
 73
     4
 74
     0
 42
0.0000000001
 43
0.0000000001
 40
0.0
 40
0.0
 40
0.0
 40
0.0
 40
1.0
 40
1.0
 40
1.0
 40
1.0
 10
57.11468777126736
 20
150.9806206597222
 30
0.0
 10
57.11468777126736
 20
150.9806206597222
 30
0.0
 10
56.38484429253472
 20
150.3725613064236
 30
0.0
 10
55.96815999348958
 20
151.0352254231771
 30
0.0
  0
SPLINE
  5
78
330
A
100
AcDbEntity
  8
LAYER_1
 62
     7
100
AcDbSpline
210
0.0
220
0.0
230
1.0
 70
     8
 71
     3
 72
     8
 73
     4
 74
     0
 42
0.0000000001
 43
0.0000000001
 40
0.0
 40
0.0
 40
0.0
 40
0.0
 40
1.0
 40
1.0
 40
1.0
 40
1.0
 10
60.62679036458333
 20
150.9260158962674
 30
0.0
 10
60.62679036458333
 20
150.9260158962674
 30
0.0
 10
60.15377875434028
 20
150.4164862738715
 30
0.0
 10
59.4075710720486
 20
150.9623616536458
 30
0.0
  0
SPLINE
  5
77
330
A
100
AcDbEntity
  8
LAYER_1
 62
     7
100
AcDbSpline
210
0.0
220
0.0
230
1.0
 70
     8
 71
     3
 72
     8
 73
     4
 74
     0
 42
0.0000000001
 43
0.0000000001
 40
0.0
 40
0.0
 40
0.0
 40
0.0
 40
1.0
 40
1.0
 40
1.0
 40
1.0
 10
59.35296630859374
 20
150.9623616536458
 30
0.0
 10
59.35296630859374
 20
150.9623616536458
 30
0.0
 10
58.09740125868054
 20
150.380140516493
 30
0.0
 10
57.13294677734374
 20
150.9988796657986
 30
0.0
  0
LINE
  5
76
330
A
100
AcDbEntity
  8
LAYER_1
 62
     7
100
AcDbLine
 10
56.477862
 20
150.707597
 30
0.0
 11
60.080915
 21
150.68951
 31
0.0
  0
LINE
  5
75
330
A
100
AcDbEntity
  8
LAYER_1
 62
     7
100
AcDbLine
 10
56.459603
 20
151.708569
 30
0.0
 11
60.06282800000001
 21
151.69031
 31
0.0
  0
SPLINE
  5
74
330
A
100
AcDbEntity
  8
LAYER_1
 62
     7
100
AcDbSpline
210
0.0
220
0.0
230
1.0
 70
     9
 71
     3
 72
    92
 73
    88
 74
     0
 42
0.0000000001
 43
0.0000000001
 40
0.0
 40
0.0
 40
0.0
 40
0.0
 40
1.0
 40
1.0
 40
1.0
 40
2.0
 40
2.0
 40
2.0
 40
3.0
 40
3.0
 40
3.0
 40
4.0
 40
4.0
 40
4.0
 40
5.0
 40
5.0
 40
5.0
 40
6.0
 40
6.0
 40
6.0
 40
7.0
 40
7.0
 40
7.0
 40
8.0
 40
8.0
 40
8.0
 40
9.0
 40
9.0
 40
9.0
 40
10.0
 40
10.0
 40
10.0
 40
11.0
 40
11.0
 40
11.0
 40
12.0
 40
12.0
 40
12.0
 40
13.0
 40
13.0
 40
13.0
 40
14.0
 40
14.0
 40
14.0
 40
15.0
 40
15.0
 40
15.0
 40
16.0
 40
16.0
 40
16.0
 40
17.0
 40
17.0
 40
17.0
 40
18.0
 40
18.0
 40
18.0
 40
19.0
 40
19.0
 40
19.0
 40
20.0
 40
20.0
 40
20.0
 40
21.0
 40
21.0
 40
21.0
 40
22.0
 40
22.0
 40
22.0
 40
23.0
 40
23.0
 40
23.0
 40
24.0
 40
24.0
 40
24.0
 40
25.0
 40
25.0
 40
25.0
 40
26.0
 40
26.0
 40
26.0
 40
27.0
 40
27.0
 40
27.0
 40
28.0
 40
28.0
 40
28.0
 40
29.0
 40
29.0
 40
29.0
 40
29.0
 10
57.16929253472223
 20
151.6903103298611
 30
0.0
 10
57.16929253472223
 20
151.6903103298611
 30
0.0
 10
57.16929253472223
 20
155.0694322374131
 30
0.0
 10
57.16929253472223
 20
155.0694322374131
 30
0.0
 10
57.16929253472223
 20
155.0694322374131
 30
0.0
 10
57.16929253472223
 20
155.3970608181423
 30
0.0
 10
57.71534016927083
 20
155.3970608181423
 30
0.0
 10
58.26121554904513
 20
155.3970608181423
 30
0.0
 10
58.26121554904513
 20
155.1786417643228
 30
0.0
 10
58.26121554904513
 20
155.1786417643228
 30
0.0
 10
58.26121554904513
 20
155.1786417643228
 30
0.0
 10
58.4431165907118
 20
155.3970608181423
 30
0.0
 10
58.84360894097222
 20
155.3970608181423
 30
0.0
 10
59.53503960503472
 20
155.3970608181423
 30
0.0
 10
59.46217583550346
 20
155.0694322374131
 30
0.0
 10
59.46217583550346
 20
155.0694322374131
 30
0.0
 10
59.46217583550346
 20
155.0694322374131
 30
0.0
 10
59.46217583550346
 20
151.6903103298611
 30
0.0
 10
59.46217583550346
 20
151.6903103298611
 30
0.0
 10
59.46217583550346
 20
151.6903103298611
 30
0.0
 10
60.00822347005208
 20
151.7266560872396
 30
0.0
 10
60.00822347005208
 20
151.7266560872396
 30
0.0
 10
60.00822347005208
 20
151.7266560872396
 30
0.0
 10
60.55409884982638
 20
151.5447550455729
 30
0.0
 10
60.62679036458333
 20
151.3628540039062
 30
0.0
 10
60.62679036458333
 20
151.3628540039062
 30
0.0
 10
60.62679036458333
 20
150.8533243815104
 30
0.0
 10
60.62679036458333
 20
150.8533243815104
 30
0.0
 10
60.62679036458333
 20
150.8533243815104
 30
0.0
 10
60.37202555338541
 20
150.7075968424479
 30
0.0
 10
60.11743299696179
 20
150.7075968424479
 30
0.0
 10
60.11743299696179
 20
150.7075968424479
 30
0.0
 10
59.89901394314236
 20
150.6712510850694
 30
0.0
 10
59.89901394314236
 20
150.6712510850694
 30
0.0
 10
59.89901394314236
 20
150.6712510850694
 30
0.0
 10
59.89901394314236
 20
149.9798204210069
 30
0.0
 10
59.89901394314236
 20
149.9798204210069
 30
0.0
 10
59.89901394314236
 20
149.9798204210069
 30
0.0
 10
60.08091498480903
 20
149.9433024088541
 30
0.0
 10
60.08091498480903
 20
149.9433024088541
 30
0.0
 10
60.08091498480903
 20
149.9433024088541
 30
0.0
 10
60.62679036458333
 20
149.7977471245659
 30
0.0
 10
60.62679036458333
 20
149.6158460828993
 30
0.0
 10
60.62679036458333
 20
149.4337727864583
 30
0.0
 10
60.62679036458333
 20
147.0316799587673
 30
0.0
 10
60.62679036458333
 20
147.0316799587673
 30
0.0
 10
60.62679036458333
 20
147.0316799587673
 30
0.0
 10
60.91807318793403
 20
147.0316799587673
 30
0.0
 10
60.91807318793403
 20
147.0316799587673
 30
0.0
 10
60.91807318793403
 20
147.0316799587673
 30
0.0
 10
60.91807318793403
 20
118.4971598307291
 30
0.0
 10
60.91807318793403
 20
118.4971598307291
 30
0.0
 10
60.91807318793403
 20
118.4971598307291
 30
0.0
 10
54.80354546440972
 20
118.4971598307291
 30
0.0
 10
54.80354546440972
 20
118.4971598307291
 30
0.0
 10
54.80354546440972
 20
118.4971598307291
 30
0.0
 10
54.80354546440972
 20
147.0316799587673
 30
0.0
 10
54.80354546440972
 20
147.0316799587673
 30
0.0
 10
54.80354546440972
 20
147.0316799587673
 30
0.0
 10
55.93181423611111
 20
147.0316799587673
 30
0.0
 10
55.93181423611111
 20
147.0316799587673
 30
0.0
 10
55.93181423611111
 20
147.0316799587673
 30
0.0
 10
55.93181423611111
 20
149.6521918402777
 30
0.0
 10
55.93181423611111
 20
149.6521918402777
 30
0.0
 10
55.93181423611111
 20
149.6521918402777
 30
0.0
 10
56.18657904730902
 20
149.9433024088541
 30
0.0
 10
56.44134385850694
 20
149.9433024088541
 30
0.0
 10
56.44134385850694
 20
149.9433024088541
 30
0.0
 10
56.65976291232639
 20
149.9433024088541
 30
0.0
 10
56.65976291232639
 20
149.9433024088541
 30
0.0
 10
56.65976291232639
 20
149.9433024088541
 30
0.0
 10
56.65976291232639
 20
150.6712510850694
 30
0.0
 10
56.65976291232639
 20
150.6712510850694
 30
0.0
 10
56.65976291232639
 20
150.6712510850694
 30
0.0
 10
56.40499810112847
 20
150.7075968424479
 30
0.0
 10
56.40499810112847
 20
150.7075968424479
 30
0.0
 10
56.40499810112847
 20
150.7075968424479
 30
0.0
 10
56.07736952039929
 20
150.8168063693576
 30
0.0
 10
55.96815999348958
 20
150.9988796657986
 30
0.0
 10
55.96815999348958
 20
150.9988796657986
 30
0.0
 10
55.96815999348958
 20
151.4355455186632
 30
0.0
 10
55.96815999348958
 20
151.4355455186632
 30
0.0
 10
55.96815999348958
 20
151.4355455186632
 30
0.0
 10
56.15023328993054
 20
151.6903103298611
 30
0.0
 10
56.44134385850694
 20
151.6903103298611
 30
0.0
 10
56.73262668185763
 20
151.6903103298611
 30
0.0
 10
57.16929253472223
 20
151.6903103298611
 30
0.0
 10
57.16929253472223
 20
151.6903103298611
 30
0.0
  0
LINE
  5
73
330
A
100
AcDbEntity
  8
LAYER_1
 62
     7
100
AcDbLine
 10
55.96816
 20
147.03168
 30
0.0
 11
60.699654
 21
147.03168
 31
0.0
  0
LINE
  5
72
330
A
100
AcDbEntity
  8
LAYER_1
 62
     7
100
AcDbLine
 10
56.550553
 20
149.97982
 30
0.0
 11
60.044569
 21
149.97982
 31
0.0
  0
SPLINE
  5
71
330
A
100
AcDbEntity
  8
LAYER_1
 62
     7
100
AcDbSpline
210
0.0
220
0.0
230
1.0
 70
     8
 71
     3
 72
     8
 73
     4
 74
     0
 42
0.0000000001
 43
0.0000000001
 40
0.0
 40
0.0
 40
0.0
 40
0.0
 40
1.0
 40
1.0
 40
1.0
 40
1.0
 10
58.26121554904513
 20
155.2149875217013
 30
0.0
 10
58.26121554904513
 20
155.2149875217013
 30
0.0
 10
59.425830078125
 20
154.2687920464409
 30
0.0
 10
59.425830078125
 20
155.0694322374131
 30
0.0
  0
CIRCLE
  5
70
330
A
100
AcDbEntity
  8
LAYER_1
 62
     7
100
AcDbCircle
 10
59.316621
 20
120.389723
 30
0.0
 40
0.9265579999999999
  0
CIRCLE
  5
6F
330
A
100
AcDbEntity
  8
LAYER_1
 62
     7
100
AcDbCircle
 10
56.550553
 20
135.530487
 30
0.0
 40
0.926472
  0
CIRCLE
  5
6E
330
A
100
AcDbEntity
  8
LAYER_1
 62
     7
100
AcDbCircle
 10
57.86089499999999
 20
131.890916
 30
0.0
 40
0.926472
  0
LINE
  5
6D
330
A
100
AcDbEntity
  8
LAYER_1
 62
     7
100
AcDbLine
 10
71.696916
 20
146.9588159999999
 30
0.0
 11
76.08252199999999
 21
146.9588159999999
 31
0.0
  0
LINE
  5
6C
330
A
100
AcDbEntity
  8
LAYER_1
 62
     7
100
AcDbLine
 10
72.115495
 20
149.97982
 30
0.0
 11
75.609511
 21
149.97982
 31
0.0
  0
SPLINE
  5
6B
330
A
100
AcDbEntity
  8
LAYER_1
 62
     7
100
AcDbSpline
210
0.0
220
0.0
230
1.0
 70
     8
 71
     3
 72
     8
 73
     4
 74
     0
 42
0.0000000001
 43
0.0000000001
 40
0.0
 40
0.0
 40
0.0
 40
0.0
 40
1.0
 40
1.0
 40
1.0
 40
1.0
 10
73.8259847005208
 20
155.2149875217013
 30
0.0
 10
73.8259847005208
 20
155.2149875217013
 30
0.0
 10
74.99077148437497
 20
154.2687920464409
 30
0.0
 10
74.99077148437497
 20
155.0694322374131
 30
0.0
  0
POLYLINE
  5
65
330
A
100
AcDbEntity
  8
LAYER_1
 62
     7
100
AcDb2dPolyline
 66
     1
 10
0.0
 20
0.0
 30
0.0
 70
     1
  0
VERTEX
  5
66
330
65
100
AcDbEntity
  8
LAYER_1
 62
     7
100
AcDbVertex
100
AcDb2dVertex
 10
76.08252199999999
 20
150.671251
 30
0.0
  0
VERTEX
  5
67
330
65
100
AcDbEntity
  8
LAYER_1
 62
     7
100
AcDbVertex
100
AcDb2dVertex
 10
76.08252199999999
 20
151.69031
 30
0.0
  0
VERTEX
  5
68
330
65
100
AcDbEntity
  8
LAYER_1
 62
     7
100
AcDbVertex
100
AcDb2dVertex
 10
71.678657
 20
151.69031
 30
0.0
  0
VERTEX
  5
69
330
65
100
AcDbEntity
  8
LAYER_1
 62
     7
100
AcDbVertex
100
AcDb2dVertex
 10
71.678657
 20
150.671251
 30
0.0
  0
SEQEND
  5
6A
330
65
100
AcDbEntity
  8
LAYER_1
 62
     7
  0
POLYLINE
  5
5F
330
A
100
AcDbEntity
  8
LAYER_1
 62
     7
100
AcDb2dPolyline
 66
     1
 10
0.0
 20
0.0
 30
0.0
 70
     1
  0
VERTEX
  5
60
330
5F
100
AcDbEntity
  8
LAYER_1
 62
     7
100
AcDbVertex
100
AcDb2dVertex
 10
76.08252199999999
 20
146.9588159999999
 30
0.0
  0
VERTEX
  5
61
330
5F
100
AcDbEntity
  8
LAYER_1
 62
     7
100
AcDbVertex
100
AcDb2dVertex
 10
76.08252199999999
 20
150.016166
 30
0.0
  0
VERTEX
  5
62
330
5F
100
AcDbEntity
  8
LAYER_1
 62
     7
100
AcDbVertex
100
AcDb2dVertex
 10
71.678657
 20
150.016166
 30
0.0
  0
VERTEX
  5
63
330
5F
100
AcDbEntity
  8
LAYER_1
 62
     7
100
AcDbVertex
100
AcDb2dVertex
 10
71.678657
 20
146.9588159999999
 30
0.0
  0
SEQEND
  5
64
330
5F
100
AcDbEntity
  8
LAYER_1
 62
     7
  0
LINE
  5
5E
330
A
100
AcDbEntity
  8
LAYER_1
 62
     7
100
AcDbLine
 10
73.862503
 20
146.9588159999999
 30
0.0
 11
73.862503
 21
149.597587
 31
0.0
  0
SPLINE
  5
5D
330
A
100
AcDbEntity
  8
LAYER_1
 62
     7
100
AcDbSpline
210
0.0
220
0.0
230
1.0
 70
     8
 71
     3
 72
    17
 73
    13
 74
     0
 42
0.0000000001
 43
0.0000000001
 40
0.0
 40
0.0
 40
0.0
 40
0.0
 40
1.0
 40
1.0
 40
1.0
 40
2.0
 40
2.0
 40
2.0
 40
3.0
 40
3.0
 40
3.0
 40
4.0
 40
4.0
 40
4.0
 40
4.0
 10
71.67865668402777
 20
151.4538045247395
 30
0.0
 10
71.67865668402777
 20
151.4538045247395
 30
0.0
 10
72.02437201605902
 20
151.6903103298611
 30
0.0
 10
72.86153021918403
 20
151.6903103298611
 30
0.0
 10
73.69868842230902
 20
151.6903103298611
 30
0.0
 10
73.88058946397568
 20
151.490150282118
 30
0.0
 10
73.88058946397568
 20
151.490150282118
 30
0.0
 10
73.88058946397568
 20
151.490150282118
 30
0.0
 10
74.2810818142361
 20
151.6903103298611
 30
0.0
 10
74.91790771484375
 20
151.6903103298611
 30
0.0
 10
75.55490587022568
 20
151.6903103298611
 30
0.0
 10
76.08252224392359
 20
151.4538045247395
 30
0.0
 10
76.08252224392359
 20
151.4538045247395
 30
0.0
  0
SPLINE
  5
5C
330
A
100
AcDbEntity
  8
LAYER_1
 62
     7
100
AcDbSpline
210
0.0
220
0.0
230
1.0
 70
     8
 71
     3
 72
    17
 73
    13
 74
     0
 42
0.0000000001
 43
0.0000000001
 40
0.0
 40
0.0
 40
0.0
 40
0.0
 40
1.0
 40
1.0
 40
1.0
 40
2.0
 40
2.0
 40
2.0
 40
3.0
 40
3.0
 40
3.0
 40
4.0
 40
4.0
 40
4.0
 40
4.0
 10
76.08252224392359
 20
150.9260158962674
 30
0.0
 10
76.08252224392359
 20
150.9260158962674
 30
0.0
 10
75.73680691189237
 20
150.6895100911458
 30
0.0
 10
74.89982096354165
 20
150.6895100911458
 30
0.0
 10
74.06266276041666
 20
150.6895100911458
 30
0.0
 10
73.88058946397568
 20
150.8896701388889
 30
0.0
 10
73.88058946397568
 20
150.8896701388889
 30
0.0
 10
73.88058946397568
 20
150.8896701388889
 30
0.0
 10
73.48026936848956
 20
150.6895100911458
 30
0.0
 10
72.84344346788194
 20
150.6895100911458
 30
0.0
 10
72.20644531249998
 20
150.6895100911458
 30
0.0
 10
71.67865668402777
 20
150.9260158962674
 30
0.0
 10
71.67865668402777
 20
150.9260158962674
 30
0.0
  0
LINE
  5
5B
330
A
100
AcDbEntity
  8
LAYER_1
 62
     7
100
AcDbLine
 10
73.880589
 20
150.871411
 30
0.0
 11
73.880589
 21
151.49015
 31
0.0
  0
SPLINE
  5
5A
330
A
100
AcDbEntity
  8
LAYER_1
 62
     7
100
AcDbSpline
210
0.0
220
0.0
230
1.0
 70
     8
 71
     3
 72
    17
 73
    13
 74
     0
 42
0.0000000001
 43
0.0000000001
 40
0.0
 40
0.0
 40
0.0
 40
0.0
 40
1.0
 40
1.0
 40
1.0
 40
2.0
 40
2.0
 40
2.0
 40
3.0
 40
3.0
 40
3.0
 40
4.0
 40
4.0
 40
4.0
 40
4.0
 10
71.69691569010416
 20
149.6339328342014
 30
0.0
 10
71.69691569010416
 20
149.6339328342014
 30
0.0
 10
72.04263102213541
 20
149.997907172309
 30
0.0
 10
72.87978922526041
 20
149.997907172309
 30
0.0
 10
73.71694742838541
 20
149.997907172309
 30
0.0
 10
73.86250271267361
 20
149.6158460828993
 30
0.0
 10
73.86250271267361
 20
149.6158460828993
 30
0.0
 10
73.86250271267361
 20
149.6158460828993
 30
0.0
 10
74.29916856553818
 20
149.997907172309
 30
0.0
 10
74.93616672092013
 20
149.997907172309
 30
0.0
 10
75.57299262152778
 20
149.997907172309
 30
0.0
 10
76.08252224392359
 20
149.5612413194444
 30
0.0
 10
76.08252224392359
 20
149.5612413194444
 30
0.0
  0
SPLINE
  5
59
330
A
100
AcDbEntity
  8
LAYER_1
 62
     7
100
AcDbSpline
210
0.0
220
0.0
230
1.0
 70
     9
 71
     3
 72
    92
 73
    88
 74
     0
 42
0.0000000001
 43
0.0000000001
 40
0.0
 40
0.0
 40
0.0
 40
0.0
 40
1.0
 40
1.0
 40
1.0
 40
2.0
 40
2.0
 40
2.0
 40
3.0
 40
3.0
 40
3.0
 40
4.0
 40
4.0
 40
4.0
 40
5.0
 40
5.0
 40
5.0
 40
6.0
 40
6.0
 40
6.0
 40
7.0
 40
7.0
 40
7.0
 40
8.0
 40
8.0
 40
8.0
 40
9.0
 40
9.0
 40
9.0
 40
10.0
 40
10.0
 40
10.0
 40
11.0
 40
11.0
 40
11.0
 40
12.0
 40
12.0
 40
12.0
 40
13.0
 40
13.0
 40
13.0
 40
14.0
 40
14.0
 40
14.0
 40
15.0
 40
15.0
 40
15.0
 40
16.0
 40
16.0
 40
16.0
 40
17.0
 40
17.0
 40
17.0
 40
18.0
 40
18.0
 40
18.0
 40
19.0
 40
19.0
 40
19.0
 40
20.0
 40
20.0
 40
20.0
 40
21.0
 40
21.0
 40
21.0
 40
22.0
 40
22.0
 40
22.0
 40
23.0
 40
23.0
 40
23.0
 40
24.0
 40
24.0
 40
24.0
 40
25.0
 40
25.0
 40
25.0
 40
26.0
 40
26.0
 40
26.0
 40
27.0
 40
27.0
 40
27.0
 40
28.0
 40
28.0
 40
28.0
 40
29.0
 40
29.0
 40
29.0
 40
29.0
 10
72.7340616861979
 20
151.6903103298611
 30
0.0
 10
72.7340616861979
 20
151.6903103298611
 30
0.0
 10
72.7340616861979
 20
155.0694322374131
 30
0.0
 10
72.7340616861979
 20
155.0694322374131
 30
0.0
 10
72.7340616861979
 20
155.0694322374131
 30
0.0
 10
72.7340616861979
 20
155.3970608181423
 30
0.0
 10
73.28010932074653
 20
155.3970608181423
 30
0.0
 10
73.8259847005208
 20
155.3970608181423
 30
0.0
 10
73.8259847005208
 20
155.1786417643228
 30
0.0
 10
73.8259847005208
 20
155.1786417643228
 30
0.0
 10
73.8259847005208
 20
155.1786417643228
 30
0.0
 10
74.00805799696179
 20
155.3970608181423
 30
0.0
 10
74.4083780924479
 20
155.3970608181423
 30
0.0
 10
75.0999810112847
 20
155.3970608181423
 30
0.0
 10
75.02711724175347
 20
155.0694322374131
 30
0.0
 10
75.02711724175347
 20
155.0694322374131
 30
0.0
 10
75.02711724175347
 20
155.0694322374131
 30
0.0
 10
75.02711724175347
 20
151.6903103298611
 30
0.0
 10
75.02711724175347
 20
151.6903103298611
 30
0.0
 10
75.02711724175347
 20
151.6903103298611
 30
0.0
 10
75.55490587022568
 20
151.6903103298611
 30
0.0
 10
75.55490587022568
 20
151.6903103298611
 30
0.0
 10
75.55490587022568
 20
151.6903103298611
 30
0.0
 10
76.08252224392359
 20
151.6903103298611
 30
0.0
 10
76.08252224392359
 20
151.6903103298611
 30
0.0
 10
76.08252224392359
 20
151.6903103298611
 30
0.0
 10
76.08252224392359
 20
150.652992078993
 30
0.0
 10
76.08252224392359
 20
150.652992078993
 30
0.0
 10
76.08252224392359
 20
150.652992078993
 30
0.0
 10
75.97331271701389
 20
150.652992078993
 30
0.0
 10
75.71872016059026
 20
150.652992078993
 30
0.0
 10
75.71872016059026
 20
150.652992078993
 30
0.0
 10
75.46395534939235
 20
150.652992078993
 30
0.0
 10
75.46395534939235
 20
150.652992078993
 30
0.0
 10
75.46395534939235
 20
150.652992078993
 30
0.0
 10
75.46395534939235
 20
150.0342529296874
 30
0.0
 10
75.46395534939235
 20
150.0342529296874
 30
0.0
 10
75.46395534939235
 20
150.0342529296874
 30
0.0
 10
75.7004611545139
 20
150.0342529296874
 30
0.0
 10
75.7004611545139
 20
150.0342529296874
 30
0.0
 10
75.7004611545139
 20
150.0342529296874
 30
0.0
 10
76.08252224392359
 20
150.0342529296874
 30
0.0
 10
76.08252224392359
 20
150.0342529296874
 30
0.0
 10
76.08252224392359
 20
150.0342529296874
 30
0.0
 10
76.08252224392359
 20
147.0862847222222
 30
0.0
 10
76.08252224392359
 20
147.0862847222222
 30
0.0
 10
76.08252224392359
 20
147.0862847222222
 30
0.0
 10
76.08252224392359
 20
144.9753024631076
 30
0.0
 10
76.08252224392359
 20
144.9753024631076
 30
0.0
 10
76.08252224392359
 20
144.9753024631076
 30
0.0
 10
76.08252224392359
 20
118.4971598307291
 30
0.0
 10
76.08252224392359
 20
118.4971598307291
 30
0.0
 10
76.08252224392359
 20
118.4971598307291
 30
0.0
 10
71.67865668402777
 20
118.4971598307291
 30
0.0
 10
71.67865668402777
 20
118.4971598307291
 30
0.0
 10
71.67865668402777
 20
118.4971598307291
 30
0.0
 10
71.67865668402777
 20
144.3202175564236
 30
0.0
 10
71.67865668402777
 20
144.3202175564236
 30
0.0
 10
71.67865668402777
 20
144.3202175564236
 30
0.0
 10
71.67865668402777
 20
146.6131008572048
 30
0.0
 10
71.67865668402777
 20
146.6131008572048
 30
0.0
 10
71.67865668402777
 20
146.6131008572048
 30
0.0
 10
71.67865668402777
 20
150.0161661783854
 30
0.0
 10
71.67865668402777
 20
150.0161661783854
 30
0.0
 10
71.67865668402777
 20
150.0161661783854
 30
0.0
 10
71.98802625868054
 20
150.0161661783854
 30
0.0
 10
71.98802625868054
 20
150.0161661783854
 30
0.0
 10
71.98802625868054
 20
150.0161661783854
 30
0.0
 10
72.22470431857637
 20
150.0161661783854
 30
0.0
 10
72.22470431857637
 20
150.0161661783854
 30
0.0
 10
72.22470431857637
 20
150.0161661783854
 30
0.0
 10
72.22470431857637
 20
150.652992078993
 30
0.0
 10
72.22470431857637
 20
150.652992078993
 30
0.0
 10
72.22470431857637
 20
150.652992078993
 30
0.0
 10
71.95168050130208
 20
150.652992078993
 30
0.0
 10
71.95168050130208
 20
150.652992078993
 30
0.0
 10
71.95168050130208
 20
150.652992078993
 30
0.0
 10
71.69691569010416
 20
150.652992078993
 30
0.0
 10
71.69691569010416
 20
150.652992078993
 30
0.0
 10
71.69691569010416
 20
150.652992078993
 30
0.0
 10
71.69691569010416
 20
151.6903103298611
 30
0.0
 10
71.69691569010416
 20
151.6903103298611
 30
0.0
 10
71.69691569010416
 20
151.6903103298611
 30
0.0
 10
72.00628526475694
 20
151.6903103298611
 30
0.0
 10
72.00628526475694
 20
151.6903103298611
 30
0.0
 10
72.00628526475694
 20
151.6903103298611
 30
0.0
 10
72.7340616861979
 20
151.6903103298611
 30
0.0
 10
72.7340616861979
 20
151.6903103298611
 30
0.0
  0
POLYLINE
  5
53
330
A
100
AcDbEntity
  8
LAYER_1
 62
     7
100
AcDb2dPolyline
 66
     1
 10
0.0
 20
0.0
 30
0.0
 70
     1
  0
VERTEX
  5
54
330
53
100
AcDbEntity
  8
LAYER_1
 62
     7
100
AcDbVertex
100
AcDb2dVertex
 10
109.643781
 20
127.903649
 30
0.0
  0
VERTEX
  5
55
330
53
100
AcDbEntity
  8
LAYER_1
 62
     7
100
AcDbVertex
100
AcDb2dVertex
 10
109.643781
 20
147.048044
 30
0.0
  0
VERTEX
  5
56
330
53
100
AcDbEntity
  8
LAYER_1
 62
     7
100
AcDbVertex
100
AcDb2dVertex
 10
103.966092
 20
147.048044
 30
0.0
  0
VERTEX
  5
57
330
53
100
AcDbEntity
  8
LAYER_1
 62
     7
100
AcDbVertex
100
AcDb2dVertex
 10
103.966092
 20
127.903649
 30
0.0
  0
SEQEND
  5
58
330
53
100
AcDbEntity
  8
LAYER_1
 62
     7
  0
CIRCLE
  5
52
330
A
100
AcDbEntity
  8
LAYER_1
 62
     7
100
AcDbCircle
 10
106.950406
 20
129.796298
 30
0.0
 40
0.926472
  0
CIRCLE
  5
51
330
A
100
AcDbEntity
  8
LAYER_1
 62
     7
100
AcDbCircle
 10
106.877714
 20
145.00984
 30
0.0
 40
0.926472
  0
CIRCLE
  5
50
330
A
100
AcDbEntity
  8
LAYER_1
 62
     7
100
AcDbCircle
 10
106.877714
 20
137.512278
 30
0.0
 40
0.926472
  0
POLYLINE
  5
4A
330
A
100
AcDbEntity
  8
LAYER_1
 62
     7
100
AcDb2dPolyline
 66
     1
 10
0.0
 20
0.0
 30
0.0
 70
     1
  0
VERTEX
  5
4B
330
4A
100
AcDbEntity
  8
LAYER_1
 62
     7
100
AcDbVertex
100
AcDb2dVertex
 10
118.752269
 20
127.903649
 30
0.0
  0
VERTEX
  5
4C
330
4A
100
AcDbEntity
  8
LAYER_1
 62
     7
100
AcDbVertex
100
AcDb2dVertex
 10
118.752269
 20
147.048044
 30
0.0
  0
VERTEX
  5
4D
330
4A
100
AcDbEntity
  8
LAYER_1
 62
     7
100
AcDbVertex
100
AcDb2dVertex
 10
114.894279
 20
147.048044
 30
0.0
  0
VERTEX
  5
4E
330
4A
100
AcDbEntity
  8
LAYER_1
 62
     7
100
AcDbVertex
100
AcDb2dVertex
 10
114.894279
 20
127.903649
 30
0.0
  0
SEQEND
  5
4F
330
4A
100
AcDbEntity
  8
LAYER_1
 62
     7
  0
POLYLINE
  5
42
330
A
100
AcDbEntity
  8
LAYER_1
 62
     7
100
AcDb2dPolyline
 66
     1
 10
0.0
 20
0.0
 30
0.0
  0
VERTEX
  5
43
330
42
100
AcDbEntity
  8
LAYER_1
 62
     7
100
AcDbVertex
100
AcDb2dVertex
 10
149.388814
 20
150.926016
 30
0.0
  0
VERTEX
  5
44
330
42
100
AcDbEntity
  8
LAYER_1
 62
     7
100
AcDbVertex
100
AcDb2dVertex
 10
151.208686
 20
150.926016
 30
0.0
  0
VERTEX
  5
45
330
42
100
AcDbEntity
  8
LAYER_1
 62
     7
100
AcDbVertex
100
AcDb2dVertex
 10
151.208686
 20
118.679061
 30
0.0
  0
VERTEX
  5
46
330
42
100
AcDbEntity
  8
LAYER_1
 62
     7
100
AcDbVertex
100
AcDb2dVertex
 10
144.730184
 20
118.679061
 30
0.0
  0
VERTEX
  5
47
330
42
100
AcDbEntity
  8
LAYER_1
 62
     7
100
AcDbVertex
100
AcDb2dVertex
 10
144.730184
 20
150.926016
 30
0.0
  0
VERTEX
  5
48
330
42
100
AcDbEntity
  8
LAYER_1
 62
     7
100
AcDbVertex
100
AcDb2dVertex
 10
147.023239
 20
150.926016
 30
0.0
  0
SEQEND
  5
49
330
42
100
AcDbEntity
  8
LAYER_1
 62
     7
  0
SPLINE
  5
41
330
A
100
AcDbEntity
  8
LAYER_1
 62
     7
100
AcDbSpline
210
0.0
220
0.0
230
1.0
 70
     8
 71
     3
 72
    23
 73
    19
 74
     0
 42
0.0000000001
 43
0.0000000001
 40
0.0
 40
0.0
 40
0.0
 40
0.0
 40
1.0
 40
1.0
 40
1.0
 40
2.0
 40
2.0
 40
2.0
 40
3.0
 40
3.0
 40
3.0
 40
4.0
 40
4.0
 40
4.0
 40
5.0
 40
5.0
 40
5.0
 40
6.0
 40
6.0
 40
6.0
 40
6.0
 10
147.0232394748263
 20
150.9988796657986
 30
0.0
 10
147.0232394748263
 20
150.9988796657986
 30
0.0
 10
147.0232394748263
 20
155.1786417643228
 30
0.0
 10
147.0232394748263
 20
155.1786417643228
 30
0.0
 10
147.0232394748263
 20
155.1786417643228
 30
0.0
 10
147.0232394748263
 20
155.506270345052
 30
0.0
 10
147.5691148546007
 20
155.506270345052
 30
0.0
 10
148.114990234375
 20
155.506270345052
 30
0.0
 10
148.114990234375
 20
155.2878512912326
 30
0.0
 10
148.114990234375
 20
155.2878512912326
 30
0.0
 10
148.114990234375
 20
155.2878512912326
 30
0.0
 10
148.2970635308159
 20
155.506270345052
 30
0.0
 10
148.6973836263021
 20
155.506270345052
 30
0.0
 10
149.3888142903645
 20
155.506270345052
 30
0.0
 10
149.3161227756076
 20
155.1786417643228
 30
0.0
 10
149.3161227756076
 20
155.1786417643228
 30
0.0
 10
149.3161227756076
 20
155.1786417643228
 30
0.0
 10
149.3161227756076
 20
150.9988796657986
 30
0.0
 10
149.3161227756076
 20
150.9988796657986
 30
0.0
  0
LINE
  5
40
330
A
100
AcDbEntity
  8
LAYER_1
 62
     7
100
AcDbLine
 10
145.021467
 20
150.853324
 30
0.0
 11
151.063131
 21
150.853324
 31
0.0
  0
SPLINE
  5
3F
330
A
100
AcDbEntity
  8
LAYER_1
 62
     7
100
AcDbSpline
210
0.0
220
0.0
230
1.0
 70
     8
 71
     3
 72
     8
 73
     4
 74
     0
 42
0.0000000001
 43
0.0000000001
 40
0.0
 40
0.0
 40
0.0
 40
0.0
 40
1.0
 40
1.0
 40
1.0
 40
1.0
 10
148.114990234375
 20
155.3241970486111
 30
0.0
 10
148.114990234375
 20
155.3241970486111
 30
0.0
 10
149.2797770182291
 20
154.3780015733507
 30
0.0
 10
149.2797770182291
 20
155.1786417643228
 30
0.0
  0
CIRCLE
  5
3E
330
A
100
AcDbEntity
  8
LAYER_1
 62
     7
100
AcDbCircle
 10
149.898516
 20
121.008462
 30
0.0
 40
0.9265579999999999
  0
CIRCLE
  5
3D
330
A
100
AcDbEntity
  8
LAYER_1
 62
     7
100
AcDbCircle
 10
146.040526
 20
137.095594
 30
0.0
 40
0.926472
  0
CIRCLE
  5
3C
330
A
100
AcDbEntity
  8
LAYER_1
 62
     7
100
AcDbCircle
 10
147.933089
 20
128.433246
 30
0.0
 40
0.926472
  0
SPLINE
  5
3B
330
A
100
AcDbEntity
  8
LAYER_1
 62
     7
100
AcDbSpline
210
0.0
220
0.0
230
1.0
 70
     8
 71
     3
 72
     8
 73
     4
 74
     0
 42
0.0000000001
 43
0.0000000001
 40
0.0
 40
0.0
 40
0.0
 40
0.0
 40
1.0
 40
1.0
 40
1.0
 40
1.0
 10
164.638873969184
 20
155.3970608181423
 30
0.0
 10
164.638873969184
 20
155.3970608181423
 30
0.0
 10
165.8034884982638
 20
154.4506930881076
 30
0.0
 10
165.8034884982638
 20
155.2515055338541
 30
0.0
  0
SPLINE
  5
3A
330
A
100
AcDbEntity
  8
LAYER_1
 62
     7
100
AcDbSpline
210
0.0
220
0.0
230
1.0
 70
     8
 71
     3
 72
    23
 73
    19
 74
     0
 42
0.0000000001
 43
0.0000000001
 40
0.0
 40
0.0
 40
0.0
 40
0.0
 40
1.0
 40
1.0
 40
1.0
 40
2.0
 40
2.0
 40
2.0
 40
3.0
 40
3.0
 40
3.0
 40
4.0
 40
4.0
 40
4.0
 40
5.0
 40
5.0
 40
5.0
 40
6.0
 40
6.0
 40
6.0
 40
6.0
 10
163.5467787000868
 20
150.9260158962674
 30
0.0
 10
163.5467787000868
 20
150.9260158962674
 30
0.0
 10
163.5467787000868
 20
155.2515055338541
 30
0.0
 10
163.5467787000868
 20
155.2515055338541
 30
0.0
 10
163.5467787000868
 20
155.2515055338541
 30
0.0
 10
163.5467787000868
 20
155.578961859809
 30
0.0
 10
164.0928263346354
 20
155.578961859809
 30
0.0
 10
164.638873969184
 20
155.578961859809
 30
0.0
 10
164.638873969184
 20
155.3607150607638
 30
0.0
 10
164.638873969184
 20
155.3607150607638
 30
0.0
 10
164.638873969184
 20
155.3607150607638
 30
0.0
 10
164.8207750108507
 20
155.578961859809
 30
0.0
 10
165.2210951063368
 20
155.578961859809
 30
0.0
 10
165.9126980251736
 20
155.578961859809
 30
0.0
 10
165.8398342556424
 20
155.2515055338541
 30
0.0
 10
165.8398342556424
 20
155.2515055338541
 30
0.0
 10
165.8398342556424
 20
155.2515055338541
 30
0.0
 10
165.8398342556424
 20
150.9260158962674
 30
0.0
 10
165.8398342556424
 20
150.9260158962674
 30
0.0
  0
POLYLINE
  5
33
330
A
100
AcDbEntity
  8
LAYER_1
 62
     7
100
AcDb2dPolyline
 66
     1
 10
0.0
 20
0.0
 30
0.0
  0
VERTEX
  5
34
330
33
100
AcDbEntity
  8
LAYER_1
 62
     7
100
AcDbVertex
100
AcDb2dVertex
 10
162.018362
 20
150.907929
 30
0.0
  0
VERTEX
  5
35
330
33
100
AcDbEntity
  8
LAYER_1
 62
     7
100
AcDbVertex
100
AcDb2dVertex
 10
167.477633
 20
150.907929
 30
0.0
  0
VERTEX
  5
36
330
33
100
AcDbEntity
  8
LAYER_1
 62
     7
100
AcDbVertex
100
AcDb2dVertex
 10
167.477633
 20
118.679061
 30
0.0
  0
VERTEX
  5
37
330
33
100
AcDbEntity
  8
LAYER_1
 62
     7
100
AcDbVertex
100
AcDb2dVertex
 10
162.054708
 20
118.679061
 30
0.0
  0
VERTEX
  5
38
330
33
100
AcDbEntity
  8
LAYER_1
 62
     7
100
AcDbVertex
100
AcDb2dVertex
 10
162.054708
 20
150.907929
 30
0.0
  0
SEQEND
  5
39
330
33
100
AcDbEntity
  8
LAYER_1
 62
     7
  0
MTEXT
  5
32
330
A
100
AcDbEntity
  8
LAYER_1
 62
     7
100
AcDbMText
 10
48.504533
 20
137.945011
 30
0.0
 40
1.837383999999999
 41
0.0
 71
     1
 72
     2
  1
\fGill Sans|b0|i0;(0.43)
  7
STD
 73
     1
 44
1.0
1001
ACAD
1000
MTEXTBEGIN
1070
    73
1070
     1
1070
    44
1040
1.0
1070
    74
1070
     0
1000
MTEXTEND
  0
MTEXT
  5
31
330
A
100
AcDbEntity
  8
LAYER_1
 62
     7
100
AcDbMText
 10
50.189874
 20
140.414455
 30
0.0
 40
1.837383999999999
 41
0.0
 71
     1
 72
     2
  1
\fGill Sans|b0|i0;11
  7
STD
 73
     1
 44
1.0
1001
ACAD
1000
MTEXTBEGIN
1070
    73
1070
     1
1070
    44
1040
1.0
1070
    74
1070
     0
1000
MTEXTEND
  0
MTEXT
  5
30
330
A
100
AcDbEntity
  8
LAYER_1
 62
     7
100
AcDbMText
 10
48.662835
 20
143.818382
 30
0.0
 40
1.837383999999999
 41
0.0
 71
     1
 72
     2
  1
\fGill Sans|b0|i0;(0.47)
  7
STD
 73
     1
 44
1.0
1001
ACAD
1000
MTEXTBEGIN
1070
    73
1070
     1
1070
    44
1040
1.0
1070
    74
1070
     0
1000
MTEXTEND
  0
MTEXT
  5
2F
330
A
100
AcDbEntity
  8
LAYER_1
 62
     7
100
AcDbMText
 10
50.348176
 20
146.287826
 30
0.0
 40
1.837383999999999
 41
0.0
 71
     1
 72
     2
  1
\fGill Sans|b0|i0;12
  7
STD
 73
     1
 44
1.0
1001
ACAD
1000
MTEXTBEGIN
1070
    73
1070
     1
1070
    44
1040
1.0
1070
    74
1070
     0
1000
MTEXTEND
  0
MTEXT
  5
2E
330
A
100
AcDbEntity
  8
LAYER_1
 62
     7
100
AcDbMText
 10
76.76706300000001
 20
154.769479
 30
0.0
 40
1.837383999999999
 41
0.0
 71
     1
 72
     2
  1
\fGill Sans|b0|i0;(0.75)
  7
STD
 73
     1
 44
1.0
1001
ACAD
1000
MTEXTBEGIN
1070
    73
1070
     1
1070
    44
1040
1.0
1070
    74
1070
     0
1000
MTEXTEND
  0
MTEXT
  5
2D
330
A
100
AcDbEntity
  8
LAYER_1
 62
     7
100
AcDbMText
 10
78.452403
 20
157.238924
 30
0.0
 40
1.837383999999999
 41
0.0
 71
     1
 72
     2
  1
\fGill Sans|b0|i0;19
  7
STD
 73
     1
 44
1.0
1001
ACAD
1000
MTEXTBEGIN
1070
    73
1070
     1
1070
    44
1040
1.0
1070
    74
1070
     0
1000
MTEXTEND
  0
MTEXT
  5
2C
330
A
100
AcDbEntity
  8
LAYER_1
 62
     7
100
AcDbMText
 10
98.37045299999999
 20
132.5819159999999
 30
0.0
 40
1.837383999999999
 41
0.0
 71
     1
 72
     2
  1
\fGill Sans|b0|i0;54 (2.13)
  7
STD
 11
0.0
 21
1.0
 31
0.0
 73
     1
 44
1.0
1001
ACAD
1000
MTEXTBEGIN
1070
    73
1070
     1
1070
    44
1040
1.0
1070
    74
1070
     0
1000
MTEXTEND
  0
MTEXT
  5
2B
330
A
100
AcDbEntity
  8
LAYER_1
 62
     7
100
AcDbMText
 10
96.755679
 20
122.569205
 30
0.0
 40
1.837383999999999
 41
0.0
 71
     1
 72
     2
  1
\fGill Sans|b0|i0;(0.26)
  7
STD
 73
     1
 44
1.0
1001
ACAD
1000
MTEXTBEGIN
1070
    73
1070
     1
1070
    44
1040
1.0
1070
    74
1070
     0
1000
MTEXTEND
  0
MTEXT
  5
2A
330
A
100
AcDbEntity
  8
LAYER_1
 62
     7
100
AcDbMText
 10
98.17058000000001
 20
125.03865
 30
0.0
 40
1.837383999999999
 41
0.0
 71
     1
 72
     2
  1
\fGill Sans|b0|i0;6.5
  7
STD
 73
     1
 44
1.0
1001
ACAD
1000
MTEXTBEGIN
1070
    73
1070
     1
1070
    44
1040
1.0
1070
    74
1070
     0
1000
MTEXTEND
  0
MTEXT
  5
29
330
A
100
AcDbEntity
  8
LAYER_1
 62
     7
100
AcDbMText
 10
109.132357
 20
122.569205
 30
0.0
 40
1.837383999999999
 41
0.0
 71
     1
 72
     2
  1
\fGill Sans|b0|i0;(0.75)
  7
STD
 73
     1
 44
1.0
1001
ACAD
1000
MTEXTBEGIN
1070
    73
1070
     1
1070
    44
1040
1.0
1070
    74
1070
     0
1000
MTEXTEND
  0
MTEXT
  5
28
330
A
100
AcDbEntity
  8
LAYER_1
 62
     7
100
AcDbMText
 10
110.817697
 20
125.03865
 30
0.0
 40
1.837383999999999
 41
0.0
 71
     1
 72
     2
  1
\fGill Sans|b0|i0;19
  7
STD
 73
     1
 44
1.0
1001
ACAD
1000
MTEXTBEGIN
1070
    73
1070
     1
1070
    44
1040
1.0
1070
    74
1070
     0
1000
MTEXTEND
  0
MTEXT
  5
27
330
A
100
AcDbEntity
  8
LAYER_1
 62
     7
100
AcDbMText
 10
151.185432
 20
112.586008
 30
0.0
 40
1.837383999999999
 41
0.0
 71
     1
 72
     2
  1
\fGill Sans|b0|i0;(0.28)
  7
STD
 73
     1
 44
1.0
1001
ACAD
1000
MTEXTBEGIN
1070
    73
1070
     1
1070
    44
1040
1.0
1070
    74
1070
     0
1000
MTEXTEND
  0
MTEXT
  5
26
330
A
100
AcDbEntity
  8
LAYER_1
 62
     7
100
AcDbMText
 10
153.488133
 20
115.055452
 30
0.0
 40
1.837383999999999
 41
0.0
 71
     1
 72
     2
  1
\fGill Sans|b0|i0;7
  7
STD
 73
     1
 44
1.0
1001
ACAD
1000
MTEXTBEGIN
1070
    73
1070
     1
1070
    44
1040
1.0
1070
    74
1070
     0
1000
MTEXTEND
  0
MTEXT
  5
25
330
A
100
AcDbEntity
  8
LAYER_1
 62
     7
100
AcDbMText
 10
149.201057
 20
161.790551
 30
0.0
 40
2.099867999999999
 41
0.0
 71
     1
 72
     2
  1
\fGill Sans|b1|i0;GS2 Switch
  7
STD
 73
     1
 44
1.0
1001
ACAD
1000
MTEXTBEGIN
1070
    73
1070
     1
1070
    44
1040
1.0
1070
    74
1070
     0
1000
MTEXTEND
  0
MTEXT
  5
24
330
A
100
AcDbEntity
  8
LAYER_1
 62
     7
100
AcDbMText
 10
58.596423
 20
161.790551
 30
0.0
 40
2.099867999999999
 41
0.0
 71
     1
 72
     2
  1
\fGill Sans|b1|i0;GS1 Switch
  7
STD
 73
     1
 44
1.0
1001
ACAD
1000
MTEXTBEGIN
1070
    73
1070
     1
1070
    44
1040
1.0
1070
    74
1070
     0
1000
MTEXTEND
  0
MTEXT
  5
23
330
A
100
AcDbEntity
  8
LAYER_1
 62
     7
100
AcDbMText
 10
99.529153
 20
99.105357
 30
0.0
 40
3.149802
 41
0.0
 71
     1
 72
     2
  1
\fAbadi MT Condensed Light|b0|i0;mm (in)
  7
STD
 73
     1
 44
1.0
1001
ACAD
1000
MTEXTBEGIN
1070
    73
1070
     1
1070
    44
1040
1.0
1070
    74
1070
     0
1000
MTEXTEND
  0
MTEXT
  5
22
330
A
100
AcDbEntity
  8
LAYER_1
 62
     7
100
AcDbMText
 10
89.856359
 20
104.220635
 30
0.0
 40
3.149802
 41
0.0
 71
     1
 72
     2
  1
\fAbadi MT Condensed Light|b0|i0;Ferrogard GS1 & GS2
  7
STD
 73
     1
 44
1.0
1001
ACAD
1000
MTEXTBEGIN
1070
    73
1070
     1
1070
    44
1040
1.0
1070
    74
1070
     0
1000
MTEXTEND
  0
ENDSEC
  0
SECTION
  2
OBJECTS
  0
DICTIONARY
  5
19
330
0
100
AcDbDictionary
281
     1
  3
ACAD_COLOR
350
1B6
  3
ACAD_GROUP
350
1A
  3
ACAD_LAYOUT
350
1B9
  3
ACAD_MATERIAL
350
1B5
  3
ACAD_MLINESTYLE
350
1B
  3
ACAD_PLOTSETTINGS
350
1BA
  3
ACAD_PLOTSTYLENAME
350
1B3
  3
ACAD_TABLESTYLE
350
1B7
  3
ACDBHEADERROUNDTRIPXREC
350
27E
  3
AcDbVariableDictionary
350
279
  3
AcmDictionary
350
21A
  3
AMG
350
1C0
  3
AMGSNAPSETTINGS
350
26E
  3
ASE_INDEX_DICTIONARY
350
276
  0
DICTIONARY
  5
1B6
102
{ACAD_REACTORS
330
19
102
}
330
19
100
AcDbDictionary
281
     1
  0
DICTIONARY
  5
1A
102
{ACAD_REACTORS
330
19
102
}
330
19
100
AcDbDictionary
281
     1
  0
DICTIONARY
  5
1B9
102
{ACAD_REACTORS
330
19
102
}
330
19
100
AcDbDictionary
281
     1
  3
Layout1
350
1BC
  3
Model
350
1BB
  0
DICTIONARY
  5
1B5
102
{ACAD_REACTORS
330
19
102
}
330
19
100
AcDbDictionary
281
     1
  0
DICTIONARY
  5
1B
102
{ACAD_REACTORS
330
19
102
}
330
19
100
AcDbDictionary
281
     1
  3
STANDARD
350
1C
  0
DICTIONARY
  5
1BA
102
{ACAD_REACTORS
330
19
102
}
330
19
100
AcDbDictionary
281
     1
  0
ACDBDICTIONARYWDFLT
  5
1B3
102
{ACAD_REACTORS
330
19
102
}
330
19
100
AcDbDictionary
281
     1
  3
Normal
350
1B4
100
AcDbDictionaryWithDefault
340
1B4
  0
DICTIONARY
  5
1B7
102
{ACAD_REACTORS
330
19
102
}
330
19
100
AcDbDictionary
281
     1
  3
Standard
350
1B8
  0
DICTIONARY
  5
27E
102
{ACAD_REACTORS
330
19
102
}
330
19
100
AcDbDictionary
281
     1
  0
DICTIONARY
  5
279
102
{ACAD_REACTORS
330
19
102
}
330
19
100
AcDbDictionary
281
     1
  3
CTABLESTYLE
350
27A
  3
DIMASSOC
350
27B
  3
PROJECTNAME
350
27C
  0
DICTIONARY
  5
21A
102
{ACAD_REACTORS
330
19
102
}
330
19
100
AcDbDictionary
281
     1
  3
AcmStdDictionary
350
225
  3
AMDTSECTSYM_ARROWCOLOR
350
244
  0
DICTIONARY
  5
1C0
102
{ACAD_REACTORS
330
19
102
}
330
19
100
AcDbDictionary
281
     1
  0
DICTIONARY
  5
26E
102
{ACAD_REACTORS
330
19
102
}
330
19
100
AcDbDictionary
281
     1
  0
DICTIONARY
  5
276
102
{ACAD_REACTORS
330
19
102
}
330
19
100
AcDbDictionary
281
     1
  3
ASEBlockHierarchyIndexRecord
350
278
1001
DCO15
1040
1733131620.22
  0
LAYOUT
  5
1BC
102
{ACAD_XDICTIONARY
360
281
102
}
102
{ACAD_REACTORS
330
1B9
102
}
330
1B9
100
AcDbPlotSettings
  1

  2
\\USMKEVPRNT001\USMKEPD0431
  4

  6

 40
0.0
 41
0.0
 42
0.0
 43
0.0
 44
0.0
 45
0.0
 46
0.0
 47
0.0
 48
0.0
 49
0.0
140
0.0
141
0.0
142
1.0
143
1.0
 70
   688
 72
     0
 73
     0
 74
     5
  7

 75
    16
147
1.0
148
0.0
149
0.0
100
AcDbLayout
  1
Layout1
 70
     0
 71
     1
 10
0.0
 20
0.0
 11
12.0
 21
9.0
 12
0.0
 22
0.0
 32
0.0
 14
1.000000000000000E+20
 24
1.000000000000000E+20
 34
1.000000000000000E+20
 15
-1.000000000000000E+20
 25
-1.000000000000000E+20
 35
-1.000000000000000E+20
146
0.0
 13
0.0
 23
0.0
 33
0.0
 16
1.0
 26
0.0
 36
0.0
 17
0.0
 27
1.0
 37
0.0
 76
     0
330
B
  0
LAYOUT
  5
1BB
102
{ACAD_XDICTIONARY
360
27F
102
}
102
{ACAD_REACTORS
330
1B9
102
}
330
1B9
100
AcDbPlotSettings
  1

  2
\\USMKEVPRNT001\USMKEPD0431
  4

  6

 40
0.0
 41
0.0
 42
0.0
 43
0.0
 44
0.0
 45
0.0
 46
0.0
 47
0.0
 48
0.0
 49
0.0
140
0.0
141
0.0
142
1.0
143
1.0
 70
  1712
 72
     0
 73
     0
 74
     0
  7

 75
     0
147
1.0
148
0.0
149
0.0
100
AcDbLayout
  1
Model
 70
     1
 71
     0
 10
0.0
 20
0.0
 11
12.0
 21
9.0
 12
0.0
 22
0.0
 32
0.0
 14
0.0
 24
0.0
 34
0.0
 15
0.0
 25
0.0
 35
0.0
146
0.0
 13
0.0
 23
0.0
 33
0.0
 16
1.0
 26
0.0
 36
0.0
 17
0.0
 27
1.0
 37
0.0
 76
     0
330
A
  0
MLINESTYLE
  5
1C
102
{ACAD_REACTORS
330
1B
102
}
330
1B
100
AcDbMlineStyle
  2
STANDARD
 70
     0
  3

 62
     0
 51
90.0
 52
90.0
 71
     2
 49
0.5
 62
   256
  6
BYLAYER
 49
-0.5
 62
   256
  6
BYLAYER
  0
ACDBPLACEHOLDER
  5
1B4
102
{ACAD_REACTORS
330
1B3
102
}
330
1B3
  0
TABLESTYLE
  5
1B8
102
{ACAD_REACTORS
330
1B7
102
}
330
1B7
100
AcDbTableStyle
  3
Standard
 70
     0
 71
     0
 40
0.06
 41
0.06
280
     0
281
     0
  7
STANDARD
140
0.18
170
     2
 62
     0
 63
     7
283
     0
274
    -2
284
     1
 64
     0
275
    -2
285
     1
 65
     0
276
    -2
286
     1
 66
     0
277
    -2
287
     1
 67
     0
278
    -2
288
     1
 68
     0
279
    -2
289
     1
 69
     0
  7
STANDARD
140
0.25
170
     5
 62
     0
 63
     7
283
     0
274
    -2
284
     1
 64
     0
275
    -2
285
     1
 65
     0
276
    -2
286
     1
 66
     0
277
    -2
287
     1
 67
     0
278
    -2
288
     1
 68
     0
279
    -2
289
     1
 69
     0
  7
STANDARD
140
0.18
170
     5
 62
     0
 63
     7
283
     0
274
    -2
284
     1
 64
     0
275
    -2
285
     1
 65
     0
276
    -2
286
     1
 66
     0
277
    -2
287
     1
 67
     0
278
    -2
288
     1
 68
     0
279
    -2
289
     1
 69
     0
  0
DICTIONARYVAR
  5
27A
102
{ACAD_REACTORS
330
279
102
}
330
279
100
DictionaryVariables
280
     0
  1
STANDARD
  0
DICTIONARYVAR
  5
27B
102
{ACAD_REACTORS
330
279
102
}
330
279
100
DictionaryVariables
280
     0
  1
1
  0
DICTIONARYVAR
  5
27C
102
{ACAD_REACTORS
330
279
102
}
330
279
100
DictionaryVariables
280
     0
  1

  0
DICTIONARY
  5
225
102
{ACAD_REACTORS
330
21A
102
}
330
21A
100
AcDbDictionary
281
     1
  0
XRECORD
  5
244
102
{ACAD_REACTORS
330
21A
102
}
330
21A
100
AcDbXrecord
280
     1
 90
-1023410169
  0
XRECORD
  5
278
102
{ACAD_REACTORS
330
276
102
}
330
276
100
AcDbXrecord
280
     1
330
B4
  0
DICTIONARY
  5
281
330
1BC
100
AcDbDictionary
280
     1
281
     1
  3
ACAD_XREC_ROUNDTRIP
360
282
  0
DICTIONARY
  5
27F
330
1BB
100
AcDbDictionary
280
     1
281
     1
  3
ACAD_XREC_ROUNDTRIP
360
280
  0
XRECORD
  5
282
102
{ACAD_REACTORS
330
281
102
}
330
281
100
AcDbXrecord
280
     1
102
SHADEPLOT
 70
     0
102
SHADEPLOTRESLEVEL
 70
     2
102
SHADEPLOTCUSTOMDPI
 70
   300
  0
XRECORD
  5
280
102
{ACAD_REACTORS
330
27F
102
}
330
27F
100
AcDbXrecord
280
     1
102
SHADEPLOT
 70
     0
102
SHADEPLOTRESLEVEL
 70
     2
102
SHADEPLOTCUSTOMDPI
 70
   300
  0
ENDSEC
  0
EOF
