  0
SECTION
  2
HEADER
  9
$ACADVER
  1
AC1015
  9
$ACADMAINTVER
 70
    20
  9
$DWGCODEPAGE
  3
ANSI_1252
  9
$INSBASE
 10
0.0
 20
0.0
 30
0.0
  9
$EXTMIN
 10
55.179578
 20
95.30525371428572
 30
0.0
  9
$EXTMAX
 10
172.9278999047618
 20
164.000235
 30
0.0
  9
$LIMMIN
 10
55.179578
 20
95.91128600000001
  9
$LIMMAX
 10
169.315074
 20
164.522257
  9
$ORTHOMODE
 70
     0
  9
$REGENMODE
 70
     1
  9
$FILLMODE
 70
     1
  9
$QTEXTMODE
 70
     0
  9
$MIRRTEXT
 70
     1
  9
$LTSCALE
 40
1.0
  9
$ATTMODE
 70
     1
  9
$TEXTSIZE
 40
0.0
  9
$TRACEWID
 40
0.05
  9
$TEXTSTYLE
  7
STANDARD
  9
$CLAYER
  8
0
  9
$CELTYPE
  6
CONTINUOUS
  9
$CECOLOR
 62
   256
  9
$CELTSCALE
 40
1.0
  9
$DISPSILH
 70
     0
  9
$DIMSCALE
 40
1.0
  9
$DIMASZ
 40
0.18
  9
$DIMEXO
 40
0.0625
  9
$DIMDLI
 40
0.38
  9
$DIMRND
 40
0.0
  9
$DIMDLE
 40
0.0
  9
$DIMEXE
 40
0.18
  9
$DIMTP
 40
0.0
  9
$DIMTM
 40
0.0
  9
$DIMTXT
 40
0.18
  9
$DIMCEN
 40
0.09
  9
$DIMTSZ
 40
0.0
  9
$DIMTOL
 70
     0
  9
$DIMLIM
 70
     0
  9
$DIMTIH
 70
     1
  9
$DIMTOH
 70
     1
  9
$DIMSE1
 70
     0
  9
$DIMSE2
 70
     0
  9
$DIMTAD
 70
     0
  9
$DIMZIN
 70
     0
  9
$DIMBLK
  1

  9
$DIMASO
 70
     1
  9
$DIMSHO
 70
     1
  9
$DIMPOST
  1

  9
$DIMAPOST
  1

  9
$DIMALT
 70
     0
  9
$DIMALTD
 70
     2
  9
$DIMALTF
 40
25.4
  9
$DIMLFAC
 40
1.0
  9
$DIMTOFL
 70
     0
  9
$DIMTVP
 40
0.0
  9
$DIMTIX
 70
     0
  9
$DIMSOXD
 70
     0
  9
$DIMSAH
 70
     0
  9
$DIMBLK1
  1

  9
$DIMBLK2
  1

  9
$DIMSTYLE
  2
STANDARD
  9
$DIMCLRD
 70
     0
  9
$DIMCLRE
 70
     0
  9
$DIMCLRT
 70
     0
  9
$DIMTFAC
 40
1.0
  9
$DIMGAP
 40
0.09
  9
$DIMJUST
 70
     0
  9
$DIMSD1
 70
     0
  9
$DIMSD2
 70
     0
  9
$DIMTOLJ
 70
     1
  9
$DIMTZIN
 70
     0
  9
$DIMALTZ
 70
     0
  9
$DIMALTTZ
 70
     0
  9
$DIMUPT
 70
     0
  9
$DIMDEC
 70
     4
  9
$DIMTDEC
 70
     4
  9
$DIMALTU
 70
     2
  9
$DIMALTTD
 70
     2
  9
$DIMTXSTY
  7
STANDARD
  9
$DIMAUNIT
 70
     0
  9
$DIMADEC
 70
     0
  9
$DIMALTRND
 40
0.0
  9
$DIMAZIN
 70
     0
  9
$DIMDSEP
 70
    46
  9
$DIMATFIT
 70
     3
  9
$DIMFRAC
 70
     0
  9
$DIMLDRBLK
  1

  9
$DIMLUNIT
 70
     2
  9
$DIMLWD
 70
    -2
  9
$DIMLWE
 70
    -2
  9
$DIMTMOVE
 70
     0
  9
$LUNITS
 70
     2
  9
$LUPREC
 70
     4
  9
$SKETCHINC
 40
0.1
  9
$FILLETRAD
 40
0.0
  9
$AUNITS
 70
     0
  9
$AUPREC
 70
     0
  9
$MENU
  1
acad
  9
$ELEVATION
 40
0.0
  9
$PELEVATION
 40
0.0
  9
$THICKNESS
 40
0.0
  9
$LIMCHECK
 70
     0
  9
$CHAMFERA
 40
0.0
  9
$CHAMFERB
 40
0.0
  9
$CHAMFERC
 40
0.0
  9
$CHAMFERD
 40
0.0
  9
$SKPOLY
 70
     0
  9
$TDCREATE
 40
2305814.042176054
  9
$TDUCREATE
 40
2305814.250509387
  9
$TDUPDATE
 40
2455862.617543658
  9
$TDUUPDATE
 40
2455862.825876991
  9
$TDINDWG
 40
0.0001551852
  9
$TDUSRTIMER
 40
0.0001551852
  9
$USRTIMER
 70
     1
  9
$ANGBASE
 50
0.0
  9
$ANGDIR
 70
     0
  9
$PDMODE
 70
     0
  9
$PDSIZE
 40
0.0
  9
$PLINEWID
 40
0.0
  9
$SPLFRAME
 70
     0
  9
$SPLINETYPE
 70
     6
  9
$SPLINESEGS
 70
     8
  9
$HANDSEED
  5
499
  9
$SURFTAB1
 70
     6
  9
$SURFTAB2
 70
     6
  9
$SURFTYPE
 70
     6
  9
$SURFU
 70
     6
  9
$SURFV
 70
     6
  9
$UCSBASE
  2

  9
$UCSNAME
  2

  9
$UCSORG
 10
0.0
 20
0.0
 30
0.0
  9
$UCSXDIR
 10
1.0
 20
0.0
 30
0.0
  9
$UCSYDIR
 10
0.0
 20
1.0
 30
0.0
  9
$UCSORTHOREF
  2

  9
$UCSORTHOVIEW
 70
     0
  9
$UCSORGTOP
 10
0.0
 20
0.0
 30
0.0
  9
$UCSORGBOTTOM
 10
0.0
 20
0.0
 30
0.0
  9
$UCSORGLEFT
 10
0.0
 20
0.0
 30
0.0
  9
$UCSORGRIGHT
 10
0.0
 20
0.0
 30
0.0
  9
$UCSORGFRONT
 10
0.0
 20
0.0
 30
0.0
  9
$UCSORGBACK
 10
0.0
 20
0.0
 30
0.0
  9
$PUCSBASE
  2

  9
$PUCSNAME
  2

  9
$PUCSORG
 10
0.0
 20
0.0
 30
0.0
  9
$PUCSXDIR
 10
1.0
 20
0.0
 30
0.0
  9
$PUCSYDIR
 10
0.0
 20
1.0
 30
0.0
  9
$PUCSORTHOREF
  2

  9
$PUCSORTHOVIEW
 70
     0
  9
$PUCSORGTOP
 10
0.0
 20
0.0
 30
0.0
  9
$PUCSORGBOTTOM
 10
0.0
 20
0.0
 30
0.0
  9
$PUCSORGLEFT
 10
0.0
 20
0.0
 30
0.0
  9
$PUCSORGRIGHT
 10
0.0
 20
0.0
 30
0.0
  9
$PUCSORGFRONT
 10
0.0
 20
0.0
 30
0.0
  9
$PUCSORGBACK
 10
0.0
 20
0.0
 30
0.0
  9
$USERI1
 70
     0
  9
$USERI2
 70
     0
  9
$USERI3
 70
     0
  9
$USERI4
 70
     0
  9
$USERI5
 70
     0
  9
$USERR1
 40
0.0
  9
$USERR2
 40
0.0
  9
$USERR3
 40
0.0
  9
$USERR4
 40
0.0
  9
$USERR5
 40
0.0
  9
$WORLDVIEW
 70
     1
  9
$SHADEDGE
 70
     3
  9
$SHADEDIF
 70
    70
  9
$TILEMODE
 70
     1
  9
$MAXACTVP
 70
    16
  9
$PINSBASE
 10
0.0
 20
0.0
 30
0.0
  9
$PLIMCHECK
 70
     0
  9
$PEXTMIN
 10
1.000000000000000E+20
 20
1.000000000000000E+20
 30
1.000000000000000E+20
  9
$PEXTMAX
 10
-1.000000000000000E+20
 20
-1.000000000000000E+20
 30
-1.000000000000000E+20
  9
$PLIMMIN
 10
0.0
 20
0.0
  9
$PLIMMAX
 10
12.0
 20
9.0
  9
$UNITMODE
 70
     0
  9
$VISRETAIN
 70
     0
  9
$PLINEGEN
 70
     1
  9
$PSLTSCALE
 70
     0
  9
$TREEDEPTH
 70
  3020
  9
$CMLSTYLE
  2
STANDARD
  9
$CMLJUST
 70
     0
  9
$CMLSCALE
 40
1.0
  9
$PROXYGRAPHICS
 70
     1
  9
$MEASUREMENT
 70
     0
  9
$CELWEIGHT
370
    -1
  9
$ENDCAPS
280
     0
  9
$JOINSTYLE
280
     0
  9
$LWDISPLAY
290
     0
  9
$INSUNITS
 70
     0
  9
$HYPERLINKBASE
  1

  9
$STYLESHEET
  1

  9
$XEDIT
290
     1
  9
$CEPSNTYPE
380
     0
  9
$PSTYLEMODE
290
     1
  9
$FINGERPRINTGUID
  2
{87091CA0-D5B9-48DD-9772-2282A90BBE2C}
  9
$VERSIONGUID
  2
{62BF92D9-A451-4663-8ED4-144A9CE6B74C}
  9
$EXTNAMES
290
     1
  9
$PSVPSCALE
 40
0.0
  9
$OLESTARTUP
290
     0
  0
ENDSEC
  0
SECTION
  2
CLASSES
  0
CLASS
  1
IMAGE
  2
AcDbRasterImage
  3
ISM
 90
    32895
280
     0
281
     1
  0
CLASS
  1
DICTIONARYVAR
  2
AcDbDictionaryVar
  3
ObjectDBX Classes
 90
        0
280
     0
281
     0
  0
CLASS
  1
RASTERVARIABLES
  2
AcDbRasterVariables
  3
ISM
 90
    32768
280
     0
281
     0
  0
CLASS
  1
IMAGEDEF
  2
AcDbRasterImageDef
  3
ISM
 90
    32768
280
     0
281
     0
  0
CLASS
  1
IMAGEDEF_REACTOR
  2
AcDbRasterImageDefReactor
  3
ISM
 90
    32769
280
     0
281
     0
  0
CLASS
  1
IDBUFFER
  2
AcDbIdBuffer
  3
ObjectDBX Classes
 90
    32768
280
     0
281
     0
  0
CLASS
  1
SPATIAL_FILTER
  2
AcDbSpatialFilter
  3
ObjectDBX Classes
 90
    32768
280
     0
281
     0
  0
CLASS
  1
SORTENTSTABLE
  2
AcDbSortentsTable
  3
ObjectDBX Classes
 90
    32768
280
     0
281
     0
  0
CLASS
  1
LAYER_INDEX
  2
AcDbLayerIndex
  3
ObjectDBX Classes
 90
    32768
280
     0
281
     0
  0
CLASS
  1
SPATIAL_INDEX
  2
AcDbSpatialIndex
  3
ObjectDBX Classes
 90
    32768
280
     0
281
     0
  0
CLASS
  1
OBJECT_PTR
  2
CAseDLPNTableRecord
  3
ASE-LPNTableRecord
 90
    32769
280
     0
281
     0
  0
CLASS
  1
LAYOUT
  2
AcDbLayout
  3
ObjectDBX Classes
 90
        0
280
     0
281
     0
  0
CLASS
  1
PLOTSETTINGS
  2
AcDbPlotSettings
  3
ObjectDBX Classes
 90
    32768
280
     0
281
     0
  0
CLASS
  1
ACDBDICTIONARYWDFLT
  2
AcDbDictionaryWithDefault
  3
ObjectDBX Classes
 90
        0
280
     0
281
     0
  0
CLASS
  1
ACDBPLACEHOLDER
  2
AcDbPlaceHolder
  3
ObjectDBX Classes
 90
        0
280
     0
281
     0
  0
CLASS
  1
VBA_PROJECT
  2
AcDbVbaProject
  3
acad
 90
    32768
280
     0
281
     0
  0
CLASS
  1
WIPEOUT
  2
AcDbWipeout
  3
"WipeOut|Product Desc: Object Enabler for WipeOut entity^I^I^I^I^I^I|Company: Autodesk, Inc.^I^I^I^I^I^I|WEB Address: www.autodesk.com"
 90
    32895
280
     0
281
     1
  0
CLASS
  1
WIPEOUTVARIABLES
  2
AcDbWipeoutVariables
  3
"WipeOut|Product Desc:     WipeOut Dbx Application|Company:          Autodesk, Inc.|WEB Address:      www.autodesk.com"
 90
    32768
280
     0
281
     0
  0
CLASS
  1
RTEXT
  2
RText
  3
RText|AutoCAD Express Tool|expresstools@autodesk.com
 90
    32768
280
     0
281
     1
  0
CLASS
  1
ARCALIGNEDTEXT
  2
AcDbArcAlignedText
  3
ATEXT|AutoCAD Express Tool|expresstools@autodesk.com
 90
    32768
280
     0
281
     1
  0
CLASS
  1
TABLESTYLE
  2
AcDbTableStyle
  3
ObjectDBX Classes
 90
     2047
280
     0
281
     0
  0
CLASS
  1
AMGSETTINGSOBJ
  2
AmgSettingsObj
  3
"AcadM|Product Description: AutoCAD Mechanical 2000|Company: Autodesk"
 90
        0
280
     0
281
     0
  0
CLASS
  1
ACME_DOCUMENT
  2
AcMeDbDoc
  3
AcMeServices
 90
        0
280
     0
281
     0
  0
CLASS
  1
ACMESCOPE
  2
AcMeScope
  3
AcMeServices
 90
        0
280
     0
281
     0
  0
CLASS
  1
ACMECOMMANDHISTORY
  2
AcMeCommandHistory
  3
AcMeServices
 90
        0
280
     0
281
     0
  0
CLASS
  1
ACIMSYSVARMAN
  2
AcImSysVarManager
  3
AcMeServices
 90
        0
280
     0
281
     0
  0
CLASS
  1
ACIMINTSYSVAR
  2
AcImIntSysVar
  3
AcMeServices
 90
        0
280
     0
281
     0
  0
CLASS
  1
ACMEDRAWINGMAN
  2
AcMeDrawingMan
  3
AcMeServices
 90
        0
280
     0
281
     0
  0
CLASS
  1
ACMEVIEW
  2
AcMeView
  3
AcMeServices
 90
        0
280
     0
281
     0
  0
CLASS
  1
ACDBENTITYCACHE
  2
AcMeEntityCache
  3
AcMeServices
 90
        0
280
     0
281
     0
  0
CLASS
  1
GSMANAGER
  2
AcMeGSManager
  3
AcMeServices
 90
        0
280
     0
281
     0
  0
CLASS
  1
AMDTINTERNALREACTOR
  2
AmdtInternalReactor
  3
AcMeServices
 90
        0
280
     0
281
     0
  0
CLASS
  1
ACMESTATEMGR
  2
AcMeStateMgr
  3
AcMeServices
 90
        0
280
     0
281
     0
  0
CLASS
  1
ACGREFMASTER
  2
AcGrefMaster
  3
AcAttribServices
 90
        0
280
     0
281
     0
  0
CLASS
  1
AM_DRAWING_MGR
  2
AcDmDwgMgr
  3
AcMechDwgViewMgmt
 90
        0
280
     0
281
     0
  0
CLASS
  1
AM_DWG_DOCUMENT
  2
AcDmDwgDocument
  3
AcMechDwgViewMgmt
 90
        0
280
     0
281
     0
  0
CLASS
  1
AM_DWG_SHEET
  2
AcDmSheet
  3
AcMechDwgViewMgmt
 90
        0
280
     0
281
     0
  0
CLASS
  1
AM_VIEWDIMPARMAP
  2
AcDmViewDimParMap
  3
AcMechDwgViewMgmt
 90
        0
280
     0
281
     0
  0
CLASS
  1
ACIMREALSYSVAR
  2
AcImRealSysVar
  3
AcMeServices
 90
        0
280
     0
281
     0
  0
CLASS
  1
AM_DWGMGR_NAME
  2
AcDmDwgMgrName
  3
AcMechDwgViewMgmt
 90
        0
280
     0
281
     0
  0
CLASS
  1
ACME_DATABASE
  2
AcMeDbDatabase
  3
AcMeServices
 90
        0
280
     0
281
     0
  0
CLASS
  1
ACRFINSADJUSTERMGR
  2
AcRfInsAdjusterMgr
  3
AcMeServices
 90
        0
280
     0
281
     0
  0
CLASS
  1
ACGREFACADMASTER
  2
AcGrefacadMaster
  3
AcGrefServices
 90
        0
280
     0
281
     0
  0
CLASS
  1
AMDTMENUSTATEMGR
  2
AmdtMenuStateMgr
  3
McadcomServices
 90
        0
280
     0
281
     0
  0
CLASS
  1
AMDTMCOMMENUSTATE
  2
AmdtMcomMenuState
  3
McadcomServices
 90
        0
280
     0
281
     0
  0
CLASS
  1
AMIMASTER
  2
AmiMaster
  3
AmiServices
 90
        0
280
     0
281
     0
  0
CLASS
  1
MAPIAMMOUDLE
  2
MApiAmModule
  3
MApiAmServices
 90
        0
280
     0
281
     0
  0
CLASS
  1
ACIMSTRSYSVAR
  2
AcImStrSysVar
  3
AcMeServices
 90
        0
280
     0
281
     0
  0
CLASS
  1
AMDTADMENUSTATE
  2
AmdtAdMenuState
  3
DesignerServices
 90
        0
280
     0
281
     0
  0
CLASS
  1
ADAPPL
  2
AcAdAppl
  3
DesignerServices
 90
        0
280
     0
281
     0
  0
CLASS
  1
DEPMGR
  2
AcAdDepMgr
  3
DesignerServices
 90
        0
280
     0
281
     0
  0
CLASS
  1
PARAMMGR
  2
AcAdParamMgr
  3
DesignerServices
 90
        0
280
     0
281
     0
  0
CLASS
  1
PARAMSCOPE
  2
AcAdParamScope
  3
DesignerServices
 90
        0
280
     0
281
     0
  0
CLASS
  1
NAMEDAPPL
  2
AcAdNamedAppl
  3
DesignerServices
 90
        0
280
     0
281
     0
  0
CLASS
  1
AMDTDMMENUSTATE
  2
AmdtDmMenuState
  3
AcMechDwgViewMgmt
 90
        0
280
     0
281
     0
  0
CLASS
  1
AMDTAMMENUSTATE
  2
AmdtAmMenuState
  3
DesignerAssemblies
 90
        0
280
     0
281
     0
  0
CLASS
  1
ACAMPROJECT
  2
AcAmProject
  3
DesignerAssemblies
 90
        0
280
     0
281
     0
  0
CLASS
  1
ACAMGRCOMPDEF
  2
AcAmGrCompDef
  3
DesignerAssemblies
 90
        0
280
     0
281
     0
  0
CLASS
  1
ACCMCONTEXT
  2
AcCmContext
  3
DesignerAssemblies
 90
        0
280
     0
281
     0
  0
CLASS
  1
ACAMCOMPDEF
  2
AcAmCompDef
  3
DesignerAssemblies
 90
        0
280
     0
281
     0
  0
CLASS
  1
ACAMCOMPDEFMGR
  2
AcAmCompDefMgr
  3
DesignerAssemblies
 90
        0
280
     0
281
     0
  0
CLASS
  1
AMCONTEXTMGR
  2
AcAmContextMgr
  3
DesignerAssemblies
 90
        0
280
     0
281
     0
  0
CLASS
  1
ACAMCONTEXTMODELER
  2
AcAmContextModeler
  3
DesignerAssemblies
 90
        0
280
     0
281
     0
  0
CLASS
  1
ACMDATADICTIONARY
  2
AcmDataDictionary
  3
"AcmSymBB|Product Description: AutoCAD Mechanical 2004 DX|Company: Autodesk"
 90
        0
280
     0
281
     0
  0
CLASS
  1
CATALOGSTATE
  2
AcAmCatalogState
  3
DesignerAssemblies
 90
        0
280
     0
281
     0
  0
CLASS
  1
ACAMGRCOMPDEFSET
  2
AcAmGrCompDefSet
  3
DesignerAssemblies
 90
        0
280
     0
281
     0
  0
CLASS
  1
AMDTBROWSERDBTAB
  2
AmdtBrowserDbTab
  3
McadcomServices
 90
        0
280
     0
281
     0
  0
CLASS
  1
CBROWSERAPPOBJECT
  2
CBrowserAppObject
  3
McadcomServices
 90
        0
280
     0
281
     0
  0
CLASS
  1
DM_PLACEHOLDER
  2
AcDmSelsetPlaceholder
  3
AcMechDwgViewMgmt
 90
        0
280
     0
281
     0
  0
CLASS
  1
ACMSTANDARDANSI
  2
AcmStandardANSI
  3
"Amdt_StdImp|Product Description: AutoCAD Mechanical 2004 DX|Company: Autodesk"
 90
        0
280
     0
281
     0
  0
CLASS
  1
AMGOBJPROPCFG
  2
AmgObjPropCfg
  3
"AmgLay|Product Description: AutoCAD Mechanical 2000|Company: Autodesk"
 90
        1
280
     0
281
     0
  0
CLASS
  1
ACMSURFSTANDARDANSI
  2
AcmSurfTextStdANSI
  3
"Amdt_StdImp|Product Description: AutoCAD Mechanical 2004 DX|Company: Autodesk"
 90
        0
280
     0
281
     0
  0
CLASS
  1
ACMFCFSTANDARDANSI
  2
AcmFCFStdANSI
  3
"Amdt_StdImp|Product Description: AutoCAD Mechanical 2004 DX|Company: Autodesk"
 90
        0
280
     0
281
     0
  0
CLASS
  1
ACMWELDSTANDARDANSI
  2
AcmWeldingStdANSI
  3
"Amdt_StdImp|Product Description: AutoCAD Mechanical 2004 DX|Company: Autodesk"
 90
        0
280
     0
281
     0
  0
CLASS
  1
ACMIDSTANDARDANSI
  2
AcmIdStdANSI
  3
"Amdt_StdImp|Product Description: AutoCAD Mechanical 2004 DX|Company: Autodesk"
 90
        0
280
     0
281
     0
  0
CLASS
  1
ACMDATUMSTANDARDANSI
  2
AcmDatumStdANSI
  3
"Amdt_StdImp|Product Description: AutoCAD Mechanical 2004 DX|Company: Autodesk"
 90
        0
280
     0
281
     0
  0
CLASS
  1
ACMBOMSTANDARDANSI
  2
AcmBOMStdANSI
  3
"Amdt_StdImp|Product Description: AutoCAD Mechanical 2004 DX|Company: Autodesk"
 90
        0
280
     0
281
     0
  0
CLASS
  1
ACMDETAILSTANDARDANSI
  2
AmdtDetailSymStdANSI
  3
"Amdt_StdImp|Product Description: AutoCAD Mechanical 2004 DX|Company: Autodesk"
 90
        0
280
     0
281
     0
  0
CLASS
  1
ACMSECTIONSTANDARDANSI
  2
AmdtSectionSymStdANSI
  3
"Amdt_StdImp|Product Description: AutoCAD Mechanical 2004 DX|Company: Autodesk"
 90
        0
280
     0
281
     0
  0
CLASS
  1
ACMCENTERLINESTANDARDANSI
  2
AmdtCenterLineStdANSI
  3
"Amdt_StdImp|Product Description: AutoCAD Mechanical 2004 DX|Company: Autodesk"
 90
        0
280
     0
281
     0
  0
CLASS
  1
ACMTHREADLINESTANDARDANSI
  2
AmdtThreadLineStdANSI
  3
"Amdt_StdImp|Product Description: AutoCAD Mechanical 2004 DX|Company: Autodesk"
 90
        0
280
     0
281
     0
  0
CLASS
  1
ACMNOTESTANDARDANSI
  2
AmdtNoteStdANSI
  3
"Amdt_StdImp|Product Description: AutoCAD Mechanical 2004 DX|Company: Autodesk"
 90
        0
280
     0
281
     0
  0
CLASS
  1
AMDTNOTETEMPLATEDB
  2
AmdtNoteTemplateDB
  3
AMDT_STDIMP_MODULE_NAME
 90
        0
280
     0
281
     0
  0
CLASS
  1
ACAMGLAYSTD
  2
AcAmgLayStd
  3
"AcAmgLayStd|Product Description: AutoCAD Mechanical 2000|Company: Autodesk"
 90
        0
280
     0
281
     0
  0
CLASS
  1
ACAMGDIMSTD
  2
AcAmgDimStd
  3
"AcAmgDimStd|Product Description: AutoCAD Mechanical 2000|Company: Autodesk"
 90
        0
280
     0
281
     0
  0
CLASS
  1
ACAMGHOLECHARTSTDANSI
  2
AcAmgHoleChartStdANSI
  3
ACMSYMBB_MODULE_NAME
 90
        0
280
     0
281
     0
  0
CLASS
  1
ACAMGTITLESTD
  2
AcAmgTitleStd
  3
"TITLEAPP"
 90
        0
280
     0
281
     0
  0
CLASS
  1
ACAMGFILTERDAT
  2
AcAmgFilterDat
  3
"AcadM|Product Description: AutoCAD Mechanical 2000|Company: Autodesk"
 90
        0
280
     0
281
     0
  0
ENDSEC
  0
SECTION
  2
TABLES
  0
TABLE
  2
VPORT
  5
7
330
0
100
AcDbSymbolTable
 70
     3
  0
VPORT
  5
493
330
7
100
AcDbSymbolTableRecord
100
AcDbViewportTableRecord
  2
*Active
 70
     0
 10
0.0
 20
0.0
 11
1.0
 21
1.0
 12
129.6628012228436
 22
130.5845774529635
 13
0.0
 23
0.0
 14
1.0
 24
1.0
 15
0.0
 25
0.0
 16
0.0
 26
0.0
 36
1.0
 17
0.0
 27
0.0
 37
0.0
 40
120.681057817053
 41
1.181318681318681
 42
50.0
 43
0.0
 44
0.0
 50
0.0
 51
0.0
 71
     0
 72
   100
 73
     1
 74
     1
 75
     0
 76
     0
 77
     0
 78
     0
281
     0
 65
     0
110
0.0
120
0.0
130
0.0
111
1.0
121
0.0
131
0.0
112
0.0
122
1.0
132
0.0
 79
     0
146
0.0
  0
ENDTAB
  0
TABLE
  2
LTYPE
  5
4
330
0
100
AcDbSymbolTable
 70
    17
  0
LTYPE
  5
11
330
4
100
AcDbSymbolTableRecord
100
AcDbLinetypeTableRecord
  2
BYBLOCK
 70
     0
  3

 72
    65
 73
     0
 40
0.0
  0
LTYPE
  5
12
330
4
100
AcDbSymbolTableRecord
100
AcDbLinetypeTableRecord
  2
BYLAYER
 70
     0
  3

 72
    65
 73
     0
 40
0.0
  0
LTYPE
  5
13
330
4
100
AcDbSymbolTableRecord
100
AcDbLinetypeTableRecord
  2
CONTINUOUS
 70
     0
  3
Solid line
 72
    65
 73
     0
 40
0.0
  0
LTYPE
  5
1D2
330
4
100
AcDbSymbolTableRecord
100
AcDbLinetypeTableRecord
  2
AI9-LTYPE1
 70
     0
  3
Illustrator Dash Style No.1
 72
    65
 73
     1
 40
0.352778
 49
0.352778
 74
     0
  0
LTYPE
  5
408
330
4
100
AcDbSymbolTableRecord
100
AcDbLinetypeTableRecord
  2
HIDDEN
 70
     0
  3
Hidden __ __ __ __ __ __ __ __ __ __ __ __ __ _
 72
    65
 73
     2
 40
0.375
 49
0.25
 74
     0
 49
-0.125
 74
     0
  0
LTYPE
  5
409
330
4
100
AcDbSymbolTableRecord
100
AcDbLinetypeTableRecord
  2
PHANTOM2
 70
     0
  3
Phantom (.5x) ___ _ _ ___ _ _ ___ _ _ ___ _ _
 72
    65
 73
     6
 40
1.25
 49
0.625
 74
     0
 49
-0.125
 74
     0
 49
0.125
 74
     0
 49
-0.125
 74
     0
 49
0.125
 74
     0
 49
-0.125
 74
     0
  0
LTYPE
  5
40A
330
4
100
AcDbSymbolTableRecord
100
AcDbLinetypeTableRecord
  2
CENTER
 70
     0
  3
Center ____ _ ____ _ ____ _ ____ _ ____ _ ____
 72
    65
 73
     4
 40
2.0
 49
1.25
 74
     0
 49
-0.25
 74
     0
 49
0.25
 74
     0
 49
-0.25
 74
     0
  0
LTYPE
  5
43E
330
4
100
AcDbSymbolTableRecord
100
AcDbLinetypeTableRecord
  2
AM_ISO02W050
 70
     0
  3
__ __ __ __ __ __ __ __ __ __ __ __ __ __ __
 72
    65
 73
     2
 40
7.5
 49
6.0
 74
     0
 49
-1.5
 74
     0
  0
LTYPE
  5
43F
330
4
100
AcDbSymbolTableRecord
100
AcDbLinetypeTableRecord
  2
AM_ISO08W050
 70
     0
  3
____ . ____ . ____ . ____ . ____ . ____ . ____
 72
    65
 73
     4
 40
18.0
 49
12.0
 74
     0
 49
-1.5
 74
     0
 49
3.0
 74
     0
 49
-1.5
 74
     0
  0
LTYPE
  5
440
330
4
100
AcDbSymbolTableRecord
100
AcDbLinetypeTableRecord
  2
AM_ISO09W050
 70
     0
  3
_____ . . _____ . . _____ . . ____ .. ____
 72
    65
 73
     6
 40
22.5
 49
12.0
 74
     0
 49
-1.5
 74
     0
 49
3.0
 74
     0
 49
-1.5
 74
     0
 49
3.0
 74
     0
 49
-1.5
 74
     0
  0
LTYPE
  5
441
330
4
100
AcDbSymbolTableRecord
100
AcDbLinetypeTableRecord
  2
Amconstr
 70
     0
  3
_______________________
 72
    65
 73
     2
 40
9999.0
 49
9999.0
 74
     0
 49
0.0
 74
     0
  0
LTYPE
  5
442
330
4
100
AcDbSymbolTableRecord
100
AcDbLinetypeTableRecord
  2
AM_ISO08W050x2
 70
     0
  3
__ . __ . __ . __ . __ . __
 72
    65
 73
     4
 40
9.0
 49
6.0
 74
     0
 49
-0.75
 74
     0
 49
1.5
 74
     0
 49
-0.75
 74
     0
  0
LTYPE
  5
443
330
4
100
AcDbSymbolTableRecord
100
AcDbLinetypeTableRecord
  2
AM_ISO02W050x2
 70
     0
  3
 _ _ _ _ _ _ _ _ _ _ _ _
 72
    65
 73
     2
 40
3.75
 49
3.0
 74
     0
 49
-0.75
 74
     0
  0
LTYPE
  5
446
330
4
100
AcDbSymbolTableRecord
100
AcDbLinetypeTableRecord
  2
Amzigzag
 70
     0
  3
/\/-/\/-/\/-/\/-/\/-/\/
 72
    65
 73
     2
 40
11.0001
 49
0.0001
 74
     4
 75
   136
340
445
 46
0.04
 50
0.0
 44
0.0
 45
0.0
 49
-11.0
 74
     0
  0
LTYPE
  5
447
330
4
100
AcDbSymbolTableRecord
100
AcDbLinetypeTableRecord
  2
CENTER2
 70
     0
  3
Center (.5x) ___ _ ___ _ ___ _ ___ _ ___ _ ___
 72
    65
 73
     4
 40
1.125
 49
0.75
 74
     0
 49
-0.125
 74
     0
 49
0.125
 74
     0
 49
-0.125
 74
     0
  0
LTYPE
  5
448
330
4
100
AcDbSymbolTableRecord
100
AcDbLinetypeTableRecord
  2
HIDDEN2
 70
     0
  3
Hidden (.5x) _ _ _ _ _ _ _ _ _ _ _ _ _ _ _ _ _
 72
    65
 73
     2
 40
0.1875
 49
0.125
 74
     0
 49
-0.0625
 74
     0
  0
LTYPE
  5
449
330
4
100
AcDbSymbolTableRecord
100
AcDbLinetypeTableRecord
  2
Amzigzag2
 70
     0
  3
/\/-/\/-/\/-/\/-/\/-/\/
 72
    65
 73
     2
 40
0.4401
 49
0.0001
 74
     4
 75
   136
340
445
 46
0.0016
 50
0.0
 44
0.0
 45
0.0
 49
-0.4400000000000001
 74
     0
  0
LTYPE
  5
457
330
4
100
AcDbSymbolTableRecord
100
AcDbLinetypeTableRecord
  2
ACANSTGB
 70
     0
  3
__ . . __ . .
 72
    65
 73
     6
 40
0.35433070866
 49
0.15748031496
 74
     0
 49
-0.03937007874
 74
     0
 49
0.03937007874
 74
     0
 49
-0.03937007874
 74
     0
 49
0.03937007874
 74
     0
 49
-0.03937007874
 74
     0
  0
LTYPE
  5
458
330
4
100
AcDbSymbolTableRecord
100
AcDbLinetypeTableRecord
  2
ACANSTGL
 70
     0
  3
_ _ _ _ _
 72
    65
 73
     2
 40
0.11811023622
 49
0.07874015748
 74
     0
 49
-0.03937007874
 74
     0
  0
ENDTAB
  0
TABLE
  2
LAYER
  5
2
330
0
100
AcDbSymbolTable
 70
     2
  0
LAYER
  5
14
330
2
100
AcDbSymbolTableRecord
100
AcDbLayerTableRecord
  2
0
 70
     0
 62
     7
  6
CONTINUOUS
370
    -3
390
3CA
  0
LAYER
  5
21
330
2
100
AcDbSymbolTableRecord
100
AcDbLayerTableRecord
  2
LAYER_1
 70
     0
 62
     5
  6
CONTINUOUS
370
    -3
390
3CA
  0
ENDTAB
  0
TABLE
  2
STYLE
  5
3
330
0
100
AcDbSymbolTable
 70
     8
  0
STYLE
  5
17
330
3
100
AcDbSymbolTableRecord
100
AcDbTextStyleTableRecord
  2
STANDARD
 70
     0
 40
0.0
 41
1.0
 50
0.0
 71
     0
 42
0.0
  3
txt
  4

  0
STYLE
  5
1D
330
3
100
AcDbSymbolTableRecord
100
AcDbTextStyleTableRecord
  2
STD
 70
     0
 40
0.0
 41
1.0
 50
0.0
 71
     0
 42
0.0
  3
txt
  4

  0
STYLE
  5
1E
330
3
100
AcDbSymbolTableRecord
100
AcDbTextStyleTableRecord
  2
TATESTD
 70
     4
 40
0.0
 41
1.0
 50
0.0
 71
     0
 42
0.0
  3
txt
  4

  0
STYLE
  5
1F
330
3
100
AcDbSymbolTableRecord
100
AcDbTextStyleTableRecord
  2
KANJISTD
 70
     0
 40
0.0
 41
1.0
 50
0.0
 71
     0
 42
0.0
  3
txt
  4
extfont
  0
STYLE
  5
20
330
3
100
AcDbSymbolTableRecord
100
AcDbTextStyleTableRecord
  2
KANJITATE
 70
     4
 40
0.0
 41
1.0
 50
0.0
 71
     0
 42
0.0
  3
txt
  4
extfont
  0
STYLE
  5
445
330
3
100
AcDbSymbolTableRecord
100
AcDbTextStyleTableRecord
  2

 70
     1
 40
0.0
 41
1.0
 50
0.0
 71
     0
 42
0.2
  3
genltshp.shx
  4

  0
STYLE
  5
44A
330
3
100
AcDbSymbolTableRecord
100
AcDbTextStyleTableRecord
  2
ACANSTS
 70
     0
 40
1.0
 41
1.0
 50
0.0
 71
     0
 42
0.2
  3
romans.shx
  4

  0
STYLE
  5
456
330
3
100
AcDbSymbolTableRecord
100
AcDbTextStyleTableRecord
  2
ACANSGDT
 70
     0
 40
0.0
 41
1.0
 50
0.0
 71
     0
 42
0.2
  3
AMGDT
  4

  0
ENDTAB
  0
TABLE
  2
VIEW
  5
5
330
0
100
AcDbSymbolTable
 70
     0
  0
ENDTAB
  0
TABLE
  2
UCS
  5
6
330
0
100
AcDbSymbolTable
 70
     0
  0
ENDTAB
  0
TABLE
  2
APPID
  5
8
330
0
100
AcDbSymbolTable
 70
    11
  0
APPID
  5
16
330
8
100
AcDbSymbolTableRecord
100
AcDbRegAppTableRecord
  2
ACAD
 70
     0
  0
APPID
  5
3DB
330
8
100
AcDbSymbolTableRecord
100
AcDbRegAppTableRecord
  2
MCAD_NO_VIS
 70
     0
  0
APPID
  5
3DC
330
8
100
AcDbSymbolTableRecord
100
AcDbRegAppTableRecord
  2
ACAD_TEMP_GRAPHIC
 70
     0
  0
APPID
  5
40C
330
8
100
AcDbSymbolTableRecord
100
AcDbRegAppTableRecord
  2
AD_DRAW
 70
     0
  0
APPID
  5
40F
330
8
100
AcDbSymbolTableRecord
100
AcDbRegAppTableRecord
  2
ACATTRIBSERVICES
 70
     0
  0
APPID
  5
42F
330
8
100
AcDbSymbolTableRecord
100
AcDbRegAppTableRecord
  2
DESIGNERASSEMBLIES
 70
     0
  0
APPID
  5
435
330
8
100
AcDbSymbolTableRecord
100
AcDbRegAppTableRecord
  2
ACADM_DIM_EDIT
 70
     0
  0
APPID
  5
436
330
8
100
AcDbSymbolTableRecord
100
AcDbRegAppTableRecord
  2
AMDT_DM_ADJ
 70
     0
  0
APPID
  5
464
330
8
100
AcDbSymbolTableRecord
100
AcDbRegAppTableRecord
  2
ACAD_DSTYLE_DIMARC_LENGTH_SYMBOL
 70
     0
  0
APPID
  5
465
330
8
100
AcDbSymbolTableRecord
100
AcDbRegAppTableRecord
  2
ACAD_DSTYLE_DIMJOGGED_JOGANGLE_SYMBOL
 70
     0
  0
APPID
  5
48D
330
8
100
AcDbSymbolTableRecord
100
AcDbRegAppTableRecord
  2
DCO15
 70
     0
  0
ENDTAB
  0
TABLE
  2
DIMSTYLE
  5
9
330
0
100
AcDbSymbolTable
 70
     7
100
AcDbDimStyleTable
 71
     0
  0
DIMSTYLE
105
18
330
9
100
AcDbSymbolTableRecord
100
AcDbDimStyleTableRecord
  2
STANDARD
 70
     0
340
17
  0
DIMSTYLE
105
463
330
9
100
AcDbSymbolTableRecord
100
AcDbDimStyleTableRecord
  2
AM_ANSI
 70
     0
  4
mm
 41
0.1
 42
0.05
 43
0.5
 44
0.1
 47
0.1
 48
0.1
 78
     7
 79
     2
140
0.12
141
0.0
146
0.71
147
0.06
176
   256
177
   256
178
     2
274
     4
284
     7
340
17
371
    -1
372
    -1
1001
ACAD_DSTYLE_DIMARC_LENGTH_SYMBOL
1070
   379
1070
     1
1001
ACAD_DSTYLE_DIMJOGGED_JOGANGLE_SYMBOL
1070
   384
1040
0.7853981633974483
  0
DIMSTYLE
105
46C
330
9
100
AcDbSymbolTableRecord
100
AcDbDimStyleTableRecord
  2
AM_ANSI$3
 70
     0
  4
mm
 41
0.1
 42
0.05
 43
0.5
 44
0.1
 47
0.1
 48
0.1
 78
     7
 79
     2
140
0.12
141
0.0
146
0.71
147
0.06
176
   256
177
   256
178
     2
274
     4
284
     7
288
     1
289
     0
340
17
371
    -1
372
    -1
1001
ACAD_DSTYLE_DIMARC_LENGTH_SYMBOL
1070
   379
1070
     1
1001
ACAD_DSTYLE_DIMJOGGED_JOGANGLE_SYMBOL
1070
   384
1040
0.7853981633974483
  0
DIMSTYLE
105
46F
330
9
100
AcDbSymbolTableRecord
100
AcDbDimStyleTableRecord
  2
AM_ANSI$4
 70
     0
  4
mm
 41
0.1
 42
0.05
 43
0.5
 44
0.1
 47
0.1
 48
0.1
 78
     7
 79
     2
140
0.12
141
0.0
146
0.71
147
0.06
176
   256
177
   256
178
     2
274
     4
284
     7
288
     1
289
     0
340
17
371
    -1
372
    -1
1001
ACAD_DSTYLE_DIMARC_LENGTH_SYMBOL
1070
   379
1070
     1
1001
ACAD_DSTYLE_DIMJOGGED_JOGANGLE_SYMBOL
1070
   384
1040
0.7853981633974483
  0
DIMSTYLE
105
474
330
9
100
AcDbSymbolTableRecord
100
AcDbDimStyleTableRecord
  2
AM_ANSI$7
 70
     0
  4
mm
 41
0.1
 42
0.05
 43
0.5
 44
0.1
 47
0.1
 48
0.1
 78
     7
 79
     2
140
0.24
141
0.0
146
0.71
147
0.06
176
   256
177
   256
178
     2
274
     4
284
     7
340
17
371
    -1
372
    -1
1001
ACAD_DSTYLE_DIMARC_LENGTH_SYMBOL
1070
   379
1070
     1
1001
ACAD_DSTYLE_DIMJOGGED_JOGANGLE_SYMBOL
1070
   384
1040
0.7853981633974483
  0
DIMSTYLE
105
477
330
9
100
AcDbSymbolTableRecord
100
AcDbDimStyleTableRecord
  2
AM_ANSI$SF
 70
     0
  4
mm
 41
0.1
 42
0.05
 43
0.5
 44
0.1
 47
0.1
 48
0.1
 75
     1
 76
     1
 78
     7
 79
     2
140
0.12
141
0.0
146
0.71
147
0.06
176
   256
177
   256
178
     2
274
     4
284
     7
340
17
371
    -1
372
    -1
1001
ACAD_DSTYLE_DIMARC_LENGTH_SYMBOL
1070
   379
1070
     1
1001
ACAD_DSTYLE_DIMJOGGED_JOGANGLE_SYMBOL
1070
   384
1040
0.7853981633974483
  0
DIMSTYLE
105
47E
330
9
100
AcDbSymbolTableRecord
100
AcDbDimStyleTableRecord
  2
AM_ANSI$SH
 70
     0
  4
mm
 41
0.1
 42
0.05
 43
0.5
 44
0.1
 47
0.1
 48
0.1
 75
     1
 76
     1
 78
     7
 79
     2
140
0.12
141
0.0
146
0.71
147
0.06
173
     1
176
   256
177
   256
178
     2
274
     4
284
     7
340
17
343
478
371
    -1
372
    -1
1001
ACAD_DSTYLE_DIMARC_LENGTH_SYMBOL
1070
   379
1070
     1
1001
ACAD_DSTYLE_DIMJOGGED_JOGANGLE_SYMBOL
1070
   384
1040
0.7853981633974483
  0
ENDTAB
  0
TABLE
  2
BLOCK_RECORD
  5
1
330
0
100
AcDbSymbolTable
 70
     8
  0
BLOCK_RECORD
  5
A
330
1
100
AcDbSymbolTableRecord
100
AcDbBlockTableRecord
  2
*MODEL_SPACE
340
3D1
  0
BLOCK_RECORD
  5
B
330
1
100
AcDbSymbolTableRecord
100
AcDbBlockTableRecord
  2
*PAPER_SPACE
340
3D2
  0
BLOCK_RECORD
  5
34
330
1
100
AcDbSymbolTableRecord
100
AcDbBlockTableRecord
  2
AI9-BLK1
340
0
102
{BLKREFS
331
35
102
}
  0
BLOCK_RECORD
  5
1D8
330
1
100
AcDbSymbolTableRecord
100
AcDbBlockTableRecord
  2
AI9-BLK2
340
0
102
{BLKREFS
331
1D9
102
}
  0
BLOCK_RECORD
  5
322
330
1
100
AcDbSymbolTableRecord
100
AcDbBlockTableRecord
  2
AI9-BLK3
340
0
102
{BLKREFS
331
323
102
}
  0
BLOCK_RECORD
  5
37F
330
1
100
AcDbSymbolTableRecord
100
AcDbBlockTableRecord
  2
AI9-BLK4
340
0
102
{BLKREFS
331
380
102
}
  0
BLOCK_RECORD
  5
382
330
1
100
AcDbSymbolTableRecord
100
AcDbBlockTableRecord
  2
AI9-BLK5
340
0
102
{BLKREFS
331
383
102
}
  0
BLOCK_RECORD
  5
3B6
330
1
100
AcDbSymbolTableRecord
100
AcDbBlockTableRecord
  2
AI9-BLK6
340
0
102
{BLKREFS
331
3B7
102
}
  0
BLOCK_RECORD
  5
478
330
1
100
AcDbSymbolTableRecord
100
AcDbBlockTableRecord
  2
GENAXEH
340
0
  0
ENDTAB
  0
ENDSEC
  0
SECTION
  2
BLOCKS
  0
BLOCK
  5
D
330
A
100
AcDbEntity
  8
0
100
AcDbBlockBegin
  2
*MODEL_SPACE
 70
     0
 10
0.0
 20
0.0
 30
0.0
  3
*MODEL_SPACE
  1

  0
ENDBLK
  5
E
330
A
100
AcDbEntity
  8
0
100
AcDbBlockEnd
  0
BLOCK
  5
F
330
B
100
AcDbEntity
 67
     1
  8
0
100
AcDbBlockBegin
  2
*PAPER_SPACE
 70
     0
 10
0.0
 20
0.0
 30
0.0
  3
*PAPER_SPACE
  1

  0
ENDBLK
  5
10
330
B
100
AcDbEntity
 67
     1
  8
0
100
AcDbBlockEnd
  0
BLOCK
  5
36
330
34
100
AcDbEntity
  8
0
 62
     7
100
AcDbBlockBegin
  2
AI9-BLK1
 70
     0
 10
0.0
 20
0.0
 30
0.0
  3
AI9-BLK1
  1

  0
INSERT
  5
3B7
330
34
100
AcDbEntity
  8
LAYER_1
  6
AI9-LTYPE1
 62
     7
100
AcDbBlockReference
  2
AI9-BLK6
 10
-40.482025
 20
-24.653792
 30
0.0
  0
MTEXT
  5
3B5
330
34
100
AcDbEntity
  8
LAYER_1
  6
AI9-LTYPE1
 62
     7
100
AcDbMText
 10
-17.571279
 20
-16.155833
 30
0.0
 40
1.837383999999999
 41
0.0
 71
     1
 72
     2
  1
\fGill Sans|b0|i0;(0.63)
  7
STD
 73
     1
 44
1.0
1001
ACAD
1000
MTEXTBEGIN
1070
    73
1070
     1
1070
    44
1040
1.0
1070
    74
1070
     0
1000
MTEXTEND
  0
MTEXT
  5
3B4
330
34
100
AcDbEntity
  8
LAYER_1
  6
AI9-LTYPE1
 62
     7
100
AcDbMText
 10
-15.885938
 20
-12.980833
 30
0.0
 40
1.837383999999999
 41
0.0
 71
     1
 72
     2
  1
\fGill Sans|b0|i0;16
  7
STD
 73
     1
 44
1.0
1001
ACAD
1000
MTEXTBEGIN
1070
    73
1070
     1
1070
    44
1040
1.0
1070
    74
1070
     0
1000
MTEXTEND
  0
MTEXT
  5
3B3
330
34
100
AcDbEntity
  8
LAYER_1
  6
AI9-LTYPE1
 62
     7
100
AcDbMText
 10
-43.62016299999999
 20
8.908269999999999
 30
0.0
 40
1.837383999999999
 41
0.0
 71
     1
 72
     2
  1
\fGill Sans|b0|i0;(0.45)
  7
STD
 73
     1
 44
1.0
1001
ACAD
1000
MTEXTBEGIN
1070
    73
1070
     1
1070
    44
1040
1.0
1070
    74
1070
     0
1000
MTEXTEND
  0
MTEXT
  5
3B2
330
34
100
AcDbEntity
  8
LAYER_1
  6
AI9-LTYPE1
 62
     7
100
AcDbMText
 10
-42.822623
 20
11.906882
 30
0.0
 40
1.837383999999999
 41
0.0
 71
     1
 72
     2
  1
\fGill Sans|b0|i0;11.5
  7
STD
 73
     1
 44
1.0
1001
ACAD
1000
MTEXTBEGIN
1070
    73
1070
     1
1070
    44
1040
1.0
1070
    74
1070
     0
1000
MTEXTEND
  0
MTEXT
  5
3B1
330
34
100
AcDbEntity
  8
LAYER_1
  6
AI9-LTYPE1
 62
     7
100
AcDbMText
 10
14.098106
 20
25.176356
 30
0.0
 40
1.837383999999999
 41
0.0
 71
     1
 72
     2
  1
\fGill Sans|b0|i0;33.5 (1.32)
  7
STD
 73
     1
 44
1.0
1001
ACAD
1000
MTEXTBEGIN
1070
    73
1070
     1
1070
    44
1040
1.0
1070
    74
1070
     0
1000
MTEXTEND
  0
MTEXT
  5
3B0
330
34
100
AcDbEntity
  8
LAYER_1
  6
AI9-LTYPE1
 62
     7
100
AcDbMText
 10
-51.753803
 20
-3.386012
 30
0.0
 40
1.837383999999999
 41
0.0
 71
     1
 72
     2
  1
\fGill Sans|b0|i0;62.5 (2.46)
  7
STD
 11
0.0
 21
1.0
 31
0.0
 73
     1
 44
1.0
1001
ACAD
1000
MTEXTBEGIN
1070
    73
1070
     1
1070
    44
1040
1.0
1070
    74
1070
     0
1000
MTEXTEND
  0
MTEXT
  5
3AF
330
34
100
AcDbEntity
  8
LAYER_1
  6
AI9-LTYPE1
 62
     7
100
AcDbMText
 10
-43.33094699999999
 20
-25.059165
 30
0.0
 40
1.837383999999999
 41
0.0
 71
     1
 72
     2
  1
\fGill Sans|b0|i0;(1.32)
  7
STD
 73
     1
 44
1.0
1001
ACAD
1000
MTEXTBEGIN
1070
    73
1070
     1
1070
    44
1040
1.0
1070
    74
1070
     0
1000
MTEXTEND
  0
MTEXT
  5
3AE
330
34
100
AcDbEntity
  8
LAYER_1
  6
AI9-LTYPE1
 62
     7
100
AcDbMText
 10
-42.533407
 20
-22.060554
 30
0.0
 40
1.837383999999999
 41
0.0
 71
     1
 72
     2
  1
\fGill Sans|b0|i0;33.5
  7
STD
 73
     1
 44
1.0
1001
ACAD
1000
MTEXTBEGIN
1070
    73
1070
     1
1070
    44
1040
1.0
1070
    74
1070
     0
1000
MTEXTEND
  0
MTEXT
  5
3AD
330
34
100
AcDbEntity
  8
LAYER_1
  6
AI9-LTYPE1
 62
     7
100
AcDbMText
 10
-30.44502700000001
 20
-2.098063
 30
0.0
 40
1.837383999999999
 41
0.0
 71
     1
 72
     2
  1
\fGill Sans|b0|i0;78.5 (3.09)
  7
STD
 11
0.0
 21
1.0
 31
0.0
 73
     1
 44
1.0
1001
ACAD
1000
MTEXTBEGIN
1070
    73
1070
     1
1070
    44
1040
1.0
1070
    74
1070
     0
1000
MTEXTEND
  0
MTEXT
  5
3AC
330
34
100
AcDbEntity
  8
LAYER_1
  6
AI9-LTYPE1
 62
     7
100
AcDbMText
 10
-48.918203
 20
22.585816
 30
0.0
 40
1.837383999999999
 41
0.0
 71
     1
 72
     2
  1
\fGill Sans|b0|i0;(0.17)
  7
STD
 73
     1
 44
1.0
1001
ACAD
1000
MTEXTBEGIN
1070
    73
1070
     1
1070
    44
1040
1.0
1070
    74
1070
     0
1000
MTEXTEND
  0
MTEXT
  5
3AB
330
34
100
AcDbEntity
  8
LAYER_1
  6
AI9-LTYPE1
 62
     7
100
AcDbMText
 10
-47.503302
 20
25.23165
 30
0.0
 40
1.837383999999999
 41
0.0
 71
     1
 72
     2
  1
\fGill Sans|b0|i0;4.4
  7
STD
 73
     1
 44
1.0
1001
ACAD
1000
MTEXTBEGIN
1070
    73
1070
     1
1070
    44
1040
1.0
1070
    74
1070
     0
1000
MTEXTEND
  0
MTEXT
  5
3AA
330
34
100
AcDbEntity
  8
LAYER_1
  6
AI9-LTYPE1
 62
     7
100
AcDbMText
 10
-25.368908
 20
26.97865800000001
 30
0.0
 40
1.837383999999999
 41
0.0
 71
     1
 72
     2
  1
\fGill Sans|b0|i0;6 (0.24)
  7
STD
 73
     1
 44
1.0
1001
ACAD
1000
MTEXTBEGIN
1070
    73
1070
     1
1070
    44
1040
1.0
1070
    74
1070
     0
1000
MTEXTEND
  0
INSERT
  5
380
330
34
100
AcDbEntity
  8
LAYER_1
 62
     7
100
AcDbBlockReference
  2
AI9-BLK4
 10
-0.354673
 20
2.009006999999999
 30
0.0
  0
INSERT
  5
323
330
34
100
AcDbEntity
  8
LAYER_1
 62
     7
100
AcDbBlockReference
  2
AI9-BLK3
 10
0.6248540000000001
 20
-1.384584
 30
0.0
  0
INSERT
  5
1D9
330
34
100
AcDbEntity
  8
LAYER_1
 62
     7
100
AcDbBlockReference
  2
AI9-BLK2
 10
0.247186
 20
7.00853
 30
0.0
  0
SPLINE
  5
1D7
330
34
100
AcDbEntity
  8
LAYER_1
 62
     7
100
AcDbSpline
210
0.0
220
0.0
230
1.0
 70
     9
 71
     3
 72
    41
 73
    37
 74
     0
 42
0.0000000001
 43
0.0000000001
 40
0.0
 40
0.0
 40
0.0
 40
0.0
 40
1.0
 40
1.0
 40
1.0
 40
2.0
 40
2.0
 40
2.0
 40
3.0
 40
3.0
 40
3.0
 40
4.0
 40
4.0
 40
4.0
 40
5.0
 40
5.0
 40
5.0
 40
6.0
 40
6.0
 40
6.0
 40
7.0
 40
7.0
 40
7.0
 40
8.0
 40
8.0
 40
8.0
 40
9.0
 40
9.0
 40
9.0
 40
10.0
 40
10.0
 40
10.0
 40
11.0
 40
11.0
 40
11.0
 40
12.0
 40
12.0
 40
12.0
 40
12.0
 10
-34.95815904405381
 20
16.50872531467013
 30
0.0
 10
-34.95815904405381
 20
16.50872531467013
 30
0.0
 10
-34.95781453450521
 20
-9.820761447482638
 30
0.0
 10
-34.95781453450521
 20
-9.820761447482638
 30
0.0
 10
-34.95781453450521
 20
-9.820761447482638
 30
0.0
 10
-34.95902031792534
 20
-9.76408962673611
 30
0.0
 10
-34.95902031792534
 20
-9.76408962673611
 30
0.0
 10
-34.95902031792534
 20
-10.62122938368055
 30
0.0
 10
-35.77085706922743
 20
-10.61588948567708
 30
0.0
 10
-35.77085706922743
 20
-10.61588948567708
 30
0.0
 10
-35.77085706922743
 20
-10.61588948567708
 30
0.0
 10
-44.94015096028645
 20
-10.61606174045139
 30
0.0
 10
-44.94015096028645
 20
-10.61606174045139
 30
0.0
 10
-44.94015096028645
 20
-10.61606174045139
 30
0.0
 10
-45.06744723849826
 20
-10.60331488715277
 30
0.0
 10
-45.06744723849826
 20
-10.60331488715277
 30
0.0
 10
-45.96024373372396
 20
-10.60331488715277
 30
0.0
 10
-45.99607272677951
 20
-9.746175130208332
 30
0.0
 10
-45.99607272677951
 20
-9.746175130208332
 30
0.0
 10
-45.99607272677951
 20
-9.746175130208332
 30
0.0
 10
-45.98539293077256
 20
-9.785276963975693
 30
0.0
 10
-45.98539293077256
 20
-9.785276963975693
 30
0.0
 10
-45.98539293077256
 20
-9.785276963975693
 30
0.0
 10
-45.98573744032116
 20
16.49063856336805
 30
0.0
 10
-45.98573744032116
 20
16.49063856336805
 30
0.0
 10
-45.98573744032116
 20
16.49063856336805
 30
0.0
 10
-45.97815823025172
 20
17.31039903428819
 30
0.0
 10
-45.12101847330728
 20
17.32831353081597
 30
0.0
 10
-45.12101847330728
 20
17.32831353081597
 30
0.0
 10
-45.17269490559895
 20
17.32159559461805
 30
0.0
 10
-45.17269490559895
 20
17.32159559461805
 30
0.0
 10
-45.17269490559895
 20
17.32159559461805
 30
0.0
 10
-35.77137383355034
 20
17.32159559461805
 30
0.0
 10
-35.77137383355034
 20
17.32159559461805
 30
0.0
 10
-35.77137383355034
 20
17.32159559461805
 30
0.0
 10
-34.95815904405381
 20
17.33020833333333
 30
0.0
 10
-34.95815904405381
 20
16.50872531467013
 30
0.0
  0
SPLINE
  5
1D6
330
34
100
AcDbEntity
  8
LAYER_1
 62
     7
100
AcDbSpline
210
0.0
220
0.0
230
1.0
 70
     9
 71
     3
 72
    41
 73
    37
 74
     0
 42
0.0000000001
 43
0.0000000001
 40
0.0
 40
0.0
 40
0.0
 40
0.0
 40
1.0
 40
1.0
 40
1.0
 40
2.0
 40
2.0
 40
2.0
 40
3.0
 40
3.0
 40
3.0
 40
4.0
 40
4.0
 40
4.0
 40
5.0
 40
5.0
 40
5.0
 40
6.0
 40
6.0
 40
6.0
 40
7.0
 40
7.0
 40
7.0
 40
8.0
 40
8.0
 40
8.0
 40
9.0
 40
9.0
 40
9.0
 40
10.0
 40
10.0
 40
10.0
 40
11.0
 40
11.0
 40
11.0
 40
12.0
 40
12.0
 40
12.0
 40
12.0
 10
25.34840969509549
 20
14.67937961154513
 30
0.0
 10
25.34840969509549
 20
14.67937961154513
 30
0.0
 10
25.34875420464409
 20
-11.65010715060764
 30
0.0
 10
25.34875420464409
 20
-11.65010715060764
 30
0.0
 10
25.34875420464409
 20
-11.65010715060764
 30
0.0
 10
25.34754842122396
 20
-11.59343532986111
 30
0.0
 10
25.34754842122396
 20
-11.59343532986111
 30
0.0
 10
25.34754842122396
 20
-12.45057508680555
 30
0.0
 10
24.53588392469618
 20
-12.44523518880208
 30
0.0
 10
24.53588392469618
 20
-12.44523518880208
 30
0.0
 10
24.53588392469618
 20
-12.44523518880208
 30
0.0
 10
15.36659003363715
 20
-12.44540744357638
 30
0.0
 10
15.36659003363715
 20
-12.44540744357638
 30
0.0
 10
15.36659003363715
 20
-12.44540744357638
 30
0.0
 10
15.23929375542534
 20
-12.43266059027777
 30
0.0
 10
15.23929375542534
 20
-12.43266059027777
 30
0.0
 10
14.34632500542534
 20
-12.43266059027777
 30
0.0
 10
14.31066826714409
 20
-11.57552083333333
 30
0.0
 10
14.31066826714409
 20
-11.57552083333333
 30
0.0
 10
14.31066826714409
 20
-11.57552083333333
 30
0.0
 10
14.32134806315104
 20
-11.61462266710069
 30
0.0
 10
14.32134806315104
 20
-11.61462266710069
 30
0.0
 10
14.32134806315104
 20
-11.61462266710069
 30
0.0
 10
14.32083129882812
 20
14.66129286024305
 30
0.0
 10
14.32083129882812
 20
14.66129286024305
 30
0.0
 10
14.32083129882812
 20
14.66129286024305
 30
0.0
 10
14.32841050889757
 20
15.48105333116319
 30
0.0
 10
15.18572252061632
 20
15.49896782769097
 30
0.0
 10
15.18572252061632
 20
15.49896782769097
 30
0.0
 10
15.13387383355034
 20
15.49224989149305
 30
0.0
 10
15.13387383355034
 20
15.49224989149305
 30
0.0
 10
15.13387383355034
 20
15.49224989149305
 30
0.0
 10
24.53536716037326
 20
15.49224989149305
 30
0.0
 10
24.53536716037326
 20
15.49224989149305
 30
0.0
 10
24.53536716037326
 20
15.49224989149305
 30
0.0
 10
25.34840969509549
 20
15.50086263020833
 30
0.0
 10
25.34840969509549
 20
14.67937961154513
 30
0.0
  0
SPLINE
  5
1D5
330
34
100
AcDbEntity
  8
LAYER_1
 62
     7
100
AcDbSpline
210
0.0
220
0.0
230
1.0
 70
     9
 71
     3
 72
    23
 73
    19
 74
     0
 42
0.0000000001
 43
0.0000000001
 40
0.0
 40
0.0
 40
0.0
 40
0.0
 40
1.0
 40
1.0
 40
1.0
 40
2.0
 40
2.0
 40
2.0
 40
3.0
 40
3.0
 40
3.0
 40
4.0
 40
4.0
 40
4.0
 40
5.0
 40
5.0
 40
5.0
 40
6.0
 40
6.0
 40
6.0
 40
6.0
 10
40.24172973632811
 20
15.48501519097222
 30
0.0
 10
40.24172973632811
 20
15.48501519097222
 30
0.0
 10
45.75336574978297
 20
15.48501519097222
 30
0.0
 10
45.75336574978297
 20
15.48501519097222
 30
0.0
 10
45.75336574978297
 20
15.48501519097222
 30
0.0
 10
46.49078843858506
 20
15.5029296875
 30
0.0
 10
46.49078843858506
 20
14.66353217230902
 30
0.0
 10
46.49078843858506
 20
14.66353217230902
 30
0.0
 10
46.49096069335936
 20
-11.6427001953125
 30
0.0
 10
46.49096069335936
 20
-11.6427001953125
 30
0.0
 10
46.49096069335936
 20
-11.6427001953125
 30
0.0
 10
46.53867526584201
 20
-12.45264214409722
 30
0.0
 10
45.69927775065103
 20
-12.45264214409722
 30
0.0
 10
45.69927775065103
 20
-12.45264214409722
 30
0.0
 10
40.24224650065104
 20
-12.45264214409722
 30
0.0
 10
40.24224650065104
 20
-12.45264214409722
 30
0.0
 10
40.24224650065104
 20
-12.45264214409722
 30
0.0
 10
40.24172973632811
 20
15.48501519097222
 30
0.0
 10
40.24172973632811
 20
15.48501519097222
 30
0.0
  0
SPLINE
  5
1D4
330
34
100
AcDbEntity
  8
LAYER_1
 62
     7
100
AcDbSpline
210
0.0
220
0.0
230
1.0
 70
     8
 71
     3
 72
    11
 73
     7
 74
     0
 42
0.0000000001
 43
0.0000000001
 40
0.0
 40
0.0
 40
0.0
 40
0.0
 40
1.0
 40
1.0
 40
1.0
 40
2.0
 40
2.0
 40
2.0
 40
2.0
 10
44.67453409830728
 20
10.10928819444444
 30
0.0
 10
44.67453409830728
 20
10.10928819444444
 30
0.0
 10
45.1895758734809
 20
10.10946044921875
 30
0.0
 10
45.73717380099825
 20
10.10946044921875
 30
0.0
 10
46.52300008138022
 20
10.10946044921875
 30
0.0
 10
46.53488566080728
 20
9.275919596354166
 30
0.0
 10
46.53488566080728
 20
9.275919596354166
 30
0.0
  0
SPLINE
  5
1D3
330
34
100
AcDbEntity
  8
LAYER_1
  6
AI9-LTYPE1
 62
     7
100
AcDbSpline
210
0.0
220
0.0
230
1.0
 70
     8
 71
     3
 72
    11
 73
     7
 74
     0
 42
0.0000000001
 43
0.0000000001
 40
0.0
 40
0.0
 40
0.0
 40
0.0
 40
1.0
 40
1.0
 40
1.0
 40
2.0
 40
2.0
 40
2.0
 40
2.0
 10
44.63302069769965
 20
-7.090523274739582
 30
0.0
 10
44.63302069769965
 20
-7.090523274739582
 30
0.0
 10
45.8034918891059
 20
-7.090523274739582
 30
0.0
 10
45.8034918891059
 20
-7.090523274739582
 30
0.0
 10
45.8034918891059
 20
-7.090523274739582
 30
0.0
 10
46.5288567437066
 20
-7.094829644097221
 30
0.0
 10
46.5288567437066
 20
-6.261461046006943
 30
0.0
  0
LINE
  5
1D1
330
34
100
AcDbEntity
  8
LAYER_1
 62
     7
100
AcDbLine
 10
-46.48493199999999
 20
17.360181
 30
0.0
 11
-49.989111
 21
17.360181
 31
0.0
  0
LINE
  5
1D0
330
34
100
AcDbEntity
  8
LAYER_1
 62
     7
100
AcDbLine
 10
-49.426182
 20
19.989305
 30
0.0
 11
-49.426182
 21
18.05075
 31
0.0
  0
LINE
  5
1CF
330
34
100
AcDbEntity
  8
LAYER_1
 62
     7
100
AcDbLine
 10
-49.426182
 20
14.407389
 30
0.0
 11
-49.426182
 21
17.34864
 31
0.0
  0
POLYLINE
  5
1CA
330
34
100
AcDbEntity
  8
LAYER_1
 62
     7
100
AcDb2dPolyline
 66
     1
 10
0.0
 20
0.0
 30
0.0
 70
     1
  0
VERTEX
  5
1CB
330
1CA
100
AcDbEntity
  8
LAYER_1
 62
     7
100
AcDbVertex
100
AcDb2dVertex
 10
-31.281898
 20
16.090146
 30
0.0
  0
VERTEX
  5
1CC
330
1CA
100
AcDbEntity
  8
LAYER_1
 62
     7
100
AcDbVertex
100
AcDb2dVertex
 10
-31.655001
 20
17.482998
 30
0.0
  0
VERTEX
  5
1CD
330
1CA
100
AcDbEntity
  8
LAYER_1
 62
     7
100
AcDbVertex
100
AcDb2dVertex
 10
-32.02845
 20
16.090146
 30
0.0
  0
SEQEND
  5
1CE
330
1CA
100
AcDbEntity
  8
LAYER_1
 62
     7
  0
POLYLINE
  5
1C5
330
34
100
AcDbEntity
  8
LAYER_1
 62
     7
100
AcDb2dPolyline
 66
     1
 10
0.0
 20
0.0
 30
0.0
 70
     1
  0
VERTEX
  5
1C6
330
1C5
100
AcDbEntity
  8
LAYER_1
 62
     7
100
AcDbVertex
100
AcDb2dVertex
 10
-38.04462
 20
12.089701
 30
0.0
  0
VERTEX
  5
1C7
330
1C5
100
AcDbEntity
  8
LAYER_1
 62
     7
100
AcDbVertex
100
AcDb2dVertex
 10
-38.417724
 20
13.482553
 30
0.0
  0
VERTEX
  5
1C8
330
1C5
100
AcDbEntity
  8
LAYER_1
 62
     7
100
AcDbVertex
100
AcDb2dVertex
 10
-38.791
 20
12.089701
 30
0.0
  0
SEQEND
  5
1C9
330
1C5
100
AcDbEntity
  8
LAYER_1
 62
     7
  0
POLYLINE
  5
1C0
330
34
100
AcDbEntity
  8
LAYER_1
 62
     7
100
AcDb2dPolyline
 66
     1
 10
0.0
 20
0.0
 30
0.0
 70
     1
  0
VERTEX
  5
1C1
330
1C0
100
AcDbEntity
  8
LAYER_1
 62
     7
100
AcDbVertex
100
AcDb2dVertex
 10
-48.998129
 20
12.851584
 30
0.0
  0
VERTEX
  5
1C2
330
1C0
100
AcDbEntity
  8
LAYER_1
 62
     7
100
AcDbVertex
100
AcDb2dVertex
 10
-49.37140499999999
 20
14.244436
 30
0.0
  0
VERTEX
  5
1C3
330
1C0
100
AcDbEntity
  8
LAYER_1
 62
     7
100
AcDbVertex
100
AcDb2dVertex
 10
-49.744681
 20
12.851584
 30
0.0
  0
SEQEND
  5
1C4
330
1C0
100
AcDbEntity
  8
LAYER_1
 62
     7
  0
POLYLINE
  5
1BB
330
34
100
AcDbEntity
  8
LAYER_1
 62
     7
100
AcDb2dPolyline
 66
     1
 10
0.0
 20
0.0
 30
0.0
 70
     1
  0
VERTEX
  5
1BC
330
1BB
100
AcDbEntity
  8
LAYER_1
 62
     7
100
AcDbVertex
100
AcDb2dVertex
 10
-27.37671
 20
15.804376
 30
0.0
  0
VERTEX
  5
1BD
330
1BB
100
AcDbEntity
  8
LAYER_1
 62
     7
100
AcDbVertex
100
AcDb2dVertex
 10
-27.749814
 20
17.197228
 30
0.0
  0
VERTEX
  5
1BE
330
1BB
100
AcDbEntity
  8
LAYER_1
 62
     7
100
AcDbVertex
100
AcDb2dVertex
 10
-28.123262
 20
15.804376
 30
0.0
  0
SEQEND
  5
1BF
330
1BB
100
AcDbEntity
  8
LAYER_1
 62
     7
  0
POLYLINE
  5
1B6
330
34
100
AcDbEntity
  8
LAYER_1
 62
     7
100
AcDb2dPolyline
 66
     1
 10
0.0
 20
0.0
 30
0.0
 70
     1
  0
VERTEX
  5
1B7
330
1B6
100
AcDbEntity
  8
LAYER_1
 62
     7
100
AcDbVertex
100
AcDb2dVertex
 10
-31.281898
 20
1.802818
 30
0.0
  0
VERTEX
  5
1B8
330
1B6
100
AcDbEntity
  8
LAYER_1
 62
     7
100
AcDbVertex
100
AcDb2dVertex
 10
-31.655001
 20
3.195670999999999
 30
0.0
  0
VERTEX
  5
1B9
330
1B6
100
AcDbEntity
  8
LAYER_1
 62
     7
100
AcDbVertex
100
AcDb2dVertex
 10
-32.02845
 20
1.802818
 30
0.0
  0
SEQEND
  5
1BA
330
1B6
100
AcDbEntity
  8
LAYER_1
 62
     7
  0
POLYLINE
  5
1B1
330
34
100
AcDbEntity
  8
LAYER_1
 62
     7
100
AcDb2dPolyline
 66
     1
 10
0.0
 20
0.0
 30
0.0
 70
     1
  0
VERTEX
  5
1B2
330
1B1
100
AcDbEntity
  8
LAYER_1
 62
     7
100
AcDbVertex
100
AcDb2dVertex
 10
-38.791
 20
16.625686
 30
0.0
  0
VERTEX
  5
1B3
330
1B1
100
AcDbEntity
  8
LAYER_1
 62
     7
100
AcDbVertex
100
AcDb2dVertex
 10
-38.417896
 20
15.232834
 30
0.0
  0
VERTEX
  5
1B4
330
1B1
100
AcDbEntity
  8
LAYER_1
 62
     7
100
AcDbVertex
100
AcDb2dVertex
 10
-38.04462
 20
16.625686
 30
0.0
  0
SEQEND
  5
1B5
330
1B1
100
AcDbEntity
  8
LAYER_1
 62
     7
  0
POLYLINE
  5
1AC
330
34
100
AcDbEntity
  8
LAYER_1
 62
     7
100
AcDb2dPolyline
 66
     1
 10
0.0
 20
0.0
 30
0.0
 70
     1
  0
VERTEX
  5
1AD
330
1AC
100
AcDbEntity
  8
LAYER_1
 62
     7
100
AcDbVertex
100
AcDb2dVertex
 10
22.48898
 20
10.234517
 30
0.0
  0
VERTEX
  5
1AE
330
1AC
100
AcDbEntity
  8
LAYER_1
 62
     7
100
AcDbVertex
100
AcDb2dVertex
 10
22.115704
 20
11.62737
 30
0.0
  0
VERTEX
  5
1AF
330
1AC
100
AcDbEntity
  8
LAYER_1
 62
     7
100
AcDbVertex
100
AcDb2dVertex
 10
21.742428
 20
10.234517
 30
0.0
  0
SEQEND
  5
1B0
330
1AC
100
AcDbEntity
  8
LAYER_1
 62
     7
  0
POLYLINE
  5
1A7
330
34
100
AcDbEntity
  8
LAYER_1
 62
     7
100
AcDb2dPolyline
 66
     1
 10
0.0
 20
0.0
 30
0.0
 70
     1
  0
VERTEX
  5
1A8
330
1A7
100
AcDbEntity
  8
LAYER_1
 62
     7
100
AcDbVertex
100
AcDb2dVertex
 10
21.742428
 20
14.770502
 30
0.0
  0
VERTEX
  5
1A9
330
1A7
100
AcDbEntity
  8
LAYER_1
 62
     7
100
AcDbVertex
100
AcDb2dVertex
 10
22.115704
 20
13.37765
 30
0.0
  0
VERTEX
  5
1AA
330
1A7
100
AcDbEntity
  8
LAYER_1
 62
     7
100
AcDbVertex
100
AcDb2dVertex
 10
22.48898
 20
14.770502
 30
0.0
  0
SEQEND
  5
1AB
330
1A7
100
AcDbEntity
  8
LAYER_1
 62
     7
  0
LINE
  5
1A6
330
34
100
AcDbEntity
  8
LAYER_1
 62
     7
100
AcDbLine
 10
-25.103636
 20
22.053951
 30
0.0
 11
-35.541069
 21
22.053951
 31
0.0
  0
POLYLINE
  5
1A1
330
34
100
AcDbEntity
  8
LAYER_1
 62
     7
100
AcDb2dPolyline
 66
     1
 10
0.0
 20
0.0
 30
0.0
 70
     1
  0
VERTEX
  5
1A2
330
1A1
100
AcDbEntity
  8
LAYER_1
 62
     7
100
AcDbVertex
100
AcDb2dVertex
 10
-26.789665
 20
23.388409
 30
0.0
  0
VERTEX
  5
1A3
330
1A1
100
AcDbEntity
  8
LAYER_1
 62
     7
100
AcDbVertex
100
AcDb2dVertex
 10
-26.416562
 20
21.995557
 30
0.0
  0
VERTEX
  5
1A4
330
1A1
100
AcDbEntity
  8
LAYER_1
 62
     7
100
AcDbVertex
100
AcDb2dVertex
 10
-26.043285
 20
23.388409
 30
0.0
  0
SEQEND
  5
1A5
330
1A1
100
AcDbEntity
  8
LAYER_1
 62
     7
  0
LINE
  5
1A0
330
34
100
AcDbEntity
  8
LAYER_1
 62
     7
100
AcDbLine
 10
-26.289954
 20
22.891626
 30
0.0
 11
-26.290127
 21
25.971369
 31
0.0
  0
POLYLINE
  5
19B
330
34
100
AcDbEntity
  8
LAYER_1
 62
     7
100
AcDb2dPolyline
 66
     1
 10
0.0
 20
0.0
 30
0.0
 70
     1
  0
VERTEX
  5
19C
330
19B
100
AcDbEntity
  8
LAYER_1
 62
     7
100
AcDbVertex
100
AcDb2dVertex
 10
-26.646866
 20
23.459894
 30
0.0
  0
VERTEX
  5
19D
330
19B
100
AcDbEntity
  8
LAYER_1
 62
     7
100
AcDbVertex
100
AcDb2dVertex
 10
-26.27359
 20
22.067042
 30
0.0
  0
VERTEX
  5
19E
330
19B
100
AcDbEntity
  8
LAYER_1
 62
     7
100
AcDbVertex
100
AcDb2dVertex
 10
-25.900314
 20
23.459894
 30
0.0
  0
SEQEND
  5
19F
330
19B
100
AcDbEntity
  8
LAYER_1
 62
     7
  0
LINE
  5
19A
330
34
100
AcDbEntity
  8
LAYER_1
 62
     7
100
AcDbLine
 10
-31.671538
 20
17.512282
 30
0.0
 11
-31.671538
 21
19.863387
 31
0.0
  0
LINE
  5
199
330
34
100
AcDbEntity
  8
LAYER_1
 62
     7
100
AcDbLine
 10
-26.24224
 20
19.703018
 30
0.0
 11
-26.242412
 21
22.053951
 31
0.0
  0
LINE
  5
198
330
34
100
AcDbEntity
  8
LAYER_1
 62
     7
100
AcDbLine
 10
-31.671538
 20
20.629404
 30
0.0
 11
-31.67171
 21
21.804354
 31
0.0
  0
POLYLINE
  5
193
330
34
100
AcDbEntity
  8
LAYER_1
 62
     7
100
AcDb2dPolyline
 66
     1
 10
0.0
 20
0.0
 30
0.0
 70
     1
  0
VERTEX
  5
194
330
193
100
AcDbEntity
  8
LAYER_1
 62
     7
100
AcDbVertex
100
AcDb2dVertex
 10
-32.02845
 20
21.197673
 30
0.0
  0
VERTEX
  5
195
330
193
100
AcDbEntity
  8
LAYER_1
 62
     7
100
AcDbVertex
100
AcDb2dVertex
 10
-31.655174
 20
19.80482
 30
0.0
  0
VERTEX
  5
196
330
193
100
AcDbEntity
  8
LAYER_1
 62
     7
100
AcDbVertex
100
AcDb2dVertex
 10
-31.281898
 20
21.197673
 30
0.0
  0
SEQEND
  5
197
330
193
100
AcDbEntity
  8
LAYER_1
 62
     7
  0
POLYLINE
  5
18E
330
34
100
AcDbEntity
  8
LAYER_1
 62
     7
100
AcDb2dPolyline
 66
     1
 10
0.0
 20
0.0
 30
0.0
 70
     1
  0
VERTEX
  5
18F
330
18E
100
AcDbEntity
  8
LAYER_1
 62
     7
100
AcDbVertex
100
AcDb2dVertex
 10
-49.744681
 20
-6.2339
 30
0.0
  0
VERTEX
  5
190
330
18E
100
AcDbEntity
  8
LAYER_1
 62
     7
100
AcDbVertex
100
AcDb2dVertex
 10
-49.37140499999999
 20
-7.626752
 30
0.0
  0
VERTEX
  5
191
330
18E
100
AcDbEntity
  8
LAYER_1
 62
     7
100
AcDbVertex
100
AcDb2dVertex
 10
-48.998129
 20
-6.2339
 30
0.0
  0
SEQEND
  5
192
330
18E
100
AcDbEntity
  8
LAYER_1
 62
     7
  0
POLYLINE
  5
189
330
34
100
AcDbEntity
  8
LAYER_1
 62
     7
100
AcDb2dPolyline
 66
     1
 10
0.0
 20
0.0
 30
0.0
 70
     1
  0
VERTEX
  5
18A
330
189
100
AcDbEntity
  8
LAYER_1
 62
     7
100
AcDbVertex
100
AcDb2dVertex
 10
-49.744681
 20
18.816423
 30
0.0
  0
VERTEX
  5
18B
330
189
100
AcDbEntity
  8
LAYER_1
 62
     7
100
AcDbVertex
100
AcDb2dVertex
 10
-49.37140499999999
 20
17.42357
 30
0.0
  0
VERTEX
  5
18C
330
189
100
AcDbEntity
  8
LAYER_1
 62
     7
100
AcDbVertex
100
AcDb2dVertex
 10
-48.998129
 20
18.816423
 30
0.0
  0
SEQEND
  5
18D
330
189
100
AcDbEntity
  8
LAYER_1
 62
     7
  0
POLYLINE
  5
184
330
34
100
AcDbEntity
  8
LAYER_1
 62
     7
100
AcDb2dPolyline
 66
     1
 10
0.0
 20
0.0
 30
0.0
 70
     1
  0
VERTEX
  5
185
330
184
100
AcDbEntity
  8
LAYER_1
 62
     7
100
AcDbVertex
100
AcDb2dVertex
 10
11.440042
 20
10.9964
 30
0.0
  0
VERTEX
  5
186
330
184
100
AcDbEntity
  8
LAYER_1
 62
     7
100
AcDbVertex
100
AcDb2dVertex
 10
11.066939
 20
12.389252
 30
0.0
  0
VERTEX
  5
187
330
184
100
AcDbEntity
  8
LAYER_1
 62
     7
100
AcDbVertex
100
AcDb2dVertex
 10
10.693663
 20
10.9964
 30
0.0
  0
SEQEND
  5
188
330
184
100
AcDbEntity
  8
LAYER_1
 62
     7
  0
POLYLINE
  5
17F
330
34
100
AcDbEntity
  8
LAYER_1
 62
     7
100
AcDb2dPolyline
 66
     1
 10
0.0
 20
0.0
 30
0.0
 70
     1
  0
VERTEX
  5
180
330
17F
100
AcDbEntity
  8
LAYER_1
 62
     7
100
AcDbVertex
100
AcDb2dVertex
 10
10.693663
 20
-8.089083999999999
 30
0.0
  0
VERTEX
  5
181
330
17F
100
AcDbEntity
  8
LAYER_1
 62
     7
100
AcDbVertex
100
AcDb2dVertex
 10
11.066766
 20
-9.481935999999999
 30
0.0
  0
VERTEX
  5
182
330
17F
100
AcDbEntity
  8
LAYER_1
 62
     7
100
AcDbVertex
100
AcDb2dVertex
 10
11.440042
 20
-8.089083999999999
 30
0.0
  0
SEQEND
  5
183
330
17F
100
AcDbEntity
  8
LAYER_1
 62
     7
  0
POLYLINE
  5
17A
330
34
100
AcDbEntity
  8
LAYER_1
 62
     7
100
AcDb2dPolyline
 66
     1
 10
0.0
 20
0.0
 30
0.0
 70
     1
  0
VERTEX
  5
17B
330
17A
100
AcDbEntity
  8
LAYER_1
 62
     7
100
AcDbVertex
100
AcDb2dVertex
 10
10.693663
 20
16.961239
 30
0.0
  0
VERTEX
  5
17C
330
17A
100
AcDbEntity
  8
LAYER_1
 62
     7
100
AcDbVertex
100
AcDb2dVertex
 10
11.066766
 20
15.568387
 30
0.0
  0
VERTEX
  5
17D
330
17A
100
AcDbEntity
  8
LAYER_1
 62
     7
100
AcDbVertex
100
AcDb2dVertex
 10
11.440042
 20
16.961239
 30
0.0
  0
SEQEND
  5
17E
330
17A
100
AcDbEntity
  8
LAYER_1
 62
     7
  0
POLYLINE
  5
175
330
34
100
AcDbEntity
  8
LAYER_1
 62
     7
100
AcDb2dPolyline
 66
     1
 10
0.0
 20
0.0
 30
0.0
 70
     1
  0
VERTEX
  5
176
330
175
100
AcDbEntity
  8
LAYER_1
 62
     7
100
AcDbVertex
100
AcDb2dVertex
 10
-28.123262
 20
-9.091435
 30
0.0
  0
VERTEX
  5
177
330
175
100
AcDbEntity
  8
LAYER_1
 62
     7
100
AcDbVertex
100
AcDb2dVertex
 10
-27.749986
 20
-10.484287
 30
0.0
  0
VERTEX
  5
178
330
175
100
AcDbEntity
  8
LAYER_1
 62
     7
100
AcDbVertex
100
AcDb2dVertex
 10
-27.37671
 20
-9.091435
 30
0.0
  0
SEQEND
  5
179
330
175
100
AcDbEntity
  8
LAYER_1
 62
     7
  0
POLYLINE
  5
170
330
34
100
AcDbEntity
  8
LAYER_1
 62
     7
100
AcDb2dPolyline
 66
     1
 10
0.0
 20
0.0
 30
0.0
 70
     1
  0
VERTEX
  5
171
330
170
100
AcDbEntity
  8
LAYER_1
 62
     7
100
AcDbVertex
100
AcDb2dVertex
 10
-31.933021
 20
-9.091435
 30
0.0
  0
VERTEX
  5
172
330
170
100
AcDbEntity
  8
LAYER_1
 62
     7
100
AcDbVertex
100
AcDb2dVertex
 10
-31.559917
 20
-10.484287
 30
0.0
  0
VERTEX
  5
173
330
170
100
AcDbEntity
  8
LAYER_1
 62
     7
100
AcDbVertex
100
AcDb2dVertex
 10
-31.186641
 20
-9.091435
 30
0.0
  0
SEQEND
  5
174
330
170
100
AcDbEntity
  8
LAYER_1
 62
     7
  0
POLYLINE
  5
16B
330
34
100
AcDbEntity
  8
LAYER_1
 62
     7
100
AcDb2dPolyline
 66
     1
 10
0.0
 20
0.0
 30
0.0
 70
     1
  0
VERTEX
  5
16C
330
16B
100
AcDbEntity
  8
LAYER_1
 62
     7
100
AcDbVertex
100
AcDb2dVertex
 10
-31.933021
 20
4.814865
 30
0.0
  0
VERTEX
  5
16D
330
16B
100
AcDbEntity
  8
LAYER_1
 62
     7
100
AcDbVertex
100
AcDb2dVertex
 10
-31.559917
 20
3.422012999999999
 30
0.0
  0
VERTEX
  5
16E
330
16B
100
AcDbEntity
  8
LAYER_1
 62
     7
100
AcDbVertex
100
AcDb2dVertex
 10
-31.186641
 20
4.814865
 30
0.0
  0
SEQEND
  5
16F
330
16B
100
AcDbEntity
  8
LAYER_1
 62
     7
  0
POLYLINE
  5
166
330
34
100
AcDbEntity
  8
LAYER_1
 62
     7
100
AcDb2dPolyline
 66
     1
 10
0.0
 20
0.0
 30
0.0
 70
     1
  0
VERTEX
  5
167
330
166
100
AcDbEntity
  8
LAYER_1
 62
     7
100
AcDbVertex
100
AcDb2dVertex
 10
29.061017
 20
14.234962
 30
0.0
  0
VERTEX
  5
168
330
166
100
AcDbEntity
  8
LAYER_1
 62
     7
100
AcDbVertex
100
AcDb2dVertex
 10
28.687913
 20
15.627814
 30
0.0
  0
VERTEX
  5
169
330
166
100
AcDbEntity
  8
LAYER_1
 62
     7
100
AcDbVertex
100
AcDb2dVertex
 10
28.314637
 20
14.234962
 30
0.0
  0
SEQEND
  5
16A
330
166
100
AcDbEntity
  8
LAYER_1
 62
     7
  0
POLYLINE
  5
161
330
34
100
AcDbEntity
  8
LAYER_1
 62
     7
100
AcDb2dPolyline
 66
     1
 10
0.0
 20
0.0
 30
0.0
 70
     1
  0
VERTEX
  5
162
330
161
100
AcDbEntity
  8
LAYER_1
 62
     7
100
AcDbVertex
100
AcDb2dVertex
 10
33.53774600000001
 20
13.949192
 30
0.0
  0
VERTEX
  5
163
330
161
100
AcDbEntity
  8
LAYER_1
 62
     7
100
AcDbVertex
100
AcDb2dVertex
 10
33.164642
 20
15.342044
 30
0.0
  0
VERTEX
  5
164
330
161
100
AcDbEntity
  8
LAYER_1
 62
     7
100
AcDbVertex
100
AcDb2dVertex
 10
32.791366
 20
13.949192
 30
0.0
  0
SEQEND
  5
165
330
161
100
AcDbEntity
  8
LAYER_1
 62
     7
  0
POLYLINE
  5
15C
330
34
100
AcDbEntity
  8
LAYER_1
 62
     7
100
AcDb2dPolyline
 66
     1
 10
0.0
 20
0.0
 30
0.0
 70
     1
  0
VERTEX
  5
15D
330
15C
100
AcDbEntity
  8
LAYER_1
 62
     7
100
AcDbVertex
100
AcDb2dVertex
 10
29.061017
 20
-0.052365
 30
0.0
  0
VERTEX
  5
15E
330
15C
100
AcDbEntity
  8
LAYER_1
 62
     7
100
AcDbVertex
100
AcDb2dVertex
 10
28.687913
 20
1.340486999999999
 30
0.0
  0
VERTEX
  5
15F
330
15C
100
AcDbEntity
  8
LAYER_1
 62
     7
100
AcDbVertex
100
AcDb2dVertex
 10
28.314637
 20
-0.052365
 30
0.0
  0
SEQEND
  5
160
330
15C
100
AcDbEntity
  8
LAYER_1
 62
     7
  0
POLYLINE
  5
157
330
34
100
AcDbEntity
  8
LAYER_1
 62
     7
100
AcDb2dPolyline
 66
     1
 10
0.0
 20
0.0
 30
0.0
 70
     1
  0
VERTEX
  5
158
330
157
100
AcDbEntity
  8
LAYER_1
 62
     7
100
AcDbVertex
100
AcDb2dVertex
 10
32.791366
 20
-10.946619
 30
0.0
  0
VERTEX
  5
159
330
157
100
AcDbEntity
  8
LAYER_1
 62
     7
100
AcDbVertex
100
AcDb2dVertex
 10
33.16447
 20
-12.339471
 30
0.0
  0
VERTEX
  5
15A
330
157
100
AcDbEntity
  8
LAYER_1
 62
     7
100
AcDbVertex
100
AcDb2dVertex
 10
33.53774600000001
 20
-10.946619
 30
0.0
  0
SEQEND
  5
15B
330
157
100
AcDbEntity
  8
LAYER_1
 62
     7
  0
POLYLINE
  5
152
330
34
100
AcDbEntity
  8
LAYER_1
 62
     7
100
AcDb2dPolyline
 66
     1
 10
0.0
 20
0.0
 30
0.0
 70
     1
  0
VERTEX
  5
153
330
152
100
AcDbEntity
  8
LAYER_1
 62
     7
100
AcDbVertex
100
AcDb2dVertex
 10
28.409894
 20
-10.946619
 30
0.0
  0
VERTEX
  5
154
330
152
100
AcDbEntity
  8
LAYER_1
 62
     7
100
AcDbVertex
100
AcDb2dVertex
 10
28.782998
 20
-12.339471
 30
0.0
  0
VERTEX
  5
155
330
152
100
AcDbEntity
  8
LAYER_1
 62
     7
100
AcDbVertex
100
AcDb2dVertex
 10
29.156274
 20
-10.946619
 30
0.0
  0
SEQEND
  5
156
330
152
100
AcDbEntity
  8
LAYER_1
 62
     7
  0
POLYLINE
  5
14D
330
34
100
AcDbEntity
  8
LAYER_1
 62
     7
100
AcDb2dPolyline
 66
     1
 10
0.0
 20
0.0
 30
0.0
 70
     1
  0
VERTEX
  5
14E
330
14D
100
AcDbEntity
  8
LAYER_1
 62
     7
100
AcDbVertex
100
AcDb2dVertex
 10
28.409894
 20
2.959681999999999
 30
0.0
  0
VERTEX
  5
14F
330
14D
100
AcDbEntity
  8
LAYER_1
 62
     7
100
AcDbVertex
100
AcDb2dVertex
 10
28.782998
 20
1.566829
 30
0.0
  0
VERTEX
  5
150
330
14D
100
AcDbEntity
  8
LAYER_1
 62
     7
100
AcDbVertex
100
AcDb2dVertex
 10
29.156274
 20
2.959681999999999
 30
0.0
  0
SEQEND
  5
151
330
14D
100
AcDbEntity
  8
LAYER_1
 62
     7
  0
POLYLINE
  5
148
330
34
100
AcDbEntity
  8
LAYER_1
 62
     7
100
AcDb2dPolyline
 66
     1
 10
0.0
 20
0.0
 30
0.0
 70
     1
  0
VERTEX
  5
149
330
148
100
AcDbEntity
  8
LAYER_1
 62
     7
100
AcDbVertex
100
AcDb2dVertex
 10
43.30045799999999
 20
7.069507999999999
 30
0.0
  0
VERTEX
  5
14A
330
148
100
AcDbEntity
  8
LAYER_1
 62
     7
100
AcDbVertex
100
AcDb2dVertex
 10
44.655414
 20
7.562500999999999
 30
0.0
  0
VERTEX
  5
14B
330
148
100
AcDbEntity
  8
LAYER_1
 62
     7
100
AcDbVertex
100
AcDb2dVertex
 10
43.235345
 20
7.813132
 30
0.0
  0
SEQEND
  5
14C
330
148
100
AcDbEntity
  8
LAYER_1
 62
     7
  0
POLYLINE
  5
143
330
34
100
AcDbEntity
  8
LAYER_1
 62
     7
100
AcDb2dPolyline
 66
     1
 10
0.0
 20
0.0
 30
0.0
 70
     1
  0
VERTEX
  5
144
330
143
100
AcDbEntity
  8
LAYER_1
 62
     7
100
AcDbVertex
100
AcDb2dVertex
 10
44.919653
 20
18.404045
 30
0.0
  0
VERTEX
  5
145
330
143
100
AcDbEntity
  8
LAYER_1
 62
     7
100
AcDbVertex
100
AcDb2dVertex
 10
46.274781
 20
18.89721
 30
0.0
  0
VERTEX
  5
146
330
143
100
AcDbEntity
  8
LAYER_1
 62
     7
100
AcDbVertex
100
AcDb2dVertex
 10
44.85453999999999
 20
19.147668
 30
0.0
  0
SEQEND
  5
147
330
143
100
AcDbEntity
  8
LAYER_1
 62
     7
  0
POLYLINE
  5
13E
330
34
100
AcDbEntity
  8
LAYER_1
 62
     7
100
AcDb2dPolyline
 66
     1
 10
0.0
 20
0.0
 30
0.0
 70
     1
  0
VERTEX
  5
13F
330
13E
100
AcDbEntity
  8
LAYER_1
 62
     7
100
AcDbVertex
100
AcDb2dVertex
 10
21.359161
 20
-16.933161
 30
0.0
  0
VERTEX
  5
140
330
13E
100
AcDbEntity
  8
LAYER_1
 62
     7
100
AcDbVertex
100
AcDb2dVertex
 10
22.71429
 20
-16.440168
 30
0.0
  0
VERTEX
  5
141
330
13E
100
AcDbEntity
  8
LAYER_1
 62
     7
100
AcDbVertex
100
AcDb2dVertex
 10
21.294221
 20
-16.189537
 30
0.0
  0
SEQEND
  5
142
330
13E
100
AcDbEntity
  8
LAYER_1
 62
     7
  0
POLYLINE
  5
139
330
34
100
AcDbEntity
  8
LAYER_1
 62
     7
100
AcDb2dPolyline
 66
     1
 10
0.0
 20
0.0
 30
0.0
 70
     1
  0
VERTEX
  5
13A
330
139
100
AcDbEntity
  8
LAYER_1
 62
     7
100
AcDbVertex
100
AcDb2dVertex
 10
23.930925
 20
21.737691
 30
0.0
  0
VERTEX
  5
13B
330
139
100
AcDbEntity
  8
LAYER_1
 62
     7
100
AcDbVertex
100
AcDb2dVertex
 10
25.285881
 20
22.230857
 30
0.0
  0
VERTEX
  5
13C
330
139
100
AcDbEntity
  8
LAYER_1
 62
     7
100
AcDbVertex
100
AcDb2dVertex
 10
23.865813
 20
22.481315
 30
0.0
  0
SEQEND
  5
13D
330
139
100
AcDbEntity
  8
LAYER_1
 62
     7
  0
POLYLINE
  5
134
330
34
100
AcDbEntity
  8
LAYER_1
 62
     7
100
AcDb2dPolyline
 66
     1
 10
0.0
 20
0.0
 30
0.0
 70
     1
  0
VERTEX
  5
135
330
134
100
AcDbEntity
  8
LAYER_1
 62
     7
100
AcDbVertex
100
AcDb2dVertex
 10
23.930925
 20
17.92776
 30
0.0
  0
VERTEX
  5
136
330
134
100
AcDbEntity
  8
LAYER_1
 62
     7
100
AcDbVertex
100
AcDb2dVertex
 10
25.285881
 20
18.420926
 30
0.0
  0
VERTEX
  5
137
330
134
100
AcDbEntity
  8
LAYER_1
 62
     7
100
AcDbVertex
100
AcDb2dVertex
 10
23.865813
 20
18.671384
 30
0.0
  0
SEQEND
  5
138
330
134
100
AcDbEntity
  8
LAYER_1
 62
     7
  0
POLYLINE
  5
12F
330
34
100
AcDbEntity
  8
LAYER_1
 62
     7
100
AcDb2dPolyline
 66
     1
 10
0.0
 20
0.0
 30
0.0
 70
     1
  0
VERTEX
  5
130
330
12F
100
AcDbEntity
  8
LAYER_1
 62
     7
100
AcDbVertex
100
AcDb2dVertex
 10
-12.978278
 20
-15.744775
 30
0.0
  0
VERTEX
  5
131
330
12F
100
AcDbEntity
  8
LAYER_1
 62
     7
100
AcDbVertex
100
AcDb2dVertex
 10
-11.623322
 20
-15.25161
 30
0.0
  0
VERTEX
  5
132
330
12F
100
AcDbEntity
  8
LAYER_1
 62
     7
100
AcDbVertex
100
AcDb2dVertex
 10
-13.04339
 20
-15.001152
 30
0.0
  0
SEQEND
  5
133
330
12F
100
AcDbEntity
  8
LAYER_1
 62
     7
  0
POLYLINE
  5
12A
330
34
100
AcDbEntity
  8
LAYER_1
 62
     7
100
AcDb2dPolyline
 66
     1
 10
0.0
 20
0.0
 30
0.0
 70
     1
  0
VERTEX
  5
12B
330
12A
100
AcDbEntity
  8
LAYER_1
 62
     7
100
AcDbVertex
100
AcDb2dVertex
 10
-14.787986
 20
-3.171899
 30
0.0
  0
VERTEX
  5
12C
330
12A
100
AcDbEntity
  8
LAYER_1
 62
     7
100
AcDbVertex
100
AcDb2dVertex
 10
-13.43303
 20
-2.678906
 30
0.0
  0
VERTEX
  5
12D
330
12A
100
AcDbEntity
  8
LAYER_1
 62
     7
100
AcDbVertex
100
AcDb2dVertex
 10
-14.853099
 20
-2.428275999999999
 30
0.0
  0
SEQEND
  5
12E
330
12A
100
AcDbEntity
  8
LAYER_1
 62
     7
  0
POLYLINE
  5
125
330
34
100
AcDbEntity
  8
LAYER_1
 62
     7
100
AcDb2dPolyline
 66
     1
 10
0.0
 20
0.0
 30
0.0
 70
     1
  0
VERTEX
  5
126
330
125
100
AcDbEntity
  8
LAYER_1
 62
     7
100
AcDbVertex
100
AcDb2dVertex
 10
-46.22276
 20
18.44952
 30
0.0
  0
VERTEX
  5
127
330
125
100
AcDbEntity
  8
LAYER_1
 62
     7
100
AcDbVertex
100
AcDb2dVertex
 10
-44.867632
 20
18.942685
 30
0.0
  0
VERTEX
  5
128
330
125
100
AcDbEntity
  8
LAYER_1
 62
     7
100
AcDbVertex
100
AcDb2dVertex
 10
-46.2877
 20
19.193144
 30
0.0
  0
SEQEND
  5
129
330
125
100
AcDbEntity
  8
LAYER_1
 62
     7
  0
POLYLINE
  5
120
330
34
100
AcDbEntity
  8
LAYER_1
 62
     7
100
AcDb2dPolyline
 66
     1
 10
0.0
 20
0.0
 30
0.0
 70
     1
  0
VERTEX
  5
121
330
120
100
AcDbEntity
  8
LAYER_1
 62
     7
100
AcDbVertex
100
AcDb2dVertex
 10
-36.411989
 20
-20.030991
 30
0.0
  0
VERTEX
  5
122
330
120
100
AcDbEntity
  8
LAYER_1
 62
     7
100
AcDbVertex
100
AcDb2dVertex
 10
-35.057033
 20
-19.537826
 30
0.0
  0
VERTEX
  5
123
330
120
100
AcDbEntity
  8
LAYER_1
 62
     7
100
AcDbVertex
100
AcDb2dVertex
 10
-36.47710200000001
 20
-19.287367
 30
0.0
  0
SEQEND
  5
124
330
120
100
AcDbEntity
  8
LAYER_1
 62
     7
  0
POLYLINE
  5
11B
330
34
100
AcDbEntity
  8
LAYER_1
 62
     7
100
AcDb2dPolyline
 66
     1
 10
0.0
 20
0.0
 30
0.0
 70
     1
  0
VERTEX
  5
11C
330
11B
100
AcDbEntity
  8
LAYER_1
 62
     7
100
AcDbVertex
100
AcDb2dVertex
 10
-41.93654399999999
 20
-20.030991
 30
0.0
  0
VERTEX
  5
11D
330
11B
100
AcDbEntity
  8
LAYER_1
 62
     7
100
AcDbVertex
100
AcDb2dVertex
 10
-40.58141599999999
 20
-19.537826
 30
0.0
  0
VERTEX
  5
11E
330
11B
100
AcDbEntity
  8
LAYER_1
 62
     7
100
AcDbVertex
100
AcDb2dVertex
 10
-42.001657
 20
-19.287367
 30
0.0
  0
SEQEND
  5
11F
330
11B
100
AcDbEntity
  8
LAYER_1
 62
     7
  0
POLYLINE
  5
116
330
34
100
AcDbEntity
  8
LAYER_1
 62
     7
100
AcDb2dPolyline
 66
     1
 10
0.0
 20
0.0
 30
0.0
 70
     1
  0
VERTEX
  5
117
330
116
100
AcDbEntity
  8
LAYER_1
 62
     7
100
AcDbVertex
100
AcDb2dVertex
 10
-47.46092700000001
 20
-15.744775
 30
0.0
  0
VERTEX
  5
118
330
116
100
AcDbEntity
  8
LAYER_1
 62
     7
100
AcDbVertex
100
AcDb2dVertex
 10
-46.105971
 20
-15.25161
 30
0.0
  0
VERTEX
  5
119
330
116
100
AcDbEntity
  8
LAYER_1
 62
     7
100
AcDbVertex
100
AcDb2dVertex
 10
-47.52604
 20
-15.001152
 30
0.0
  0
SEQEND
  5
11A
330
116
100
AcDbEntity
  8
LAYER_1
 62
     7
  0
POLYLINE
  5
111
330
34
100
AcDbEntity
  8
LAYER_1
 62
     7
100
AcDb2dPolyline
 66
     1
 10
0.0
 20
0.0
 30
0.0
 70
     1
  0
VERTEX
  5
112
330
111
100
AcDbEntity
  8
LAYER_1
 62
     7
100
AcDbVertex
100
AcDb2dVertex
 10
-38.126613
 20
-15.744775
 30
0.0
  0
VERTEX
  5
113
330
111
100
AcDbEntity
  8
LAYER_1
 62
     7
100
AcDbVertex
100
AcDb2dVertex
 10
-36.771485
 20
-15.25161
 30
0.0
  0
VERTEX
  5
114
330
111
100
AcDbEntity
  8
LAYER_1
 62
     7
100
AcDbVertex
100
AcDb2dVertex
 10
-38.19155300000001
 20
-15.001152
 30
0.0
  0
SEQEND
  5
115
330
111
100
AcDbEntity
  8
LAYER_1
 62
     7
  0
POLYLINE
  5
10C
330
34
100
AcDbEntity
  8
LAYER_1
 62
     7
100
AcDb2dPolyline
 66
     1
 10
0.0
 20
0.0
 30
0.0
 70
     1
  0
VERTEX
  5
10D
330
10C
100
AcDbEntity
  8
LAYER_1
 62
     7
100
AcDbVertex
100
AcDb2dVertex
 10
47.991817
 20
7.875144
 30
0.0
  0
VERTEX
  5
10E
330
10C
100
AcDbEntity
  8
LAYER_1
 62
     7
100
AcDbVertex
100
AcDb2dVertex
 10
46.598964
 20
7.502039999999999
 30
0.0
  0
VERTEX
  5
10F
330
10C
100
AcDbEntity
  8
LAYER_1
 62
     7
100
AcDbVertex
100
AcDb2dVertex
 10
47.991817
 20
7.128764
 30
0.0
  0
SEQEND
  5
110
330
10C
100
AcDbEntity
  8
LAYER_1
 62
     7
  0
POLYLINE
  5
107
330
34
100
AcDbEntity
  8
LAYER_1
 62
     7
100
AcDb2dPolyline
 66
     1
 10
0.0
 20
0.0
 30
0.0
 70
     1
  0
VERTEX
  5
108
330
107
100
AcDbEntity
  8
LAYER_1
 62
     7
100
AcDbVertex
100
AcDb2dVertex
 10
41.51486499999999
 20
19.30510899999999
 30
0.0
  0
VERTEX
  5
109
330
107
100
AcDbEntity
  8
LAYER_1
 62
     7
100
AcDbVertex
100
AcDb2dVertex
 10
40.122013
 20
18.931833
 30
0.0
  0
VERTEX
  5
10A
330
107
100
AcDbEntity
  8
LAYER_1
 62
     7
100
AcDbVertex
100
AcDb2dVertex
 10
41.51486499999999
 20
18.558557
 30
0.0
  0
SEQEND
  5
10B
330
107
100
AcDbEntity
  8
LAYER_1
 62
     7
  0
POLYLINE
  5
102
330
34
100
AcDbEntity
  8
LAYER_1
 62
     7
100
AcDb2dPolyline
 66
     1
 10
0.0
 20
0.0
 30
0.0
 70
     1
  0
VERTEX
  5
103
330
102
100
AcDbEntity
  8
LAYER_1
 62
     7
100
AcDbVertex
100
AcDb2dVertex
 10
25.669665
 20
-16.032269
 30
0.0
  0
VERTEX
  5
104
330
102
100
AcDbEntity
  8
LAYER_1
 62
     7
100
AcDbVertex
100
AcDb2dVertex
 10
24.276813
 20
-16.405372
 30
0.0
  0
VERTEX
  5
105
330
102
100
AcDbEntity
  8
LAYER_1
 62
     7
100
AcDbVertex
100
AcDb2dVertex
 10
25.669665
 20
-16.778649
 30
0.0
  0
SEQEND
  5
106
330
102
100
AcDbEntity
  8
LAYER_1
 62
     7
  0
POLYLINE
  5
FD
330
34
100
AcDbEntity
  8
LAYER_1
 62
     7
100
AcDb2dPolyline
 66
     1
 10
0.0
 20
0.0
 30
0.0
 70
     1
  0
VERTEX
  5
FE
330
FD
100
AcDbEntity
  8
LAYER_1
 62
     7
100
AcDbVertex
100
AcDb2dVertex
 10
15.859066
 20
22.543499
 30
0.0
  0
VERTEX
  5
FF
330
FD
100
AcDbEntity
  8
LAYER_1
 62
     7
100
AcDbVertex
100
AcDb2dVertex
 10
14.466042
 20
22.170395
 30
0.0
  0
VERTEX
  5
100
330
FD
100
AcDbEntity
  8
LAYER_1
 62
     7
100
AcDbVertex
100
AcDb2dVertex
 10
15.859066
 20
21.796947
 30
0.0
  0
SEQEND
  5
101
330
FD
100
AcDbEntity
  8
LAYER_1
 62
     7
  0
POLYLINE
  5
F8
330
34
100
AcDbEntity
  8
LAYER_1
 62
     7
100
AcDb2dPolyline
 66
     1
 10
0.0
 20
0.0
 30
0.0
 70
     1
  0
VERTEX
  5
F9
330
F8
100
AcDbEntity
  8
LAYER_1
 62
     7
100
AcDbVertex
100
AcDb2dVertex
 10
21.383449
 20
18.638311
 30
0.0
  0
VERTEX
  5
FA
330
F8
100
AcDbEntity
  8
LAYER_1
 62
     7
100
AcDbVertex
100
AcDb2dVertex
 10
19.990597
 20
18.265035
 30
0.0
  0
VERTEX
  5
FB
330
F8
100
AcDbEntity
  8
LAYER_1
 62
     7
100
AcDbVertex
100
AcDb2dVertex
 10
21.383449
 20
17.891759
 30
0.0
  0
SEQEND
  5
FC
330
F8
100
AcDbEntity
  8
LAYER_1
 62
     7
  0
POLYLINE
  5
F3
330
34
100
AcDbEntity
  8
LAYER_1
 62
     7
100
AcDb2dPolyline
 66
     1
 10
0.0
 20
0.0
 30
0.0
 70
     1
  0
VERTEX
  5
F4
330
F3
100
AcDbEntity
  8
LAYER_1
 62
     7
100
AcDbVertex
100
AcDb2dVertex
 10
18.406542
 20
17.832503
 30
0.0
  0
VERTEX
  5
F5
330
F3
100
AcDbEntity
  8
LAYER_1
 62
     7
100
AcDbVertex
100
AcDb2dVertex
 10
19.761498
 20
18.325669
 30
0.0
  0
VERTEX
  5
F6
330
F3
100
AcDbEntity
  8
LAYER_1
 62
     7
100
AcDbVertex
100
AcDb2dVertex
 10
18.34143
 20
18.576127
 30
0.0
  0
SEQEND
  5
F7
330
F3
100
AcDbEntity
  8
LAYER_1
 62
     7
  0
POLYLINE
  5
EE
330
34
100
AcDbEntity
  8
LAYER_1
 62
     7
100
AcDb2dPolyline
 66
     1
 10
0.0
 20
0.0
 30
0.0
 70
     1
  0
VERTEX
  5
EF
330
EE
100
AcDbEntity
  8
LAYER_1
 62
     7
100
AcDbVertex
100
AcDb2dVertex
 10
15.859066
 20
18.543054
 30
0.0
  0
VERTEX
  5
F0
330
EE
100
AcDbEntity
  8
LAYER_1
 62
     7
100
AcDbVertex
100
AcDb2dVertex
 10
14.466042
 20
18.169778
 30
0.0
  0
VERTEX
  5
F1
330
EE
100
AcDbEntity
  8
LAYER_1
 62
     7
100
AcDbVertex
100
AcDb2dVertex
 10
15.859066
 20
17.796502
 30
0.0
  0
SEQEND
  5
F2
330
EE
100
AcDbEntity
  8
LAYER_1
 62
     7
  0
POLYLINE
  5
E9
330
34
100
AcDbEntity
  8
LAYER_1
 62
     7
100
AcDb2dPolyline
 66
     1
 10
0.0
 20
0.0
 30
0.0
 70
     1
  0
VERTEX
  5
EA
330
E9
100
AcDbEntity
  8
LAYER_1
 62
     7
100
AcDbVertex
100
AcDb2dVertex
 10
18.311285
 20
17.832503
 30
0.0
  0
VERTEX
  5
EB
330
E9
100
AcDbEntity
  8
LAYER_1
 62
     7
100
AcDbVertex
100
AcDb2dVertex
 10
19.666414
 20
18.325669
 30
0.0
  0
VERTEX
  5
EC
330
E9
100
AcDbEntity
  8
LAYER_1
 62
     7
100
AcDbVertex
100
AcDb2dVertex
 10
18.246173
 20
18.576127
 30
0.0
  0
SEQEND
  5
ED
330
E9
100
AcDbEntity
  8
LAYER_1
 62
     7
  0
POLYLINE
  5
E4
330
34
100
AcDbEntity
  8
LAYER_1
 62
     7
100
AcDb2dPolyline
 66
     1
 10
0.0
 20
0.0
 30
0.0
 70
     1
  0
VERTEX
  5
E5
330
E4
100
AcDbEntity
  8
LAYER_1
 62
     7
100
AcDbVertex
100
AcDb2dVertex
 10
15.76381
 20
18.543054
 30
0.0
  0
VERTEX
  5
E6
330
E4
100
AcDbEntity
  8
LAYER_1
 62
     7
100
AcDbVertex
100
AcDb2dVertex
 10
14.370785
 20
18.169778
 30
0.0
  0
VERTEX
  5
E7
330
E4
100
AcDbEntity
  8
LAYER_1
 62
     7
100
AcDbVertex
100
AcDb2dVertex
 10
15.76381
 20
17.796502
 30
0.0
  0
SEQEND
  5
E8
330
E4
100
AcDbEntity
  8
LAYER_1
 62
     7
  0
POLYLINE
  5
DF
330
34
100
AcDbEntity
  8
LAYER_1
 62
     7
100
AcDb2dPolyline
 66
     1
 10
0.0
 20
0.0
 30
0.0
 70
     1
  0
VERTEX
  5
E0
330
DF
100
AcDbEntity
  8
LAYER_1
 62
     7
100
AcDbVertex
100
AcDb2dVertex
 10
-16.192552
 20
-14.93914
 30
0.0
  0
VERTEX
  5
E1
330
DF
100
AcDbEntity
  8
LAYER_1
 62
     7
100
AcDbVertex
100
AcDb2dVertex
 10
-17.585404
 20
-15.312244
 30
0.0
  0
VERTEX
  5
E2
330
DF
100
AcDbEntity
  8
LAYER_1
 62
     7
100
AcDbVertex
100
AcDb2dVertex
 10
-16.192552
 20
-15.68552
 30
0.0
  0
SEQEND
  5
E3
330
DF
100
AcDbEntity
  8
LAYER_1
 62
     7
  0
POLYLINE
  5
DA
330
34
100
AcDbEntity
  8
LAYER_1
 62
     7
100
AcDb2dPolyline
 66
     1
 10
0.0
 20
0.0
 30
0.0
 70
     1
  0
VERTEX
  5
DB
330
DA
100
AcDbEntity
  8
LAYER_1
 62
     7
100
AcDbVertex
100
AcDb2dVertex
 10
-10.001371
 20
-2.271006999999999
 30
0.0
  0
VERTEX
  5
DC
330
DA
100
AcDbEntity
  8
LAYER_1
 62
     7
100
AcDbVertex
100
AcDb2dVertex
 10
-11.394395
 20
-2.644111
 30
0.0
  0
VERTEX
  5
DD
330
DA
100
AcDbEntity
  8
LAYER_1
 62
     7
100
AcDbVertex
100
AcDb2dVertex
 10
-10.001371
 20
-3.017386999999999
 30
0.0
  0
SEQEND
  5
DE
330
DA
100
AcDbEntity
  8
LAYER_1
 62
     7
  0
POLYLINE
  5
D5
330
34
100
AcDbEntity
  8
LAYER_1
 62
     7
100
AcDb2dPolyline
 66
     1
 10
0.0
 20
0.0
 30
0.0
 70
     1
  0
VERTEX
  5
D6
330
D5
100
AcDbEntity
  8
LAYER_1
 62
     7
100
AcDbVertex
100
AcDb2dVertex
 10
-41.912257
 20
19.255328
 30
0.0
  0
VERTEX
  5
D7
330
D5
100
AcDbEntity
  8
LAYER_1
 62
     7
100
AcDbVertex
100
AcDb2dVertex
 10
-43.305281
 20
18.88205199999999
 30
0.0
  0
VERTEX
  5
D8
330
D5
100
AcDbEntity
  8
LAYER_1
 62
     7
100
AcDbVertex
100
AcDb2dVertex
 10
-41.912257
 20
18.508775
 30
0.0
  0
SEQEND
  5
D9
330
D5
100
AcDbEntity
  8
LAYER_1
 62
     7
  0
LINE
  5
D4
330
34
100
AcDbEntity
  8
LAYER_1
 62
     7
100
AcDbLine
 10
-26.189358
 20
19.04466
 30
0.0
 11
-26.189358
 21
17.639406
 31
0.0
  0
POLYLINE
  5
CF
330
34
100
AcDbEntity
  8
LAYER_1
 62
     7
100
AcDb2dPolyline
 66
     1
 10
0.0
 20
0.0
 30
0.0
 70
     1
  0
VERTEX
  5
D0
330
CF
100
AcDbEntity
  8
LAYER_1
 62
     7
100
AcDbVertex
100
AcDb2dVertex
 10
-25.878093
 20
18.303103
 30
0.0
  0
VERTEX
  5
D1
330
CF
100
AcDbEntity
  8
LAYER_1
 62
     7
100
AcDbVertex
100
AcDb2dVertex
 10
-26.251197
 20
19.695955
 30
0.0
  0
VERTEX
  5
D2
330
CF
100
AcDbEntity
  8
LAYER_1
 62
     7
100
AcDbVertex
100
AcDb2dVertex
 10
-26.624473
 20
18.303103
 30
0.0
  0
SEQEND
  5
D3
330
CF
100
AcDbEntity
  8
LAYER_1
 62
     7
  0
POLYLINE
  5
CA
330
34
100
AcDbEntity
  8
LAYER_1
 62
     7
100
AcDb2dPolyline
 66
     1
 10
0.0
 20
0.0
 30
0.0
 70
     1
  0
VERTEX
  5
CB
330
CA
100
AcDbEntity
  8
LAYER_1
 62
     7
100
AcDbVertex
100
AcDb2dVertex
 10
-44.579277
 20
-19.129926
 30
0.0
  0
VERTEX
  5
CC
330
CA
100
AcDbEntity
  8
LAYER_1
 62
     7
100
AcDbVertex
100
AcDb2dVertex
 10
-45.97212899999999
 20
-19.503202
 30
0.0
  0
VERTEX
  5
CD
330
CA
100
AcDbEntity
  8
LAYER_1
 62
     7
100
AcDbVertex
100
AcDb2dVertex
 10
-44.579277
 20
-19.876478
 30
0.0
  0
SEQEND
  5
CE
330
CA
100
AcDbEntity
  8
LAYER_1
 62
     7
  0
POLYLINE
  5
C5
330
34
100
AcDbEntity
  8
LAYER_1
 62
     7
100
AcDb2dPolyline
 66
     1
 10
0.0
 20
0.0
 30
0.0
 70
     1
  0
VERTEX
  5
C6
330
C5
100
AcDbEntity
  8
LAYER_1
 62
     7
100
AcDbVertex
100
AcDb2dVertex
 10
-38.959637
 20
-19.225183
 30
0.0
  0
VERTEX
  5
C7
330
C5
100
AcDbEntity
  8
LAYER_1
 62
     7
100
AcDbVertex
100
AcDb2dVertex
 10
-40.35249
 20
-19.598459
 30
0.0
  0
VERTEX
  5
C8
330
C5
100
AcDbEntity
  8
LAYER_1
 62
     7
100
AcDbVertex
100
AcDb2dVertex
 10
-38.959637
 20
-19.971735
 30
0.0
  0
SEQEND
  5
C9
330
C5
100
AcDbEntity
  8
LAYER_1
 62
     7
  0
POLYLINE
  5
C0
330
34
100
AcDbEntity
  8
LAYER_1
 62
     7
100
AcDb2dPolyline
 66
     1
 10
0.0
 20
0.0
 30
0.0
 70
     1
  0
VERTEX
  5
C1
330
C0
100
AcDbEntity
  8
LAYER_1
 62
     7
100
AcDbVertex
100
AcDb2dVertex
 10
-42.67431199999999
 20
-14.93914
 30
0.0
  0
VERTEX
  5
C2
330
C0
100
AcDbEntity
  8
LAYER_1
 62
     7
100
AcDbVertex
100
AcDb2dVertex
 10
-44.06716399999999
 20
-15.312244
 30
0.0
  0
VERTEX
  5
C3
330
C0
100
AcDbEntity
  8
LAYER_1
 62
     7
100
AcDbVertex
100
AcDb2dVertex
 10
-42.67431199999999
 20
-15.68552
 30
0.0
  0
SEQEND
  5
C4
330
C0
100
AcDbEntity
  8
LAYER_1
 62
     7
  0
POLYLINE
  5
BB
330
34
100
AcDbEntity
  8
LAYER_1
 62
     7
100
AcDb2dPolyline
 66
     1
 10
0.0
 20
0.0
 30
0.0
 70
     1
  0
VERTEX
  5
BC
330
BB
100
AcDbEntity
  8
LAYER_1
 62
     7
100
AcDbVertex
100
AcDb2dVertex
 10
-33.435255
 20
-14.93914
 30
0.0
  0
VERTEX
  5
BD
330
BB
100
AcDbEntity
  8
LAYER_1
 62
     7
100
AcDbVertex
100
AcDb2dVertex
 10
-34.828107
 20
-15.312244
 30
0.0
  0
VERTEX
  5
BE
330
BB
100
AcDbEntity
  8
LAYER_1
 62
     7
100
AcDbVertex
100
AcDb2dVertex
 10
-33.435255
 20
-15.68552
 30
0.0
  0
SEQEND
  5
BF
330
BB
100
AcDbEntity
  8
LAYER_1
 62
     7
  0
POLYLINE
  5
B6
330
34
100
AcDbEntity
  8
LAYER_1
 62
     7
100
AcDb2dPolyline
 66
     1
 10
0.0
 20
0.0
 30
0.0
 70
     1
  0
VERTEX
  5
B7
330
B6
100
AcDbEntity
  8
LAYER_1
 62
     7
100
AcDbVertex
100
AcDb2dVertex
 10
12.881987
 20
-21.219377
 30
0.0
  0
VERTEX
  5
B8
330
B6
100
AcDbEntity
  8
LAYER_1
 62
     7
100
AcDbVertex
100
AcDb2dVertex
 10
14.237115
 20
-20.726383
 30
0.0
  0
VERTEX
  5
B9
330
B6
100
AcDbEntity
  8
LAYER_1
 62
     7
100
AcDbVertex
100
AcDb2dVertex
 10
12.817047
 20
-20.475753
 30
0.0
  0
SEQEND
  5
BA
330
B6
100
AcDbEntity
  8
LAYER_1
 62
     7
  0
POLYLINE
  5
B1
330
34
100
AcDbEntity
  8
LAYER_1
 62
     7
100
AcDb2dPolyline
 66
     1
 10
0.0
 20
0.0
 30
0.0
 70
     1
  0
VERTEX
  5
B2
330
B1
100
AcDbEntity
  8
LAYER_1
 62
     7
100
AcDbVertex
100
AcDb2dVertex
 10
22.216473
 20
-21.219377
 30
0.0
  0
VERTEX
  5
B3
330
B1
100
AcDbEntity
  8
LAYER_1
 62
     7
100
AcDbVertex
100
AcDb2dVertex
 10
23.571429
 20
-20.726383
 30
0.0
  0
VERTEX
  5
B4
330
B1
100
AcDbEntity
  8
LAYER_1
 62
     7
100
AcDbVertex
100
AcDb2dVertex
 10
22.151361
 20
-20.475753
 30
0.0
  0
SEQEND
  5
B5
330
B1
100
AcDbEntity
  8
LAYER_1
 62
     7
  0
POLYLINE
  5
AC
330
34
100
AcDbEntity
  8
LAYER_1
 62
     7
100
AcDb2dPolyline
 66
     1
 10
0.0
 20
0.0
 30
0.0
 70
     1
  0
VERTEX
  5
AD
330
AC
100
AcDbEntity
  8
LAYER_1
 62
     7
100
AcDbVertex
100
AcDb2dVertex
 10
17.668775
 20
-20.413741
 30
0.0
  0
VERTEX
  5
AE
330
AC
100
AcDbEntity
  8
LAYER_1
 62
     7
100
AcDbVertex
100
AcDb2dVertex
 10
16.275923
 20
-20.786845
 30
0.0
  0
VERTEX
  5
AF
330
AC
100
AcDbEntity
  8
LAYER_1
 62
     7
100
AcDbVertex
100
AcDb2dVertex
 10
17.668775
 20
-21.160121
 30
0.0
  0
SEQEND
  5
B0
330
AC
100
AcDbEntity
  8
LAYER_1
 62
     7
  0
POLYLINE
  5
A7
330
34
100
AcDbEntity
  8
LAYER_1
 62
     7
100
AcDb2dPolyline
 66
     1
 10
0.0
 20
0.0
 30
0.0
 70
     1
  0
VERTEX
  5
A8
330
A7
100
AcDbEntity
  8
LAYER_1
 62
     7
100
AcDbVertex
100
AcDb2dVertex
 10
26.907832
 20
-20.413741
 30
0.0
  0
VERTEX
  5
A9
330
A7
100
AcDbEntity
  8
LAYER_1
 62
     7
100
AcDbVertex
100
AcDb2dVertex
 10
25.51498
 20
-20.786845
 30
0.0
  0
VERTEX
  5
AA
330
A7
100
AcDbEntity
  8
LAYER_1
 62
     7
100
AcDbVertex
100
AcDb2dVertex
 10
26.907832
 20
-21.160121
 30
0.0
  0
SEQEND
  5
AB
330
A7
100
AcDbEntity
  8
LAYER_1
 62
     7
  0
LINE
  5
A6
330
34
100
AcDbEntity
  8
LAYER_1
 62
     7
100
AcDbLine
 10
-37.191442
 20
20.167933
 30
0.0
 11
-37.191442
 21
19.810677
 31
0.0
  0
LINE
  5
A5
330
34
100
AcDbEntity
  8
LAYER_1
 62
     7
100
AcDbLine
 10
-41.15623
 20
20.096448
 30
0.0
 11
-41.15623
 21
19.810677
 31
0.0
  0
LINE
  5
A4
330
34
100
AcDbEntity
  8
LAYER_1
 62
     7
100
AcDbLine
 10
-40.10943799999999
 20
22.030008
 30
0.0
 11
-40.10960999999999
 21
26.190477
 31
0.0
  0
POLYLINE
  5
9D
330
34
100
AcDbEntity
  8
LAYER_1
 62
     7
100
AcDb2dPolyline
 66
     1
 10
0.0
 20
0.0
 30
0.0
  0
VERTEX
  5
9E
330
9D
100
AcDbEntity
  8
LAYER_1
 62
     7
100
AcDbVertex
100
AcDb2dVertex
 10
-39.559773
 20
26.487444
 30
0.0
  0
VERTEX
  5
9F
330
9D
100
AcDbEntity
  8
LAYER_1
 62
     7
100
AcDbVertex
100
AcDb2dVertex
 10
-39.721176
 20
26.465396
 30
0.0
  0
VERTEX
  5
A0
330
9D
100
AcDbEntity
  8
LAYER_1
 62
     7
100
AcDbVertex
100
AcDb2dVertex
 10
-39.86965900000001
 20
26.408724
 30
0.0
  0
VERTEX
  5
A1
330
9D
100
AcDbEntity
  8
LAYER_1
 62
     7
100
AcDbVertex
100
AcDb2dVertex
 10
-40.00487899999999
 20
26.312778
 30
0.0
  0
VERTEX
  5
A2
330
9D
100
AcDbEntity
  8
LAYER_1
 62
     7
100
AcDbVertex
100
AcDb2dVertex
 10
-40.10960999999999
 20
26.190477
 30
0.0
  0
SEQEND
  5
A3
330
9D
100
AcDbEntity
  8
LAYER_1
 62
     7
  0
POLYLINE
  5
96
330
34
100
AcDbEntity
  8
LAYER_1
 62
     7
100
AcDb2dPolyline
 66
     1
 10
0.0
 20
0.0
 30
0.0
  0
VERTEX
  5
97
330
96
100
AcDbEntity
  8
LAYER_1
 62
     7
100
AcDbVertex
100
AcDb2dVertex
 10
-39.005629
 20
26.190477
 30
0.0
  0
VERTEX
  5
98
330
96
100
AcDbEntity
  8
LAYER_1
 62
     7
100
AcDbVertex
100
AcDb2dVertex
 10
-39.114667
 20
26.312778
 30
0.0
  0
VERTEX
  5
99
330
96
100
AcDbEntity
  8
LAYER_1
 62
     7
100
AcDbVertex
100
AcDb2dVertex
 10
-39.24558
 20
26.408724
 30
0.0
  0
VERTEX
  5
9A
330
96
100
AcDbEntity
  8
LAYER_1
 62
     7
100
AcDbVertex
100
AcDb2dVertex
 10
-39.39837
 20
26.465396
 30
0.0
  0
VERTEX
  5
9B
330
96
100
AcDbEntity
  8
LAYER_1
 62
     7
100
AcDbVertex
100
AcDb2dVertex
 10
-39.559773
 20
26.487444
 30
0.0
  0
SEQEND
  5
9C
330
96
100
AcDbEntity
  8
LAYER_1
 62
     7
  0
POLYLINE
  5
8F
330
34
100
AcDbEntity
  8
LAYER_1
 62
     7
100
AcDb2dPolyline
 66
     1
 10
0.0
 20
0.0
 30
0.0
  0
VERTEX
  5
90
330
8F
100
AcDbEntity
  8
LAYER_1
 62
     7
100
AcDbVertex
100
AcDb2dVertex
 10
-40.10960999999999
 20
26.190477
 30
0.0
  0
VERTEX
  5
91
330
8F
100
AcDbEntity
  8
LAYER_1
 62
     7
100
AcDbVertex
100
AcDb2dVertex
 10
-40.00487899999999
 20
26.068349
 30
0.0
  0
VERTEX
  5
92
330
8F
100
AcDbEntity
  8
LAYER_1
 62
     7
100
AcDbVertex
100
AcDb2dVertex
 10
-39.86965900000001
 20
25.976709
 30
0.0
  0
VERTEX
  5
93
330
8F
100
AcDbEntity
  8
LAYER_1
 62
     7
100
AcDbVertex
100
AcDb2dVertex
 10
-39.721176
 20
25.915731
 30
0.0
  0
VERTEX
  5
94
330
8F
100
AcDbEntity
  8
LAYER_1
 62
     7
100
AcDbVertex
100
AcDb2dVertex
 10
-39.559773
 20
25.898161
 30
0.0
  0
SEQEND
  5
95
330
8F
100
AcDbEntity
  8
LAYER_1
 62
     7
  0
POLYLINE
  5
88
330
34
100
AcDbEntity
  8
LAYER_1
 62
     7
100
AcDb2dPolyline
 66
     1
 10
0.0
 20
0.0
 30
0.0
  0
VERTEX
  5
89
330
88
100
AcDbEntity
  8
LAYER_1
 62
     7
100
AcDbVertex
100
AcDb2dVertex
 10
-39.559773
 20
25.898161
 30
0.0
  0
VERTEX
  5
8A
330
88
100
AcDbEntity
  8
LAYER_1
 62
     7
100
AcDbVertex
100
AcDb2dVertex
 10
-39.39837
 20
25.915731
 30
0.0
  0
VERTEX
  5
8B
330
88
100
AcDbEntity
  8
LAYER_1
 62
     7
100
AcDbVertex
100
AcDb2dVertex
 10
-39.24558
 20
25.976709
 30
0.0
  0
VERTEX
  5
8C
330
88
100
AcDbEntity
  8
LAYER_1
 62
     7
100
AcDbVertex
100
AcDb2dVertex
 10
-39.114667
 20
26.068349
 30
0.0
  0
VERTEX
  5
8D
330
88
100
AcDbEntity
  8
LAYER_1
 62
     7
100
AcDbVertex
100
AcDb2dVertex
 10
-39.005629
 20
26.190477
 30
0.0
  0
SEQEND
  5
8E
330
88
100
AcDbEntity
  8
LAYER_1
 62
     7
  0
LINE
  5
87
330
34
100
AcDbEntity
  8
LAYER_1
 62
     7
100
AcDbLine
 10
-37.90561
 20
22.030008
 30
0.0
 11
-37.905783
 21
26.190477
 31
0.0
  0
LINE
  5
86
330
34
100
AcDbEntity
  8
LAYER_1
 62
     7
100
AcDbLine
 10
-41.682641
 20
22.030008
 30
0.0
 11
-40.10943799999999
 21
22.030008
 31
0.0
  0
LINE
  5
85
330
34
100
AcDbEntity
  8
LAYER_1
 62
     7
100
AcDbLine
 10
-40.10943799999999
 20
22.030008
 30
0.0
 11
-39.005457
 21
22.030008
 31
0.0
  0
LINE
  5
84
330
34
100
AcDbEntity
  8
LAYER_1
 62
     7
100
AcDbLine
 10
-39.005457
 20
22.030008
 30
0.0
 11
-37.90561
 21
22.030008
 31
0.0
  0
LINE
  5
83
330
34
100
AcDbEntity
  8
LAYER_1
 62
     7
100
AcDbLine
 10
-36.332752
 20
22.03018
 30
0.0
 11
-36.33258
 21
20.19291
 31
0.0
  0
LINE
  5
82
330
34
100
AcDbEntity
  8
LAYER_1
 62
     7
100
AcDbLine
 10
-37.90561
 20
22.030008
 30
0.0
 11
-36.332752
 21
22.03018
 31
0.0
  0
LINE
  5
81
330
34
100
AcDbEntity
  8
LAYER_1
 62
     7
100
AcDbLine
 10
-39.005457
 20
20.19291
 30
0.0
 11
-39.005457
 21
22.030008
 31
0.0
  0
LINE
  5
80
330
34
100
AcDbEntity
  8
LAYER_1
 62
     7
100
AcDbLine
 10
-41.682641
 20
20.19291
 30
0.0
 11
-36.33258
 21
20.19291
 31
0.0
  0
LINE
  5
7F
330
34
100
AcDbEntity
  8
LAYER_1
 62
     7
100
AcDbLine
 10
-41.682641
 20
20.19291
 30
0.0
 11
-41.682641
 21
22.030008
 31
0.0
  0
LINE
  5
7E
330
34
100
AcDbEntity
  8
LAYER_1
 62
     7
100
AcDbLine
 10
-37.0843
 20
20.167933
 30
0.0
 11
-37.0843
 21
19.810677
 31
0.0
  0
LINE
  5
7D
330
34
100
AcDbEntity
  8
LAYER_1
 62
     7
100
AcDbLine
 10
-41.04908799999999
 20
20.096448
 30
0.0
 11
-41.04908799999999
 21
19.810677
 31
0.0
  0
POLYLINE
  5
76
330
34
100
AcDbEntity
  8
LAYER_1
 62
     7
100
AcDb2dPolyline
 66
     1
 10
0.0
 20
0.0
 30
0.0
  0
VERTEX
  5
77
330
76
100
AcDbEntity
  8
LAYER_1
 62
     7
100
AcDbVertex
100
AcDb2dVertex
 10
-14.098795
 20
26.446103
 30
0.0
  0
VERTEX
  5
78
330
76
100
AcDbEntity
  8
LAYER_1
 62
     7
100
AcDbVertex
100
AcDb2dVertex
 10
-14.260198
 20
26.424227
 30
0.0
  0
VERTEX
  5
79
330
76
100
AcDbEntity
  8
LAYER_1
 62
     7
100
AcDbVertex
100
AcDb2dVertex
 10
-14.412988
 20
26.367555
 30
0.0
  0
VERTEX
  5
7A
330
76
100
AcDbEntity
  8
LAYER_1
 62
     7
100
AcDbVertex
100
AcDb2dVertex
 10
-14.543901
 20
26.271609
 30
0.0
  0
VERTEX
  5
7B
330
76
100
AcDbEntity
  8
LAYER_1
 62
     7
100
AcDbVertex
100
AcDb2dVertex
 10
-14.648632
 20
26.149308
 30
0.0
  0
SEQEND
  5
7C
330
76
100
AcDbEntity
  8
LAYER_1
 62
     7
  0
POLYLINE
  5
6F
330
34
100
AcDbEntity
  8
LAYER_1
 62
     7
100
AcDb2dPolyline
 66
     1
 10
0.0
 20
0.0
 30
0.0
  0
VERTEX
  5
70
330
6F
100
AcDbEntity
  8
LAYER_1
 62
     7
100
AcDbVertex
100
AcDb2dVertex
 10
-13.548958
 20
26.149308
 30
0.0
  0
VERTEX
  5
71
330
6F
100
AcDbEntity
  8
LAYER_1
 62
     7
100
AcDbVertex
100
AcDb2dVertex
 10
-13.653689
 20
26.271609
 30
0.0
  0
VERTEX
  5
72
330
6F
100
AcDbEntity
  8
LAYER_1
 62
     7
100
AcDbVertex
100
AcDb2dVertex
 10
-13.784602
 20
26.367555
 30
0.0
  0
VERTEX
  5
73
330
6F
100
AcDbEntity
  8
LAYER_1
 62
     7
100
AcDbVertex
100
AcDb2dVertex
 10
-13.93722
 20
26.424227
 30
0.0
  0
VERTEX
  5
74
330
6F
100
AcDbEntity
  8
LAYER_1
 62
     7
100
AcDbVertex
100
AcDb2dVertex
 10
-14.098795
 20
26.446103
 30
0.0
  0
SEQEND
  5
75
330
6F
100
AcDbEntity
  8
LAYER_1
 62
     7
  0
LINE
  5
6E
330
34
100
AcDbEntity
  8
LAYER_1
 62
     7
100
AcDbLine
 10
-15.645298
 20
21.988839
 30
0.0
 11
-15.645471
 21
26.149308
 31
0.0
  0
POLYLINE
  5
67
330
34
100
AcDbEntity
  8
LAYER_1
 62
     7
100
AcDb2dPolyline
 66
     1
 10
0.0
 20
0.0
 30
0.0
  0
VERTEX
  5
68
330
67
100
AcDbEntity
  8
LAYER_1
 62
     7
100
AcDbVertex
100
AcDb2dVertex
 10
-15.095806
 20
26.446103
 30
0.0
  0
VERTEX
  5
69
330
67
100
AcDbEntity
  8
LAYER_1
 62
     7
100
AcDbVertex
100
AcDb2dVertex
 10
-15.257208
 20
26.424227
 30
0.0
  0
VERTEX
  5
6A
330
67
100
AcDbEntity
  8
LAYER_1
 62
     7
100
AcDbVertex
100
AcDb2dVertex
 10
-15.40552
 20
26.367555
 30
0.0
  0
VERTEX
  5
6B
330
67
100
AcDbEntity
  8
LAYER_1
 62
     7
100
AcDbVertex
100
AcDb2dVertex
 10
-15.54074
 20
26.271609
 30
0.0
  0
VERTEX
  5
6C
330
67
100
AcDbEntity
  8
LAYER_1
 62
     7
100
AcDbVertex
100
AcDb2dVertex
 10
-15.645471
 20
26.149308
 30
0.0
  0
SEQEND
  5
6D
330
67
100
AcDbEntity
  8
LAYER_1
 62
     7
  0
POLYLINE
  5
60
330
34
100
AcDbEntity
  8
LAYER_1
 62
     7
100
AcDb2dPolyline
 66
     1
 10
0.0
 20
0.0
 30
0.0
  0
VERTEX
  5
61
330
60
100
AcDbEntity
  8
LAYER_1
 62
     7
100
AcDbVertex
100
AcDb2dVertex
 10
-14.54149
 20
26.149308
 30
0.0
  0
VERTEX
  5
62
330
60
100
AcDbEntity
  8
LAYER_1
 62
     7
100
AcDbVertex
100
AcDb2dVertex
 10
-14.650699
 20
26.271609
 30
0.0
  0
VERTEX
  5
63
330
60
100
AcDbEntity
  8
LAYER_1
 62
     7
100
AcDbVertex
100
AcDb2dVertex
 10
-14.781441
 20
26.367555
 30
0.0
  0
VERTEX
  5
64
330
60
100
AcDbEntity
  8
LAYER_1
 62
     7
100
AcDbVertex
100
AcDb2dVertex
 10
-14.934231
 20
26.424227
 30
0.0
  0
VERTEX
  5
65
330
60
100
AcDbEntity
  8
LAYER_1
 62
     7
100
AcDbVertex
100
AcDb2dVertex
 10
-15.095806
 20
26.446103
 30
0.0
  0
SEQEND
  5
66
330
60
100
AcDbEntity
  8
LAYER_1
 62
     7
  0
POLYLINE
  5
59
330
34
100
AcDbEntity
  8
LAYER_1
 62
     7
100
AcDb2dPolyline
 66
     1
 10
0.0
 20
0.0
 30
0.0
  0
VERTEX
  5
5A
330
59
100
AcDbEntity
  8
LAYER_1
 62
     7
100
AcDbVertex
100
AcDb2dVertex
 10
-15.645471
 20
26.149308
 30
0.0
  0
VERTEX
  5
5B
330
59
100
AcDbEntity
  8
LAYER_1
 62
     7
100
AcDbVertex
100
AcDb2dVertex
 10
-15.54074
 20
26.02718
 30
0.0
  0
VERTEX
  5
5C
330
59
100
AcDbEntity
  8
LAYER_1
 62
     7
100
AcDbVertex
100
AcDb2dVertex
 10
-15.40552
 20
25.93554
 30
0.0
  0
VERTEX
  5
5D
330
59
100
AcDbEntity
  8
LAYER_1
 62
     7
100
AcDbVertex
100
AcDb2dVertex
 10
-15.257208
 20
25.87439
 30
0.0
  0
VERTEX
  5
5E
330
59
100
AcDbEntity
  8
LAYER_1
 62
     7
100
AcDbVertex
100
AcDb2dVertex
 10
-15.095806
 20
25.856992
 30
0.0
  0
SEQEND
  5
5F
330
59
100
AcDbEntity
  8
LAYER_1
 62
     7
  0
POLYLINE
  5
52
330
34
100
AcDbEntity
  8
LAYER_1
 62
     7
100
AcDb2dPolyline
 66
     1
 10
0.0
 20
0.0
 30
0.0
  0
VERTEX
  5
53
330
52
100
AcDbEntity
  8
LAYER_1
 62
     7
100
AcDbVertex
100
AcDb2dVertex
 10
-15.095806
 20
25.856992
 30
0.0
  0
VERTEX
  5
54
330
52
100
AcDbEntity
  8
LAYER_1
 62
     7
100
AcDbVertex
100
AcDb2dVertex
 10
-14.934231
 20
25.87439
 30
0.0
  0
VERTEX
  5
55
330
52
100
AcDbEntity
  8
LAYER_1
 62
     7
100
AcDbVertex
100
AcDb2dVertex
 10
-14.781441
 20
25.93554
 30
0.0
  0
VERTEX
  5
56
330
52
100
AcDbEntity
  8
LAYER_1
 62
     7
100
AcDbVertex
100
AcDb2dVertex
 10
-14.650699
 20
26.02718
 30
0.0
  0
VERTEX
  5
57
330
52
100
AcDbEntity
  8
LAYER_1
 62
     7
100
AcDbVertex
100
AcDb2dVertex
 10
-14.54149
 20
26.149308
 30
0.0
  0
SEQEND
  5
58
330
52
100
AcDbEntity
  8
LAYER_1
 62
     7
  0
LINE
  5
51
330
34
100
AcDbEntity
  8
LAYER_1
 62
     7
100
AcDbLine
 10
-13.441643
 20
21.988839
 30
0.0
 11
-13.441815
 21
26.149308
 31
0.0
  0
LINE
  5
50
330
34
100
AcDbEntity
  8
LAYER_1
 62
     7
100
AcDbLine
 10
-17.504272
 20
21.988839
 30
0.0
 11
-15.645298
 21
21.988839
 31
0.0
  0
LINE
  5
4F
330
34
100
AcDbEntity
  8
LAYER_1
 62
     7
100
AcDbLine
 10
-15.645298
 20
21.988839
 30
0.0
 11
-14.54149
 21
21.988839
 31
0.0
  0
LINE
  5
4E
330
34
100
AcDbEntity
  8
LAYER_1
 62
     7
100
AcDbLine
 10
-14.54149
 20
21.988839
 30
0.0
 11
-13.441643
 21
21.988839
 31
0.0
  0
LINE
  5
4D
330
34
100
AcDbEntity
  8
LAYER_1
 62
     7
100
AcDbLine
 10
-11.582842
 20
21.988839
 30
0.0
 11
-11.582842
 21
20.151569
 31
0.0
  0
LINE
  5
4C
330
34
100
AcDbEntity
  8
LAYER_1
 62
     7
100
AcDbLine
 10
-13.441643
 20
21.988839
 30
0.0
 11
-11.582842
 21
21.988839
 31
0.0
  0
LINE
  5
4B
330
34
100
AcDbEntity
  8
LAYER_1
 62
     7
100
AcDbLine
 10
-16.005828
 20
20.223055
 30
0.0
 11
-16.005828
 21
21.988839
 31
0.0
  0
LINE
  5
4A
330
34
100
AcDbEntity
  8
LAYER_1
 62
     7
100
AcDbLine
 10
-13.041151
 20
20.223055
 30
0.0
 11
-13.041323
 21
21.988839
 31
0.0
  0
LINE
  5
49
330
34
100
AcDbEntity
  8
LAYER_1
 62
     7
100
AcDbLine
 10
-17.504272
 20
20.151569
 30
0.0
 11
-11.582842
 21
20.151569
 31
0.0
  0
LINE
  5
48
330
34
100
AcDbEntity
  8
LAYER_1
 62
     7
100
AcDbLine
 10
-17.504272
 20
20.151569
 30
0.0
 11
-17.504272
 21
21.988839
 31
0.0
  0
LINE
  5
47
330
34
100
AcDbEntity
  8
LAYER_1
 62
     7
100
AcDbLine
 10
-12.62016
 20
20.126592
 30
0.0
 11
-12.62016
 21
19.769508
 31
0.0
  0
LINE
  5
46
330
34
100
AcDbEntity
  8
LAYER_1
 62
     7
100
AcDbLine
 10
-16.584948
 20
20.055107
 30
0.0
 11
-16.584948
 21
19.769508
 31
0.0
  0
MTEXT
  5
45
330
34
100
AcDbEntity
  8
LAYER_1
 62
     7
100
AcDbMText
 10
-55.837677
 20
21.339553
 30
0.0
 40
1.837383999999999
 41
0.0
 71
     1
 72
     2
  1
\fGill Sans|b0|i0;(0.31)
  7
STD
 73
     1
 44
1.0
1001
ACAD
1000
MTEXTBEGIN
1070
    73
1070
     1
1070
    44
1040
1.0
1070
    74
1070
     0
1000
MTEXTEND
  0
MTEXT
  5
44
330
34
100
AcDbEntity
  8
LAYER_1
 62
     7
100
AcDbMText
 10
-53.534975
 20
23.808997
 30
0.0
 40
1.837383999999999
 41
0.0
 71
     1
 72
     2
  1
\fGill Sans|b0|i0;8
  7
STD
 73
     1
 44
1.0
1001
ACAD
1000
MTEXTBEGIN
1070
    73
1070
     1
1070
    44
1040
1.0
1070
    74
1070
     0
1000
MTEXTEND
  0
MTEXT
  5
43
330
34
100
AcDbEntity
  8
LAYER_1
 62
     7
100
AcDbMText
 10
-34.72992100000001
 20
24.632203
 30
0.0
 40
1.837383999999999
 41
0.0
 71
     1
 72
     2
  1
\fGill Sans|b0|i0;(0.31)
  7
STD
 73
     1
 44
1.0
1001
ACAD
1000
MTEXTBEGIN
1070
    73
1070
     1
1070
    44
1040
1.0
1070
    74
1070
     0
1000
MTEXTEND
  0
MTEXT
  5
42
330
34
100
AcDbEntity
  8
LAYER_1
 62
     7
100
AcDbMText
 10
-32.42722
 20
27.101647
 30
0.0
 40
1.837383999999999
 41
0.0
 71
     1
 72
     2
  1
\fGill Sans|b0|i0;8
  7
STD
 73
     1
 44
1.0
1001
ACAD
1000
MTEXTBEGIN
1070
    73
1070
     1
1070
    44
1040
1.0
1070
    74
1070
     0
1000
MTEXTEND
  0
MTEXT
  5
41
330
34
100
AcDbEntity
  8
LAYER_1
 62
     7
100
AcDbMText
 10
-43.51715399999999
 20
-13.46313
 30
0.0
 40
1.706142999999999
 41
0.0
 71
     1
 72
     2
  1
\fGill Sans|b0|i0;(0.77)
  7
STD
 73
     1
 44
1.0
1001
ACAD
1000
MTEXTBEGIN
1070
    73
1070
     1
1070
    44
1040
1.0
1070
    74
1070
     0
1000
MTEXTEND
  0
MTEXT
  5
40
330
34
100
AcDbEntity
  8
LAYER_1
 62
     7
100
AcDbMText
 10
-42.776631
 20
-10.993685
 30
0.0
 40
1.706142999999999
 41
0.0
 71
     1
 72
     2
  1
\fGill Sans|b0|i0;19.5
  7
STD
 73
     1
 44
1.0
1001
ACAD
1000
MTEXTBEGIN
1070
    73
1070
     1
1070
    44
1040
1.0
1070
    74
1070
     0
1000
MTEXTEND
  0
MTEXT
  5
3F
330
34
100
AcDbEntity
  8
LAYER_1
 62
     7
100
AcDbMText
 10
48.076221
 20
10.253408
 30
0.0
 40
1.837383999999999
 41
0.0
 71
     1
 72
     2
  1
\fGill Sans|b0|i0;5 (0.20)
  7
STD
 73
     1
 44
1.0
1001
ACAD
1000
MTEXTBEGIN
1070
    73
1070
     1
1070
    44
1040
1.0
1070
    74
1070
     0
1000
MTEXTEND
  0
MTEXT
  5
3E
330
34
100
AcDbEntity
  8
LAYER_1
 62
     7
100
AcDbMText
 10
19.553759
 20
4.548847
 30
0.0
 40
1.837383999999999
 41
0.0
 71
     1
 72
     2
  1
\fGill Sans|b0|i0;(0.45)
  7
STD
 73
     1
 44
1.0
1001
ACAD
1000
MTEXTBEGIN
1070
    73
1070
     1
1070
    44
1040
1.0
1070
    74
1070
     0
1000
MTEXTEND
  0
MTEXT
  5
3D
330
34
100
AcDbEntity
  8
LAYER_1
 62
     7
100
AcDbMText
 10
20.351299
 20
7.371069
 30
0.0
 40
1.837383999999999
 41
0.0
 71
     1
 72
     2
  1
\fGill Sans|b0|i0;11.5
  7
STD
 73
     1
 44
1.0
1001
ACAD
1000
MTEXTBEGIN
1070
    73
1070
     1
1070
    44
1040
1.0
1070
    74
1070
     0
1000
MTEXTEND
  0
MTEXT
  5
3C
330
34
100
AcDbEntity
  8
LAYER_1
 62
     7
100
AcDbMText
 10
7.951252
 20
-3.335885999999999
 30
0.0
 40
1.837383999999999
 41
0.0
 71
     1
 72
     2
  1
\fGill Sans|b0|i0;62.5 (2.46)
  7
STD
 11
0.0
 21
1.0
 31
0.0
 73
     1
 44
1.0
1001
ACAD
1000
MTEXTBEGIN
1070
    73
1070
     1
1070
    44
1040
1.0
1070
    74
1070
     0
1000
MTEXTEND
  0
MTEXT
  5
3B
330
34
100
AcDbEntity
  8
LAYER_1
 62
     7
100
AcDbMText
 10
30.90644000000001
 20
-2.87097
 30
0.0
 40
1.837383999999999
 41
0.0
 71
     1
 72
     2
  1
\fGill Sans|b0|i0;78.5 (3.09)
  7
STD
 11
0.0
 21
1.0
 31
0.0
 73
     1
 44
1.0
1001
ACAD
1000
MTEXTBEGIN
1070
    73
1070
     1
1070
    44
1040
1.0
1070
    74
1070
     0
1000
MTEXTEND
  0
MTEXT
  5
3A
330
34
100
AcDbEntity
  8
LAYER_1
 62
     7
100
AcDbMText
 10
-17.46362
 20
0.191318
 30
0.0
 40
1.837383999999999
 41
0.0
 71
     1
 72
     2
  1
\fGill Sans|b0|i0;(0.20)
  7
STD
 73
     1
 44
1.0
1001
ACAD
1000
MTEXTBEGIN
1070
    73
1070
     1
1070
    44
1040
1.0
1070
    74
1070
     0
1000
MTEXTEND
  0
MTEXT
  5
39
330
34
100
AcDbEntity
  8
LAYER_1
 62
     7
100
AcDbMText
 10
-15.160918
 20
3.189929
 30
0.0
 40
1.837383999999999
 41
0.0
 71
     1
 72
     2
  1
\fGill Sans|b0|i0;5
  7
STD
 73
     1
 44
1.0
1001
ACAD
1000
MTEXTBEGIN
1070
    73
1070
     1
1070
    44
1040
1.0
1070
    74
1070
     0
1000
MTEXTEND
  0
MTEXT
  5
38
330
34
100
AcDbEntity
  8
LAYER_1
 62
     7
100
AcDbMText
 10
2.579774
 20
14.66313
 30
0.0
 40
1.837383999999999
 41
0.0
 71
     1
 72
     2
  1
\fGill Sans|b0|i0;8 (0.31)
  7
STD
 73
     1
 44
1.0
1001
ACAD
1000
MTEXTBEGIN
1070
    73
1070
     1
1070
    44
1040
1.0
1070
    74
1070
     0
1000
MTEXTEND
  0
MTEXT
  5
37
330
34
100
AcDbEntity
  8
LAYER_1
 62
     7
100
AcDbMText
 10
28.032656
 20
-14.740932
 30
0.0
 40
1.837383999999999
 41
0.0
 71
     1
 72
     2
  1
\fGill Sans|b0|i0;4.4 (0.17)
  7
STD
 73
     1
 44
1.0
1001
ACAD
1000
MTEXTBEGIN
1070
    73
1070
     1
1070
    44
1040
1.0
1070
    74
1070
     0
1000
MTEXTEND
  0
ENDBLK
  5
3C4
330
34
100
AcDbEntity
  8
0
100
AcDbBlockEnd
  0
BLOCK
  5
1DA
330
1D8
100
AcDbEntity
  8
0
 62
     7
100
AcDbBlockBegin
  2
AI9-BLK2
 70
     0
 10
0.0
 20
0.0
 30
0.0
  3
AI9-BLK2
  1

  0
LINE
  5
320
330
1D8
100
AcDbEntity
  8
LAYER_1
 62
     7
100
AcDbLine
 10
-40.463766
 20
15.021478
 30
0.0
 11
-40.46393799999999
 21
19.181947
 31
0.0
  0
POLYLINE
  5
319
330
1D8
100
AcDbEntity
  8
LAYER_1
 62
     7
100
AcDb2dPolyline
 66
     1
 10
0.0
 20
0.0
 30
0.0
  0
VERTEX
  5
31A
330
319
100
AcDbEntity
  8
LAYER_1
 62
     7
100
AcDbVertex
100
AcDb2dVertex
 10
-39.914101
 20
19.478914
 30
0.0
  0
VERTEX
  5
31B
330
319
100
AcDbEntity
  8
LAYER_1
 62
     7
100
AcDbVertex
100
AcDb2dVertex
 10
-40.075676
 20
19.456866
 30
0.0
  0
VERTEX
  5
31C
330
319
100
AcDbEntity
  8
LAYER_1
 62
     7
100
AcDbVertex
100
AcDb2dVertex
 10
-40.223987
 20
19.400194
 30
0.0
  0
VERTEX
  5
31D
330
319
100
AcDbEntity
  8
LAYER_1
 62
     7
100
AcDbVertex
100
AcDb2dVertex
 10
-40.359207
 20
19.304248
 30
0.0
  0
VERTEX
  5
31E
330
319
100
AcDbEntity
  8
LAYER_1
 62
     7
100
AcDbVertex
100
AcDb2dVertex
 10
-40.46393799999999
 20
19.181947
 30
0.0
  0
SEQEND
  5
31F
330
319
100
AcDbEntity
  8
LAYER_1
 62
     7
  0
POLYLINE
  5
312
330
1D8
100
AcDbEntity
  8
LAYER_1
 62
     7
100
AcDb2dPolyline
 66
     1
 10
0.0
 20
0.0
 30
0.0
  0
VERTEX
  5
313
330
312
100
AcDbEntity
  8
LAYER_1
 62
     7
100
AcDbVertex
100
AcDb2dVertex
 10
-39.359958
 20
19.181947
 30
0.0
  0
VERTEX
  5
314
330
312
100
AcDbEntity
  8
LAYER_1
 62
     7
100
AcDbVertex
100
AcDb2dVertex
 10
-39.468995
 20
19.304248
 30
0.0
  0
VERTEX
  5
315
330
312
100
AcDbEntity
  8
LAYER_1
 62
     7
100
AcDbVertex
100
AcDb2dVertex
 10
-39.599908
 20
19.400194
 30
0.0
  0
VERTEX
  5
316
330
312
100
AcDbEntity
  8
LAYER_1
 62
     7
100
AcDbVertex
100
AcDb2dVertex
 10
-39.75269799999999
 20
19.456866
 30
0.0
  0
VERTEX
  5
317
330
312
100
AcDbEntity
  8
LAYER_1
 62
     7
100
AcDbVertex
100
AcDb2dVertex
 10
-39.914101
 20
19.478914
 30
0.0
  0
SEQEND
  5
318
330
312
100
AcDbEntity
  8
LAYER_1
 62
     7
  0
POLYLINE
  5
30B
330
1D8
100
AcDbEntity
  8
LAYER_1
 62
     7
100
AcDb2dPolyline
 66
     1
 10
0.0
 20
0.0
 30
0.0
  0
VERTEX
  5
30C
330
30B
100
AcDbEntity
  8
LAYER_1
 62
     7
100
AcDbVertex
100
AcDb2dVertex
 10
-40.46393799999999
 20
19.181947
 30
0.0
  0
VERTEX
  5
30D
330
30B
100
AcDbEntity
  8
LAYER_1
 62
     7
100
AcDbVertex
100
AcDb2dVertex
 10
-40.359207
 20
19.059819
 30
0.0
  0
VERTEX
  5
30E
330
30B
100
AcDbEntity
  8
LAYER_1
 62
     7
100
AcDbVertex
100
AcDb2dVertex
 10
-40.223987
 20
18.968179
 30
0.0
  0
VERTEX
  5
30F
330
30B
100
AcDbEntity
  8
LAYER_1
 62
     7
100
AcDbVertex
100
AcDb2dVertex
 10
-40.075676
 20
18.907201
 30
0.0
  0
VERTEX
  5
310
330
30B
100
AcDbEntity
  8
LAYER_1
 62
     7
100
AcDbVertex
100
AcDb2dVertex
 10
-39.914101
 20
18.889631
 30
0.0
  0
SEQEND
  5
311
330
30B
100
AcDbEntity
  8
LAYER_1
 62
     7
  0
POLYLINE
  5
304
330
1D8
100
AcDbEntity
  8
LAYER_1
 62
     7
100
AcDb2dPolyline
 66
     1
 10
0.0
 20
0.0
 30
0.0
  0
VERTEX
  5
305
330
304
100
AcDbEntity
  8
LAYER_1
 62
     7
100
AcDbVertex
100
AcDb2dVertex
 10
-39.914101
 20
18.889631
 30
0.0
  0
VERTEX
  5
306
330
304
100
AcDbEntity
  8
LAYER_1
 62
     7
100
AcDbVertex
100
AcDb2dVertex
 10
-39.75269799999999
 20
18.907201
 30
0.0
  0
VERTEX
  5
307
330
304
100
AcDbEntity
  8
LAYER_1
 62
     7
100
AcDbVertex
100
AcDb2dVertex
 10
-39.599908
 20
18.968179
 30
0.0
  0
VERTEX
  5
308
330
304
100
AcDbEntity
  8
LAYER_1
 62
     7
100
AcDbVertex
100
AcDb2dVertex
 10
-39.468995
 20
19.059819
 30
0.0
  0
VERTEX
  5
309
330
304
100
AcDbEntity
  8
LAYER_1
 62
     7
100
AcDbVertex
100
AcDb2dVertex
 10
-39.359958
 20
19.181947
 30
0.0
  0
SEQEND
  5
30A
330
304
100
AcDbEntity
  8
LAYER_1
 62
     7
  0
POLYLINE
  5
2FD
330
1D8
100
AcDbEntity
  8
LAYER_1
 62
     7
100
AcDb2dPolyline
 66
     1
 10
0.0
 20
0.0
 30
0.0
  0
VERTEX
  5
2FE
330
2FD
100
AcDbEntity
  8
LAYER_1
 62
     7
100
AcDbVertex
100
AcDb2dVertex
 10
-38.809948
 20
19.478914
 30
0.0
  0
VERTEX
  5
2FF
330
2FD
100
AcDbEntity
  8
LAYER_1
 62
     7
100
AcDbVertex
100
AcDb2dVertex
 10
-38.971523
 20
19.456866
 30
0.0
  0
VERTEX
  5
300
330
2FD
100
AcDbEntity
  8
LAYER_1
 62
     7
100
AcDbVertex
100
AcDb2dVertex
 10
-39.124313
 20
19.400194
 30
0.0
  0
VERTEX
  5
301
330
2FD
100
AcDbEntity
  8
LAYER_1
 62
     7
100
AcDbVertex
100
AcDb2dVertex
 10
-39.25522700000001
 20
19.304248
 30
0.0
  0
VERTEX
  5
302
330
2FD
100
AcDbEntity
  8
LAYER_1
 62
     7
100
AcDbVertex
100
AcDb2dVertex
 10
-39.359958
 20
19.181947
 30
0.0
  0
SEQEND
  5
303
330
2FD
100
AcDbEntity
  8
LAYER_1
 62
     7
  0
POLYLINE
  5
2F6
330
1D8
100
AcDbEntity
  8
LAYER_1
 62
     7
100
AcDb2dPolyline
 66
     1
 10
0.0
 20
0.0
 30
0.0
  0
VERTEX
  5
2F7
330
2F6
100
AcDbEntity
  8
LAYER_1
 62
     7
100
AcDbVertex
100
AcDb2dVertex
 10
-38.260111
 20
19.181947
 30
0.0
  0
VERTEX
  5
2F8
330
2F6
100
AcDbEntity
  8
LAYER_1
 62
     7
100
AcDbVertex
100
AcDb2dVertex
 10
-38.365014
 20
19.304248
 30
0.0
  0
VERTEX
  5
2F9
330
2F6
100
AcDbEntity
  8
LAYER_1
 62
     7
100
AcDbVertex
100
AcDb2dVertex
 10
-38.495928
 20
19.400194
 30
0.0
  0
VERTEX
  5
2FA
330
2F6
100
AcDbEntity
  8
LAYER_1
 62
     7
100
AcDbVertex
100
AcDb2dVertex
 10
-38.648545
 20
19.457038
 30
0.0
  0
VERTEX
  5
2FB
330
2F6
100
AcDbEntity
  8
LAYER_1
 62
     7
100
AcDbVertex
100
AcDb2dVertex
 10
-38.809948
 20
19.478914
 30
0.0
  0
SEQEND
  5
2FC
330
2F6
100
AcDbEntity
  8
LAYER_1
 62
     7
  0
LINE
  5
2F5
330
1D8
100
AcDbEntity
  8
LAYER_1
 62
     7
100
AcDbLine
 10
-38.260111
 20
15.021478
 30
0.0
 11
-38.260111
 21
19.181947
 31
0.0
  0
LINE
  5
2F4
330
1D8
100
AcDbEntity
  8
LAYER_1
 62
     7
100
AcDbLine
 10
-42.03696899999999
 20
15.021478
 30
0.0
 11
-40.463766
 21
15.021478
 31
0.0
  0
LINE
  5
2F3
330
1D8
100
AcDbEntity
  8
LAYER_1
 62
     7
100
AcDbLine
 10
-40.463766
 20
15.021478
 30
0.0
 11
-39.359785
 21
15.021478
 31
0.0
  0
LINE
  5
2F2
330
1D8
100
AcDbEntity
  8
LAYER_1
 62
     7
100
AcDbLine
 10
-39.359785
 20
15.021478
 30
0.0
 11
-38.260111
 21
15.021478
 31
0.0
  0
LINE
  5
2F1
330
1D8
100
AcDbEntity
  8
LAYER_1
 62
     7
100
AcDbLine
 10
-36.68708
 20
15.02165
 30
0.0
 11
-36.686908
 21
13.18438
 31
0.0
  0
LINE
  5
2F0
330
1D8
100
AcDbEntity
  8
LAYER_1
 62
     7
100
AcDbLine
 10
-38.260111
 20
15.021478
 30
0.0
 11
-36.68708
 21
15.02165
 31
0.0
  0
LINE
  5
2EF
330
1D8
100
AcDbEntity
  8
LAYER_1
 62
     7
100
AcDbLine
 10
-39.359785
 20
13.18438
 30
0.0
 11
-39.359785
 21
15.021478
 31
0.0
  0
LINE
  5
2EE
330
1D8
100
AcDbEntity
  8
LAYER_1
 62
     7
100
AcDbLine
 10
-42.03696899999999
 20
13.18438
 30
0.0
 11
-36.686908
 21
13.18438
 31
0.0
  0
LINE
  5
2ED
330
1D8
100
AcDbEntity
  8
LAYER_1
 62
     7
100
AcDbLine
 10
-42.03696899999999
 20
13.18438
 30
0.0
 11
-42.03696899999999
 21
15.021478
 31
0.0
  0
POLYLINE
  5
2E7
330
1D8
100
AcDbEntity
  8
LAYER_1
 62
     7
100
AcDb2dPolyline
 66
     1
 10
0.0
 20
0.0
 30
0.0
  0
VERTEX
  5
2E8
330
2E7
100
AcDbEntity
  8
LAYER_1
 62
     7
100
AcDbVertex
100
AcDb2dVertex
 10
-36.24455800000001
 20
10.313066
 30
0.0
  0
VERTEX
  5
2E9
330
2E7
100
AcDbEntity
  8
LAYER_1
 62
     7
100
AcDbVertex
100
AcDb2dVertex
 10
-36.24455800000001
 20
12.726183
 30
0.0
  0
VERTEX
  5
2EA
330
2E7
100
AcDbEntity
  8
LAYER_1
 62
     7
100
AcDbVertex
100
AcDb2dVertex
 10
-42.332041
 20
12.72601
 30
0.0
  0
VERTEX
  5
2EB
330
2E7
100
AcDbEntity
  8
LAYER_1
 62
     7
100
AcDbVertex
100
AcDb2dVertex
 10
-42.332041
 20
10.313066
 30
0.0
  0
SEQEND
  5
2EC
330
2E7
100
AcDbEntity
  8
LAYER_1
 62
     7
  0
POLYLINE
  5
2DE
330
1D8
100
AcDbEntity
  8
LAYER_1
 62
     7
100
AcDb2dPolyline
 66
     1
 10
0.0
 20
0.0
 30
0.0
  0
VERTEX
  5
2DF
330
2DE
100
AcDbEntity
  8
LAYER_1
 62
     7
100
AcDbVertex
100
AcDb2dVertex
 10
-43.57089799999999
 20
8.292517
 30
0.0
  0
VERTEX
  5
2E0
330
2DE
100
AcDbEntity
  8
LAYER_1
 62
     7
100
AcDbVertex
100
AcDb2dVertex
 10
-43.59277399999999
 20
8.484408999999999
 30
0.0
  0
VERTEX
  5
2E1
330
2DE
100
AcDbEntity
  8
LAYER_1
 62
     7
100
AcDbVertex
100
AcDb2dVertex
 10
-43.66701599999999
 20
8.659074999999999
 30
0.0
  0
VERTEX
  5
2E2
330
2DE
100
AcDbEntity
  8
LAYER_1
 62
     7
100
AcDbVertex
100
AcDb2dVertex
 10
-43.784838
 20
8.811864999999999
 30
0.0
  0
VERTEX
  5
2E3
330
2DE
100
AcDbEntity
  8
LAYER_1
 62
     7
100
AcDbVertex
100
AcDb2dVertex
 10
-43.937628
 20
8.929688
 30
0.0
  0
VERTEX
  5
2E4
330
2DE
100
AcDbEntity
  8
LAYER_1
 62
     7
100
AcDbVertex
100
AcDb2dVertex
 10
-44.112122
 20
9.003928999999999
 30
0.0
  0
VERTEX
  5
2E5
330
2DE
100
AcDbEntity
  8
LAYER_1
 62
     7
100
AcDbVertex
100
AcDb2dVertex
 10
-44.304014
 20
9.030111999999999
 30
0.0
  0
SEQEND
  5
2E6
330
2DE
100
AcDbEntity
  8
LAYER_1
 62
     7
  0
POLYLINE
  5
2D5
330
1D8
100
AcDbEntity
  8
LAYER_1
 62
     7
100
AcDb2dPolyline
 66
     1
 10
0.0
 20
0.0
 30
0.0
  0
VERTEX
  5
2D6
330
2D5
100
AcDbEntity
  8
LAYER_1
 62
     7
100
AcDbVertex
100
AcDb2dVertex
 10
-44.304014
 20
9.030111999999999
 30
0.0
  0
VERTEX
  5
2D7
330
2D5
100
AcDbEntity
  8
LAYER_1
 62
     7
100
AcDbVertex
100
AcDb2dVertex
 10
-44.496078
 20
9.003928999999999
 30
0.0
  0
VERTEX
  5
2D8
330
2D5
100
AcDbEntity
  8
LAYER_1
 62
     7
100
AcDbVertex
100
AcDb2dVertex
 10
-44.670744
 20
8.929688
 30
0.0
  0
VERTEX
  5
2D9
330
2D5
100
AcDbEntity
  8
LAYER_1
 62
     7
100
AcDbVertex
100
AcDb2dVertex
 10
-44.823362
 20
8.811864999999999
 30
0.0
  0
VERTEX
  5
2DA
330
2D5
100
AcDbEntity
  8
LAYER_1
 62
     7
100
AcDbVertex
100
AcDb2dVertex
 10
-44.941184
 20
8.659074999999999
 30
0.0
  0
VERTEX
  5
2DB
330
2D5
100
AcDbEntity
  8
LAYER_1
 62
     7
100
AcDbVertex
100
AcDb2dVertex
 10
-45.01542599999999
 20
8.484408999999999
 30
0.0
  0
VERTEX
  5
2DC
330
2D5
100
AcDbEntity
  8
LAYER_1
 62
     7
100
AcDbVertex
100
AcDb2dVertex
 10
-45.041609
 20
8.292517
 30
0.0
  0
SEQEND
  5
2DD
330
2D5
100
AcDbEntity
  8
LAYER_1
 62
     7
  0
LINE
  5
2D4
330
1D8
100
AcDbEntity
  8
LAYER_1
 62
     7
100
AcDbLine
 10
-45.041609
 20
8.292517
 30
0.0
 11
-45.041609
 21
6.455248
 31
0.0
  0
LINE
  5
2D3
330
1D8
100
AcDbEntity
  8
LAYER_1
 62
     7
100
AcDbLine
 10
-42.833475
 20
8.292517
 30
0.0
 11
-42.833475
 21
10.313066
 31
0.0
  0
LINE
  5
2D2
330
1D8
100
AcDbEntity
  8
LAYER_1
 62
     7
100
AcDbLine
 10
-43.57089799999999
 20
6.455248
 30
0.0
 11
-43.57089799999999
 21
8.292517
 31
0.0
  0
LINE
  5
2D1
330
1D8
100
AcDbEntity
  8
LAYER_1
 62
     7
100
AcDbLine
 10
-42.833475
 20
6.455248
 30
0.0
 11
-42.833475
 21
8.292517
 31
0.0
  0
POLYLINE
  5
2C8
330
1D8
100
AcDbEntity
  8
LAYER_1
 62
     7
100
AcDb2dPolyline
 66
     1
 10
0.0
 20
0.0
 30
0.0
  0
VERTEX
  5
2C9
330
2C8
100
AcDbEntity
  8
LAYER_1
 62
     7
100
AcDbVertex
100
AcDb2dVertex
 10
-45.041609
 20
6.455248
 30
0.0
  0
VERTEX
  5
2CA
330
2C8
100
AcDbEntity
  8
LAYER_1
 62
     7
100
AcDbVertex
100
AcDb2dVertex
 10
-45.01542599999999
 20
6.263355999999999
 30
0.0
  0
VERTEX
  5
2CB
330
2C8
100
AcDbEntity
  8
LAYER_1
 62
     7
100
AcDbVertex
100
AcDb2dVertex
 10
-44.941184
 20
6.088689999999999
 30
0.0
  0
VERTEX
  5
2CC
330
2C8
100
AcDbEntity
  8
LAYER_1
 62
     7
100
AcDbVertex
100
AcDb2dVertex
 10
-44.823362
 20
5.936072
 30
0.0
  0
VERTEX
  5
2CD
330
2C8
100
AcDbEntity
  8
LAYER_1
 62
     7
100
AcDbVertex
100
AcDb2dVertex
 10
-44.670572
 20
5.818249999999999
 30
0.0
  0
VERTEX
  5
2CE
330
2C8
100
AcDbEntity
  8
LAYER_1
 62
     7
100
AcDbVertex
100
AcDb2dVertex
 10
-44.496078
 20
5.744008
 30
0.0
  0
VERTEX
  5
2CF
330
2C8
100
AcDbEntity
  8
LAYER_1
 62
     7
100
AcDbVertex
100
AcDb2dVertex
 10
-44.304014
 20
5.717825
 30
0.0
  0
SEQEND
  5
2D0
330
2C8
100
AcDbEntity
  8
LAYER_1
 62
     7
  0
POLYLINE
  5
2BF
330
1D8
100
AcDbEntity
  8
LAYER_1
 62
     7
100
AcDb2dPolyline
 66
     1
 10
0.0
 20
0.0
 30
0.0
  0
VERTEX
  5
2C0
330
2BF
100
AcDbEntity
  8
LAYER_1
 62
     7
100
AcDbVertex
100
AcDb2dVertex
 10
-44.304014
 20
5.717825
 30
0.0
  0
VERTEX
  5
2C1
330
2BF
100
AcDbEntity
  8
LAYER_1
 62
     7
100
AcDbVertex
100
AcDb2dVertex
 10
-44.11195
 20
5.744008
 30
0.0
  0
VERTEX
  5
2C2
330
2BF
100
AcDbEntity
  8
LAYER_1
 62
     7
100
AcDbVertex
100
AcDb2dVertex
 10
-43.93745599999999
 20
5.818249999999999
 30
0.0
  0
VERTEX
  5
2C3
330
2BF
100
AcDbEntity
  8
LAYER_1
 62
     7
100
AcDbVertex
100
AcDb2dVertex
 10
-43.784838
 20
5.936072
 30
0.0
  0
VERTEX
  5
2C4
330
2BF
100
AcDbEntity
  8
LAYER_1
 62
     7
100
AcDbVertex
100
AcDb2dVertex
 10
-43.66701599999999
 20
6.088689999999999
 30
0.0
  0
VERTEX
  5
2C5
330
2BF
100
AcDbEntity
  8
LAYER_1
 62
     7
100
AcDbVertex
100
AcDb2dVertex
 10
-43.59277399999999
 20
6.263355999999999
 30
0.0
  0
VERTEX
  5
2C6
330
2BF
100
AcDbEntity
  8
LAYER_1
 62
     7
100
AcDbVertex
100
AcDb2dVertex
 10
-43.57089799999999
 20
6.455248
 30
0.0
  0
SEQEND
  5
2C7
330
2BF
100
AcDbEntity
  8
LAYER_1
 62
     7
  0
POLYLINE
  5
2B6
330
1D8
100
AcDbEntity
  8
LAYER_1
 62
     7
100
AcDb2dPolyline
 66
     1
 10
0.0
 20
0.0
 30
0.0
  0
VERTEX
  5
2B7
330
2B6
100
AcDbEntity
  8
LAYER_1
 62
     7
100
AcDbVertex
100
AcDb2dVertex
 10
-44.304014
 20
4.984708999999999
 30
0.0
  0
VERTEX
  5
2B8
330
2B6
100
AcDbEntity
  8
LAYER_1
 62
     7
100
AcDbVertex
100
AcDb2dVertex
 10
-43.924365
 20
5.032767999999999
 30
0.0
  0
VERTEX
  5
2B9
330
2B6
100
AcDbEntity
  8
LAYER_1
 62
     7
100
AcDbVertex
100
AcDb2dVertex
 10
-43.57089799999999
 20
5.181079
 30
0.0
  0
VERTEX
  5
2BA
330
2B6
100
AcDbEntity
  8
LAYER_1
 62
     7
100
AcDbVertex
100
AcDb2dVertex
 10
-43.26548999999999
 20
5.416723999999999
 30
0.0
  0
VERTEX
  5
2BB
330
2B6
100
AcDbEntity
  8
LAYER_1
 62
     7
100
AcDbVertex
100
AcDb2dVertex
 10
-43.02967299999999
 20
5.717825
 30
0.0
  0
VERTEX
  5
2BC
330
2B6
100
AcDbEntity
  8
LAYER_1
 62
     7
100
AcDbVertex
100
AcDb2dVertex
 10
-42.885841
 20
6.075598
 30
0.0
  0
VERTEX
  5
2BD
330
2B6
100
AcDbEntity
  8
LAYER_1
 62
     7
100
AcDbVertex
100
AcDb2dVertex
 10
-42.833475
 20
6.455248
 30
0.0
  0
SEQEND
  5
2BE
330
2B6
100
AcDbEntity
  8
LAYER_1
 62
     7
  0
LINE
  5
2B5
330
1D8
100
AcDbEntity
  8
LAYER_1
 62
     7
100
AcDbLine
 10
-44.304014
 20
4.984708999999999
 30
0.0
 11
-46.23275099999999
 21
4.984708999999999
 31
0.0
  0
POLYLINE
  5
29A
330
1D8
100
AcDbEntity
  8
LAYER_1
 62
     7
100
AcDb2dPolyline
 66
     1
 10
0.0
 20
0.0
 30
0.0
  0
VERTEX
  5
29B
330
29A
100
AcDbEntity
  8
LAYER_1
 62
     7
100
AcDbVertex
100
AcDb2dVertex
 10
-40.716808
 20
-4.943194999999999
 30
0.0
  0
VERTEX
  5
29C
330
29A
100
AcDbEntity
  8
LAYER_1
 62
     7
100
AcDbVertex
100
AcDb2dVertex
 10
-40.385218
 20
-4.895135999999999
 30
0.0
  0
VERTEX
  5
29D
330
29A
100
AcDbEntity
  8
LAYER_1
 62
     7
100
AcDbVertex
100
AcDb2dVertex
 10
-40.075332
 20
-4.768529
 30
0.0
  0
VERTEX
  5
29E
330
29A
100
AcDbEntity
  8
LAYER_1
 62
     7
100
AcDbVertex
100
AcDb2dVertex
 10
-39.809026
 20
-4.563373
 30
0.0
  0
VERTEX
  5
29F
330
29A
100
AcDbEntity
  8
LAYER_1
 62
     7
100
AcDbVertex
100
AcDb2dVertex
 10
-39.604043
 20
-4.29724
 30
0.0
  0
VERTEX
  5
2A0
330
29A
100
AcDbEntity
  8
LAYER_1
 62
     7
100
AcDbVertex
100
AcDb2dVertex
 10
-39.473129
 20
-3.987354
 30
0.0
  0
VERTEX
  5
2A1
330
29A
100
AcDbEntity
  8
LAYER_1
 62
     7
100
AcDbVertex
100
AcDb2dVertex
 10
-39.429548
 20
-3.655762999999999
 30
0.0
  0
VERTEX
  5
2A2
330
29A
100
AcDbEntity
  8
LAYER_1
 62
     7
100
AcDbVertex
100
AcDb2dVertex
 10
-39.473129
 20
-3.319694
 30
0.0
  0
VERTEX
  5
2A3
330
29A
100
AcDbEntity
  8
LAYER_1
 62
     7
100
AcDbVertex
100
AcDb2dVertex
 10
-39.604043
 20
-3.009808
 30
0.0
  0
VERTEX
  5
2A4
330
29A
100
AcDbEntity
  8
LAYER_1
 62
     7
100
AcDbVertex
100
AcDb2dVertex
 10
-39.809026
 20
-2.743673999999999
 30
0.0
  0
VERTEX
  5
2A5
330
29A
100
AcDbEntity
  8
LAYER_1
 62
     7
100
AcDbVertex
100
AcDb2dVertex
 10
-40.075332
 20
-2.538518999999999
 30
0.0
  0
VERTEX
  5
2A6
330
29A
100
AcDbEntity
  8
LAYER_1
 62
     7
100
AcDbVertex
100
AcDb2dVertex
 10
-40.385218
 20
-2.411910999999999
 30
0.0
  0
VERTEX
  5
2A7
330
29A
100
AcDbEntity
  8
LAYER_1
 62
     7
100
AcDbVertex
100
AcDb2dVertex
 10
-40.716808
 20
-2.368330999999999
 30
0.0
  0
VERTEX
  5
2A8
330
29A
100
AcDbEntity
  8
LAYER_1
 62
     7
100
AcDbVertex
100
AcDb2dVertex
 10
-41.052877
 20
-2.412084
 30
0.0
  0
VERTEX
  5
2A9
330
29A
100
AcDbEntity
  8
LAYER_1
 62
     7
100
AcDbVertex
100
AcDb2dVertex
 10
-41.36276399999999
 20
-2.538518999999999
 30
0.0
  0
VERTEX
  5
2AA
330
29A
100
AcDbEntity
  8
LAYER_1
 62
     7
100
AcDbVertex
100
AcDb2dVertex
 10
-41.628897
 20
-2.743673999999999
 30
0.0
  0
VERTEX
  5
2AB
330
29A
100
AcDbEntity
  8
LAYER_1
 62
     7
100
AcDbVertex
100
AcDb2dVertex
 10
-41.833881
 20
-3.009808
 30
0.0
  0
VERTEX
  5
2AC
330
29A
100
AcDbEntity
  8
LAYER_1
 62
     7
100
AcDbVertex
100
AcDb2dVertex
 10
-41.96048799999999
 20
-3.319694
 30
0.0
  0
VERTEX
  5
2AD
330
29A
100
AcDbEntity
  8
LAYER_1
 62
     7
100
AcDbVertex
100
AcDb2dVertex
 10
-42.00406799999999
 20
-3.655762999999999
 30
0.0
  0
VERTEX
  5
2AE
330
29A
100
AcDbEntity
  8
LAYER_1
 62
     7
100
AcDbVertex
100
AcDb2dVertex
 10
-41.96048799999999
 20
-3.987526
 30
0.0
  0
VERTEX
  5
2AF
330
29A
100
AcDbEntity
  8
LAYER_1
 62
     7
100
AcDbVertex
100
AcDb2dVertex
 10
-41.833881
 20
-4.29724
 30
0.0
  0
VERTEX
  5
2B0
330
29A
100
AcDbEntity
  8
LAYER_1
 62
     7
100
AcDbVertex
100
AcDb2dVertex
 10
-41.628725
 20
-4.563373
 30
0.0
  0
VERTEX
  5
2B1
330
29A
100
AcDbEntity
  8
LAYER_1
 62
     7
100
AcDbVertex
100
AcDb2dVertex
 10
-41.36276399999999
 20
-4.768529
 30
0.0
  0
VERTEX
  5
2B2
330
29A
100
AcDbEntity
  8
LAYER_1
 62
     7
100
AcDbVertex
100
AcDb2dVertex
 10
-41.05270499999999
 20
-4.895135999999999
 30
0.0
  0
VERTEX
  5
2B3
330
29A
100
AcDbEntity
  8
LAYER_1
 62
     7
100
AcDbVertex
100
AcDb2dVertex
 10
-40.716808
 20
-4.943194999999999
 30
0.0
  0
SEQEND
  5
2B4
330
29A
100
AcDbEntity
  8
LAYER_1
 62
     7
  0
POLYLINE
  5
291
330
1D8
100
AcDbEntity
  8
LAYER_1
 62
     7
100
AcDb2dPolyline
 66
     1
 10
0.0
 20
0.0
 30
0.0
  0
VERTEX
  5
292
330
291
100
AcDbEntity
  8
LAYER_1
 62
     7
100
AcDbVertex
100
AcDb2dVertex
 10
-37.133909
 20
-12.291756
 30
0.0
  0
VERTEX
  5
293
330
291
100
AcDbEntity
  8
LAYER_1
 62
     7
100
AcDbVertex
100
AcDb2dVertex
 10
-37.513559
 20
-12.344122
 30
0.0
  0
VERTEX
  5
294
330
291
100
AcDbEntity
  8
LAYER_1
 62
     7
100
AcDbVertex
100
AcDb2dVertex
 10
-37.867025
 20
-12.488127
 30
0.0
  0
VERTEX
  5
295
330
291
100
AcDbEntity
  8
LAYER_1
 62
     7
100
AcDbVertex
100
AcDb2dVertex
 10
-38.17243300000001
 20
-12.723771
 30
0.0
  0
VERTEX
  5
296
330
291
100
AcDbEntity
  8
LAYER_1
 62
     7
100
AcDbVertex
100
AcDb2dVertex
 10
-38.40825
 20
-13.029351
 30
0.0
  0
VERTEX
  5
297
330
291
100
AcDbEntity
  8
LAYER_1
 62
     7
100
AcDbVertex
100
AcDb2dVertex
 10
-38.55208300000001
 20
-13.382818
 30
0.0
  0
VERTEX
  5
298
330
291
100
AcDbEntity
  8
LAYER_1
 62
     7
100
AcDbVertex
100
AcDb2dVertex
 10
-38.604448
 20
-13.762467
 30
0.0
  0
SEQEND
  5
299
330
291
100
AcDbEntity
  8
LAYER_1
 62
     7
  0
LINE
  5
290
330
1D8
100
AcDbEntity
  8
LAYER_1
 62
     7
100
AcDbLine
 10
-37.133909
 20
-12.291756
 30
0.0
 11
-35.205
 21
-12.291756
 31
0.0
  0
POLYLINE
  5
287
330
1D8
100
AcDbEntity
  8
LAYER_1
 62
     7
100
AcDb2dPolyline
 66
     1
 10
0.0
 20
0.0
 30
0.0
  0
VERTEX
  5
288
330
287
100
AcDbEntity
  8
LAYER_1
 62
     7
100
AcDbVertex
100
AcDb2dVertex
 10
-36.39631400000001
 20
-13.762467
 30
0.0
  0
VERTEX
  5
289
330
287
100
AcDbEntity
  8
LAYER_1
 62
     7
100
AcDbVertex
100
AcDb2dVertex
 10
-36.422497
 20
-13.574882
 30
0.0
  0
VERTEX
  5
28A
330
287
100
AcDbEntity
  8
LAYER_1
 62
     7
100
AcDbVertex
100
AcDb2dVertex
 10
-36.496739
 20
-13.395909
 30
0.0
  0
VERTEX
  5
28B
330
287
100
AcDbEntity
  8
LAYER_1
 62
     7
100
AcDbVertex
100
AcDb2dVertex
 10
-36.614561
 20
-13.243119
 30
0.0
  0
VERTEX
  5
28C
330
287
100
AcDbEntity
  8
LAYER_1
 62
     7
100
AcDbVertex
100
AcDb2dVertex
 10
-36.767351
 20
-13.125297
 30
0.0
  0
VERTEX
  5
28D
330
287
100
AcDbEntity
  8
LAYER_1
 62
     7
100
AcDbVertex
100
AcDb2dVertex
 10
-36.941845
 20
-13.055534
 30
0.0
  0
VERTEX
  5
28E
330
287
100
AcDbEntity
  8
LAYER_1
 62
     7
100
AcDbVertex
100
AcDb2dVertex
 10
-37.133909
 20
-13.029351
 30
0.0
  0
SEQEND
  5
28F
330
287
100
AcDbEntity
  8
LAYER_1
 62
     7
  0
POLYLINE
  5
27E
330
1D8
100
AcDbEntity
  8
LAYER_1
 62
     7
100
AcDb2dPolyline
 66
     1
 10
0.0
 20
0.0
 30
0.0
  0
VERTEX
  5
27F
330
27E
100
AcDbEntity
  8
LAYER_1
 62
     7
100
AcDbVertex
100
AcDb2dVertex
 10
-37.133909
 20
-13.029351
 30
0.0
  0
VERTEX
  5
280
330
27E
100
AcDbEntity
  8
LAYER_1
 62
     7
100
AcDbVertex
100
AcDb2dVertex
 10
-37.325973
 20
-13.055534
 30
0.0
  0
VERTEX
  5
281
330
27E
100
AcDbEntity
  8
LAYER_1
 62
     7
100
AcDbVertex
100
AcDb2dVertex
 10
-37.500467
 20
-13.125297
 30
0.0
  0
VERTEX
  5
282
330
27E
100
AcDbEntity
  8
LAYER_1
 62
     7
100
AcDbVertex
100
AcDb2dVertex
 10
-37.653257
 20
-13.243119
 30
0.0
  0
VERTEX
  5
283
330
27E
100
AcDbEntity
  8
LAYER_1
 62
     7
100
AcDbVertex
100
AcDb2dVertex
 10
-37.77108
 20
-13.395909
 30
0.0
  0
VERTEX
  5
284
330
27E
100
AcDbEntity
  8
LAYER_1
 62
     7
100
AcDbVertex
100
AcDb2dVertex
 10
-37.845149
 20
-13.574882
 30
0.0
  0
VERTEX
  5
285
330
27E
100
AcDbEntity
  8
LAYER_1
 62
     7
100
AcDbVertex
100
AcDb2dVertex
 10
-37.867025
 20
-13.762467
 30
0.0
  0
SEQEND
  5
286
330
27E
100
AcDbEntity
  8
LAYER_1
 62
     7
  0
LINE
  5
27D
330
1D8
100
AcDbEntity
  8
LAYER_1
 62
     7
100
AcDbLine
 10
-37.867025
 20
-13.762467
 30
0.0
 11
-37.867025
 21
-15.599565
 31
0.0
  0
POLYLINE
  5
274
330
1D8
100
AcDbEntity
  8
LAYER_1
 62
     7
100
AcDb2dPolyline
 66
     1
 10
0.0
 20
0.0
 30
0.0
  0
VERTEX
  5
275
330
274
100
AcDbEntity
  8
LAYER_1
 62
     7
100
AcDbVertex
100
AcDb2dVertex
 10
-37.867025
 20
-15.599565
 30
0.0
  0
VERTEX
  5
276
330
274
100
AcDbEntity
  8
LAYER_1
 62
     7
100
AcDbVertex
100
AcDb2dVertex
 10
-37.845149
 20
-15.791629
 30
0.0
  0
VERTEX
  5
277
330
274
100
AcDbEntity
  8
LAYER_1
 62
     7
100
AcDbVertex
100
AcDb2dVertex
 10
-37.770907
 20
-15.970601
 30
0.0
  0
VERTEX
  5
278
330
274
100
AcDbEntity
  8
LAYER_1
 62
     7
100
AcDbVertex
100
AcDb2dVertex
 10
-37.653085
 20
-16.123391
 30
0.0
  0
VERTEX
  5
279
330
274
100
AcDbEntity
  8
LAYER_1
 62
     7
100
AcDbVertex
100
AcDb2dVertex
 10
-37.500467
 20
-16.236907
 30
0.0
  0
VERTEX
  5
27A
330
274
100
AcDbEntity
  8
LAYER_1
 62
     7
100
AcDbVertex
100
AcDb2dVertex
 10
-37.325801
 20
-16.31097699999999
 30
0.0
  0
VERTEX
  5
27B
330
274
100
AcDbEntity
  8
LAYER_1
 62
     7
100
AcDbVertex
100
AcDb2dVertex
 10
-37.133909
 20
-16.33716
 30
0.0
  0
SEQEND
  5
27C
330
274
100
AcDbEntity
  8
LAYER_1
 62
     7
  0
POLYLINE
  5
26B
330
1D8
100
AcDbEntity
  8
LAYER_1
 62
     7
100
AcDb2dPolyline
 66
     1
 10
0.0
 20
0.0
 30
0.0
  0
VERTEX
  5
26C
330
26B
100
AcDbEntity
  8
LAYER_1
 62
     7
100
AcDbVertex
100
AcDb2dVertex
 10
-37.133909
 20
-16.33716
 30
0.0
  0
VERTEX
  5
26D
330
26B
100
AcDbEntity
  8
LAYER_1
 62
     7
100
AcDbVertex
100
AcDb2dVertex
 10
-36.941845
 20
-16.31097699999999
 30
0.0
  0
VERTEX
  5
26E
330
26B
100
AcDbEntity
  8
LAYER_1
 62
     7
100
AcDbVertex
100
AcDb2dVertex
 10
-36.767351
 20
-16.236735
 30
0.0
  0
VERTEX
  5
26F
330
26B
100
AcDbEntity
  8
LAYER_1
 62
     7
100
AcDbVertex
100
AcDb2dVertex
 10
-36.614561
 20
-16.123391
 30
0.0
  0
VERTEX
  5
270
330
26B
100
AcDbEntity
  8
LAYER_1
 62
     7
100
AcDbVertex
100
AcDb2dVertex
 10
-36.496739
 20
-15.970601
 30
0.0
  0
VERTEX
  5
271
330
26B
100
AcDbEntity
  8
LAYER_1
 62
     7
100
AcDbVertex
100
AcDb2dVertex
 10
-36.422497
 20
-15.791629
 30
0.0
  0
VERTEX
  5
272
330
26B
100
AcDbEntity
  8
LAYER_1
 62
     7
100
AcDbVertex
100
AcDb2dVertex
 10
-36.39631400000001
 20
-15.599565
 30
0.0
  0
SEQEND
  5
273
330
26B
100
AcDbEntity
  8
LAYER_1
 62
     7
  0
LINE
  5
26A
330
1D8
100
AcDbEntity
  8
LAYER_1
 62
     7
100
AcDbLine
 10
-36.39631400000001
 20
-15.599565
 30
0.0
 11
-36.39631400000001
 21
-13.762467
 31
0.0
  0
LINE
  5
269
330
1D8
100
AcDbEntity
  8
LAYER_1
 62
     7
100
AcDbLine
 10
-38.604448
 20
-15.599565
 30
0.0
 11
-38.604448
 21
-17.624592
 31
0.0
  0
LINE
  5
268
330
1D8
100
AcDbEntity
  8
LAYER_1
 62
     7
100
AcDbLine
 10
-38.604448
 20
-13.762467
 30
0.0
 11
-38.604448
 21
-15.599565
 31
0.0
  0
POLYLINE
  5
25F
330
1D8
100
AcDbEntity
  8
LAYER_1
 62
     7
100
AcDb2dPolyline
 66
     1
 10
0.0
 20
0.0
 30
0.0
  0
VERTEX
  5
260
330
25F
100
AcDbEntity
  8
LAYER_1
 62
     7
100
AcDbVertex
100
AcDb2dVertex
 10
16.038039
 20
7.175616999999999
 30
0.0
  0
VERTEX
  5
261
330
25F
100
AcDbEntity
  8
LAYER_1
 62
     7
100
AcDbVertex
100
AcDb2dVertex
 10
15.850454
 20
7.149433999999999
 30
0.0
  0
VERTEX
  5
262
330
25F
100
AcDbEntity
  8
LAYER_1
 62
     7
100
AcDbVertex
100
AcDb2dVertex
 10
15.671653
 20
7.075192999999999
 30
0.0
  0
VERTEX
  5
263
330
25F
100
AcDbEntity
  8
LAYER_1
 62
     7
100
AcDbVertex
100
AcDb2dVertex
 10
15.518863
 20
6.95737
 30
0.0
  0
VERTEX
  5
264
330
25F
100
AcDbEntity
  8
LAYER_1
 62
     7
100
AcDbVertex
100
AcDb2dVertex
 10
15.401041
 20
6.804752999999999
 30
0.0
  0
VERTEX
  5
265
330
25F
100
AcDbEntity
  8
LAYER_1
 62
     7
100
AcDbVertex
100
AcDb2dVertex
 10
15.331106
 20
6.630086
 30
0.0
  0
VERTEX
  5
266
330
25F
100
AcDbEntity
  8
LAYER_1
 62
     7
100
AcDbVertex
100
AcDb2dVertex
 10
15.304923
 20
6.438022
 30
0.0
  0
SEQEND
  5
267
330
25F
100
AcDbEntity
  8
LAYER_1
 62
     7
  0
POLYLINE
  5
256
330
1D8
100
AcDbEntity
  8
LAYER_1
 62
     7
100
AcDb2dPolyline
 66
     1
 10
0.0
 20
0.0
 30
0.0
  0
VERTEX
  5
257
330
256
100
AcDbEntity
  8
LAYER_1
 62
     7
100
AcDbVertex
100
AcDb2dVertex
 10
16.775634
 20
6.438022
 30
0.0
  0
VERTEX
  5
258
330
256
100
AcDbEntity
  8
LAYER_1
 62
     7
100
AcDbVertex
100
AcDb2dVertex
 10
16.749451
 20
6.630086
 30
0.0
  0
VERTEX
  5
259
330
256
100
AcDbEntity
  8
LAYER_1
 62
     7
100
AcDbVertex
100
AcDb2dVertex
 10
16.675382
 20
6.804752999999999
 30
0.0
  0
VERTEX
  5
25A
330
256
100
AcDbEntity
  8
LAYER_1
 62
     7
100
AcDbVertex
100
AcDb2dVertex
 10
16.557387
 20
6.95737
 30
0.0
  0
VERTEX
  5
25B
330
256
100
AcDbEntity
  8
LAYER_1
 62
     7
100
AcDbVertex
100
AcDb2dVertex
 10
16.409076
 20
7.075192999999999
 30
0.0
  0
VERTEX
  5
25C
330
256
100
AcDbEntity
  8
LAYER_1
 62
     7
100
AcDbVertex
100
AcDb2dVertex
 10
16.230103
 20
7.149433999999999
 30
0.0
  0
VERTEX
  5
25D
330
256
100
AcDbEntity
  8
LAYER_1
 62
     7
100
AcDbVertex
100
AcDb2dVertex
 10
16.038039
 20
7.175616999999999
 30
0.0
  0
SEQEND
  5
25E
330
256
100
AcDbEntity
  8
LAYER_1
 62
     7
  0
LINE
  5
255
330
1D8
100
AcDbEntity
  8
LAYER_1
 62
     7
100
AcDbLine
 10
16.775634
 20
4.600925
 30
0.0
 11
16.775634
 21
6.438022
 31
0.0
  0
POLYLINE
  5
24C
330
1D8
100
AcDbEntity
  8
LAYER_1
 62
     7
100
AcDb2dPolyline
 66
     1
 10
0.0
 20
0.0
 30
0.0
  0
VERTEX
  5
24D
330
24C
100
AcDbEntity
  8
LAYER_1
 62
     7
100
AcDbVertex
100
AcDb2dVertex
 10
16.038211
 20
3.863501999999999
 30
0.0
  0
VERTEX
  5
24E
330
24C
100
AcDbEntity
  8
LAYER_1
 62
     7
100
AcDbVertex
100
AcDb2dVertex
 10
16.230275
 20
3.889512999999999
 30
0.0
  0
VERTEX
  5
24F
330
24C
100
AcDbEntity
  8
LAYER_1
 62
     7
100
AcDbVertex
100
AcDb2dVertex
 10
16.409076
 20
3.963755
 30
0.0
  0
VERTEX
  5
250
330
24C
100
AcDbEntity
  8
LAYER_1
 62
     7
100
AcDbVertex
100
AcDb2dVertex
 10
16.557387
 20
4.081576999999999
 30
0.0
  0
VERTEX
  5
251
330
24C
100
AcDbEntity
  8
LAYER_1
 62
     7
100
AcDbVertex
100
AcDb2dVertex
 10
16.675382
 20
4.234366999999999
 30
0.0
  0
VERTEX
  5
252
330
24C
100
AcDbEntity
  8
LAYER_1
 62
     7
100
AcDbVertex
100
AcDb2dVertex
 10
16.749451
 20
4.408860999999999
 30
0.0
  0
VERTEX
  5
253
330
24C
100
AcDbEntity
  8
LAYER_1
 62
     7
100
AcDbVertex
100
AcDb2dVertex
 10
16.775634
 20
4.600925
 30
0.0
  0
SEQEND
  5
254
330
24C
100
AcDbEntity
  8
LAYER_1
 62
     7
  0
POLYLINE
  5
243
330
1D8
100
AcDbEntity
  8
LAYER_1
 62
     7
100
AcDb2dPolyline
 66
     1
 10
0.0
 20
0.0
 30
0.0
  0
VERTEX
  5
244
330
243
100
AcDbEntity
  8
LAYER_1
 62
     7
100
AcDbVertex
100
AcDb2dVertex
 10
15.304923
 20
4.600925
 30
0.0
  0
VERTEX
  5
245
330
243
100
AcDbEntity
  8
LAYER_1
 62
     7
100
AcDbVertex
100
AcDb2dVertex
 10
15.331106
 20
4.408860999999999
 30
0.0
  0
VERTEX
  5
246
330
243
100
AcDbEntity
  8
LAYER_1
 62
     7
100
AcDbVertex
100
AcDb2dVertex
 10
15.401041
 20
4.234366999999999
 30
0.0
  0
VERTEX
  5
247
330
243
100
AcDbEntity
  8
LAYER_1
 62
     7
100
AcDbVertex
100
AcDb2dVertex
 10
15.518863
 20
4.081576999999999
 30
0.0
  0
VERTEX
  5
248
330
243
100
AcDbEntity
  8
LAYER_1
 62
     7
100
AcDbVertex
100
AcDb2dVertex
 10
15.671653
 20
3.963755
 30
0.0
  0
VERTEX
  5
249
330
243
100
AcDbEntity
  8
LAYER_1
 62
     7
100
AcDbVertex
100
AcDb2dVertex
 10
15.850454
 20
3.889512999999999
 30
0.0
  0
VERTEX
  5
24A
330
243
100
AcDbEntity
  8
LAYER_1
 62
     7
100
AcDbVertex
100
AcDb2dVertex
 10
16.038211
 20
3.863501999999999
 30
0.0
  0
SEQEND
  5
24B
330
243
100
AcDbEntity
  8
LAYER_1
 62
     7
  0
LINE
  5
242
330
1D8
100
AcDbEntity
  8
LAYER_1
 62
     7
100
AcDbLine
 10
15.304923
 20
6.438022
 30
0.0
 11
15.304923
 21
4.600925
 31
0.0
  0
LINE
  5
241
330
1D8
100
AcDbEntity
  8
LAYER_1
 62
     7
100
AcDbLine
 10
17.50875
 20
6.438022
 30
0.0
 11
17.50875
 21
8.458571
 31
0.0
  0
LINE
  5
240
330
1D8
100
AcDbEntity
  8
LAYER_1
 62
     7
100
AcDbLine
 10
17.50875
 20
6.438022
 30
0.0
 11
17.50875
 21
4.600925
 31
0.0
  0
POLYLINE
  5
237
330
1D8
100
AcDbEntity
  8
LAYER_1
 62
     7
100
AcDb2dPolyline
 66
     1
 10
0.0
 20
0.0
 30
0.0
  0
VERTEX
  5
238
330
237
100
AcDbEntity
  8
LAYER_1
 62
     7
100
AcDbVertex
100
AcDb2dVertex
 10
16.038211
 20
3.130214
 30
0.0
  0
VERTEX
  5
239
330
237
100
AcDbEntity
  8
LAYER_1
 62
     7
100
AcDbVertex
100
AcDb2dVertex
 10
16.422167
 20
3.178272999999999
 30
0.0
  0
VERTEX
  5
23A
330
237
100
AcDbEntity
  8
LAYER_1
 62
     7
100
AcDbVertex
100
AcDb2dVertex
 10
16.775634
 20
3.326583999999999
 30
0.0
  0
VERTEX
  5
23B
330
237
100
AcDbEntity
  8
LAYER_1
 62
     7
100
AcDbVertex
100
AcDb2dVertex
 10
17.081042
 20
3.562401
 30
0.0
  0
VERTEX
  5
23C
330
237
100
AcDbEntity
  8
LAYER_1
 62
     7
100
AcDbVertex
100
AcDb2dVertex
 10
17.31238
 20
3.863501999999999
 30
0.0
  0
VERTEX
  5
23D
330
237
100
AcDbEntity
  8
LAYER_1
 62
     7
100
AcDbVertex
100
AcDb2dVertex
 10
17.460691
 20
4.221275
 30
0.0
  0
VERTEX
  5
23E
330
237
100
AcDbEntity
  8
LAYER_1
 62
     7
100
AcDbVertex
100
AcDb2dVertex
 10
17.50875
 20
4.600925
 30
0.0
  0
SEQEND
  5
23F
330
237
100
AcDbEntity
  8
LAYER_1
 62
     7
  0
LINE
  5
236
330
1D8
100
AcDbEntity
  8
LAYER_1
 62
     7
100
AcDbLine
 10
16.038211
 20
3.130214
 30
0.0
 11
14.109302
 21
3.130214
 31
0.0
  0
POLYLINE
  5
22D
330
1D8
100
AcDbEntity
  8
LAYER_1
 62
     7
100
AcDb2dPolyline
 66
     1
 10
0.0
 20
0.0
 30
0.0
  0
VERTEX
  5
22E
330
22D
100
AcDbEntity
  8
LAYER_1
 62
     7
100
AcDbVertex
100
AcDb2dVertex
 10
23.208316
 20
-14.146251
 30
0.0
  0
VERTEX
  5
22F
330
22D
100
AcDbEntity
  8
LAYER_1
 62
     7
100
AcDbVertex
100
AcDb2dVertex
 10
22.828667
 20
-14.198617
 30
0.0
  0
VERTEX
  5
230
330
22D
100
AcDbEntity
  8
LAYER_1
 62
     7
100
AcDbVertex
100
AcDb2dVertex
 10
22.4752
 20
-14.342622
 30
0.0
  0
VERTEX
  5
231
330
22D
100
AcDbEntity
  8
LAYER_1
 62
     7
100
AcDbVertex
100
AcDb2dVertex
 10
22.16962
 20
-14.578266
 30
0.0
  0
VERTEX
  5
232
330
22D
100
AcDbEntity
  8
LAYER_1
 62
     7
100
AcDbVertex
100
AcDb2dVertex
 10
21.933976
 20
-14.883674
 30
0.0
  0
VERTEX
  5
233
330
22D
100
AcDbEntity
  8
LAYER_1
 62
     7
100
AcDbVertex
100
AcDb2dVertex
 10
21.789971
 20
-15.237313
 30
0.0
  0
VERTEX
  5
234
330
22D
100
AcDbEntity
  8
LAYER_1
 62
     7
100
AcDbVertex
100
AcDb2dVertex
 10
21.737605
 20
-15.616962
 30
0.0
  0
SEQEND
  5
235
330
22D
100
AcDbEntity
  8
LAYER_1
 62
     7
  0
LINE
  5
22C
330
1D8
100
AcDbEntity
  8
LAYER_1
 62
     7
100
AcDbLine
 10
23.208316
 20
-14.146251
 30
0.0
 11
25.137225
 21
-14.146251
 31
0.0
  0
POLYLINE
  5
223
330
1D8
100
AcDbEntity
  8
LAYER_1
 62
     7
100
AcDb2dPolyline
 66
     1
 10
0.0
 20
0.0
 30
0.0
  0
VERTEX
  5
224
330
223
100
AcDbEntity
  8
LAYER_1
 62
     7
100
AcDbVertex
100
AcDb2dVertex
 10
23.941433
 20
-15.61679
 30
0.0
  0
VERTEX
  5
225
330
223
100
AcDbEntity
  8
LAYER_1
 62
     7
100
AcDbVertex
100
AcDb2dVertex
 10
23.919556
 20
-15.429205
 30
0.0
  0
VERTEX
  5
226
330
223
100
AcDbEntity
  8
LAYER_1
 62
     7
100
AcDbVertex
100
AcDb2dVertex
 10
23.845487
 20
-15.250232
 30
0.0
  0
VERTEX
  5
227
330
223
100
AcDbEntity
  8
LAYER_1
 62
     7
100
AcDbVertex
100
AcDb2dVertex
 10
23.727665
 20
-15.097614
 30
0.0
  0
VERTEX
  5
228
330
223
100
AcDbEntity
  8
LAYER_1
 62
     7
100
AcDbVertex
100
AcDb2dVertex
 10
23.574875
 20
-14.979792
 30
0.0
  0
VERTEX
  5
229
330
223
100
AcDbEntity
  8
LAYER_1
 62
     7
100
AcDbVertex
100
AcDb2dVertex
 10
23.400208
 20
-14.909856
 30
0.0
  0
VERTEX
  5
22A
330
223
100
AcDbEntity
  8
LAYER_1
 62
     7
100
AcDbVertex
100
AcDb2dVertex
 10
23.208316
 20
-14.883674
 30
0.0
  0
SEQEND
  5
22B
330
223
100
AcDbEntity
  8
LAYER_1
 62
     7
  0
POLYLINE
  5
21A
330
1D8
100
AcDbEntity
  8
LAYER_1
 62
     7
100
AcDb2dPolyline
 66
     1
 10
0.0
 20
0.0
 30
0.0
  0
VERTEX
  5
21B
330
21A
100
AcDbEntity
  8
LAYER_1
 62
     7
100
AcDbVertex
100
AcDb2dVertex
 10
23.208316
 20
-14.883674
 30
0.0
  0
VERTEX
  5
21C
330
21A
100
AcDbEntity
  8
LAYER_1
 62
     7
100
AcDbVertex
100
AcDb2dVertex
 10
23.016252
 20
-14.909856
 30
0.0
  0
VERTEX
  5
21D
330
21A
100
AcDbEntity
  8
LAYER_1
 62
     7
100
AcDbVertex
100
AcDb2dVertex
 10
22.841758
 20
-14.979792
 30
0.0
  0
VERTEX
  5
21E
330
21A
100
AcDbEntity
  8
LAYER_1
 62
     7
100
AcDbVertex
100
AcDb2dVertex
 10
22.688968
 20
-15.097614
 30
0.0
  0
VERTEX
  5
21F
330
21A
100
AcDbEntity
  8
LAYER_1
 62
     7
100
AcDbVertex
100
AcDb2dVertex
 10
22.571146
 20
-15.250232
 30
0.0
  0
VERTEX
  5
220
330
21A
100
AcDbEntity
  8
LAYER_1
 62
     7
100
AcDbVertex
100
AcDb2dVertex
 10
22.497076
 20
-15.429205
 30
0.0
  0
VERTEX
  5
221
330
21A
100
AcDbEntity
  8
LAYER_1
 62
     7
100
AcDbVertex
100
AcDb2dVertex
 10
22.4752
 20
-15.616962
 30
0.0
  0
SEQEND
  5
222
330
21A
100
AcDbEntity
  8
LAYER_1
 62
     7
  0
LINE
  5
219
330
1D8
100
AcDbEntity
  8
LAYER_1
 62
     7
100
AcDbLine
 10
22.4752
 20
-15.616962
 30
0.0
 11
22.4752
 21
-17.45406
 31
0.0
  0
POLYLINE
  5
210
330
1D8
100
AcDbEntity
  8
LAYER_1
 62
     7
100
AcDb2dPolyline
 66
     1
 10
0.0
 20
0.0
 30
0.0
  0
VERTEX
  5
211
330
210
100
AcDbEntity
  8
LAYER_1
 62
     7
100
AcDbVertex
100
AcDb2dVertex
 10
22.4752
 20
-17.45406
 30
0.0
  0
VERTEX
  5
212
330
210
100
AcDbEntity
  8
LAYER_1
 62
     7
100
AcDbVertex
100
AcDb2dVertex
 10
22.497076
 20
-17.646124
 30
0.0
  0
VERTEX
  5
213
330
210
100
AcDbEntity
  8
LAYER_1
 62
     7
100
AcDbVertex
100
AcDb2dVertex
 10
22.571146
 20
-17.824924
 30
0.0
  0
VERTEX
  5
214
330
210
100
AcDbEntity
  8
LAYER_1
 62
     7
100
AcDbVertex
100
AcDb2dVertex
 10
22.688968
 20
-17.977714
 30
0.0
  0
VERTEX
  5
215
330
210
100
AcDbEntity
  8
LAYER_1
 62
     7
100
AcDbVertex
100
AcDb2dVertex
 10
22.841758
 20
-18.09123
 30
0.0
  0
VERTEX
  5
216
330
210
100
AcDbEntity
  8
LAYER_1
 62
     7
100
AcDbVertex
100
AcDb2dVertex
 10
23.016252
 20
-18.165299
 30
0.0
  0
VERTEX
  5
217
330
210
100
AcDbEntity
  8
LAYER_1
 62
     7
100
AcDbVertex
100
AcDb2dVertex
 10
23.208316
 20
-18.191482
 30
0.0
  0
SEQEND
  5
218
330
210
100
AcDbEntity
  8
LAYER_1
 62
     7
  0
POLYLINE
  5
207
330
1D8
100
AcDbEntity
  8
LAYER_1
 62
     7
100
AcDb2dPolyline
 66
     1
 10
0.0
 20
0.0
 30
0.0
  0
VERTEX
  5
208
330
207
100
AcDbEntity
  8
LAYER_1
 62
     7
100
AcDbVertex
100
AcDb2dVertex
 10
23.208316
 20
-18.191482
 30
0.0
  0
VERTEX
  5
209
330
207
100
AcDbEntity
  8
LAYER_1
 62
     7
100
AcDbVertex
100
AcDb2dVertex
 10
23.40038
 20
-18.165299
 30
0.0
  0
VERTEX
  5
20A
330
207
100
AcDbEntity
  8
LAYER_1
 62
     7
100
AcDbVertex
100
AcDb2dVertex
 10
23.574875
 20
-18.091058
 30
0.0
  0
VERTEX
  5
20B
330
207
100
AcDbEntity
  8
LAYER_1
 62
     7
100
AcDbVertex
100
AcDb2dVertex
 10
23.727665
 20
-17.977714
 30
0.0
  0
VERTEX
  5
20C
330
207
100
AcDbEntity
  8
LAYER_1
 62
     7
100
AcDbVertex
100
AcDb2dVertex
 10
23.845487
 20
-17.824924
 30
0.0
  0
VERTEX
  5
20D
330
207
100
AcDbEntity
  8
LAYER_1
 62
     7
100
AcDbVertex
100
AcDb2dVertex
 10
23.919556
 20
-17.646124
 30
0.0
  0
VERTEX
  5
20E
330
207
100
AcDbEntity
  8
LAYER_1
 62
     7
100
AcDbVertex
100
AcDb2dVertex
 10
23.941433
 20
-17.45406
 30
0.0
  0
SEQEND
  5
20F
330
207
100
AcDbEntity
  8
LAYER_1
 62
     7
  0
LINE
  5
206
330
1D8
100
AcDbEntity
  8
LAYER_1
 62
     7
100
AcDbLine
 10
23.941433
 20
-17.45406
 30
0.0
 11
23.941433
 21
-15.61679
 31
0.0
  0
LINE
  5
205
330
1D8
100
AcDbEntity
  8
LAYER_1
 62
     7
100
AcDbLine
 10
21.737605
 20
-17.45406
 30
0.0
 11
21.737777
 21
-19.478914
 31
0.0
  0
LINE
  5
204
330
1D8
100
AcDbEntity
  8
LAYER_1
 62
     7
100
AcDbLine
 10
21.737605
 20
-15.616962
 30
0.0
 11
21.737605
 21
-17.45406
 31
0.0
  0
POLYLINE
  5
1E9
330
1D8
100
AcDbEntity
  8
LAYER_1
 62
     7
100
AcDb2dPolyline
 66
     1
 10
0.0
 20
0.0
 30
0.0
  0
VERTEX
  5
1EA
330
1E9
100
AcDbEntity
  8
LAYER_1
 62
     7
100
AcDbVertex
100
AcDb2dVertex
 10
19.625417
 20
-6.797517999999999
 30
0.0
  0
VERTEX
  5
1EB
330
1E9
100
AcDbEntity
  8
LAYER_1
 62
     7
100
AcDbVertex
100
AcDb2dVertex
 10
19.957008
 20
-6.749458999999999
 30
0.0
  0
VERTEX
  5
1EC
330
1E9
100
AcDbEntity
  8
LAYER_1
 62
     7
100
AcDbVertex
100
AcDb2dVertex
 10
20.266894
 20
-6.623024
 30
0.0
  0
VERTEX
  5
1ED
330
1E9
100
AcDbEntity
  8
LAYER_1
 62
     7
100
AcDbVertex
100
AcDb2dVertex
 10
20.5332
 20
-6.417868
 30
0.0
  0
VERTEX
  5
1EE
330
1E9
100
AcDbEntity
  8
LAYER_1
 62
     7
100
AcDbVertex
100
AcDb2dVertex
 10
20.738183
 20
-6.151734999999999
 30
0.0
  0
VERTEX
  5
1EF
330
1E9
100
AcDbEntity
  8
LAYER_1
 62
     7
100
AcDbVertex
100
AcDb2dVertex
 10
20.86479
 20
-5.841848
 30
0.0
  0
VERTEX
  5
1F0
330
1E9
100
AcDbEntity
  8
LAYER_1
 62
     7
100
AcDbVertex
100
AcDb2dVertex
 10
20.908371
 20
-5.510086
 30
0.0
  0
VERTEX
  5
1F1
330
1E9
100
AcDbEntity
  8
LAYER_1
 62
     7
100
AcDbVertex
100
AcDb2dVertex
 10
20.86479
 20
-5.174189
 30
0.0
  0
VERTEX
  5
1F2
330
1E9
100
AcDbEntity
  8
LAYER_1
 62
     7
100
AcDbVertex
100
AcDb2dVertex
 10
20.738183
 20
-4.864302999999999
 30
0.0
  0
VERTEX
  5
1F3
330
1E9
100
AcDbEntity
  8
LAYER_1
 62
     7
100
AcDbVertex
100
AcDb2dVertex
 10
20.5332
 20
-4.598169
 30
0.0
  0
VERTEX
  5
1F4
330
1E9
100
AcDbEntity
  8
LAYER_1
 62
     7
100
AcDbVertex
100
AcDb2dVertex
 10
20.266894
 20
-4.393013999999999
 30
0.0
  0
VERTEX
  5
1F5
330
1E9
100
AcDbEntity
  8
LAYER_1
 62
     7
100
AcDbVertex
100
AcDb2dVertex
 10
19.957008
 20
-4.266405999999999
 30
0.0
  0
VERTEX
  5
1F6
330
1E9
100
AcDbEntity
  8
LAYER_1
 62
     7
100
AcDbVertex
100
AcDb2dVertex
 10
19.625245
 20
-4.222826
 30
0.0
  0
VERTEX
  5
1F7
330
1E9
100
AcDbEntity
  8
LAYER_1
 62
     7
100
AcDbVertex
100
AcDb2dVertex
 10
19.289348
 20
-4.266405999999999
 30
0.0
  0
VERTEX
  5
1F8
330
1E9
100
AcDbEntity
  8
LAYER_1
 62
     7
100
AcDbVertex
100
AcDb2dVertex
 10
18.979634
 20
-4.393013999999999
 30
0.0
  0
VERTEX
  5
1F9
330
1E9
100
AcDbEntity
  8
LAYER_1
 62
     7
100
AcDbVertex
100
AcDb2dVertex
 10
18.713328
 20
-4.598169
 30
0.0
  0
VERTEX
  5
1FA
330
1E9
100
AcDbEntity
  8
LAYER_1
 62
     7
100
AcDbVertex
100
AcDb2dVertex
 10
18.508345
 20
-4.864302999999999
 30
0.0
  0
VERTEX
  5
1FB
330
1E9
100
AcDbEntity
  8
LAYER_1
 62
     7
100
AcDbVertex
100
AcDb2dVertex
 10
18.381738
 20
-5.174189
 30
0.0
  0
VERTEX
  5
1FC
330
1E9
100
AcDbEntity
  8
LAYER_1
 62
     7
100
AcDbVertex
100
AcDb2dVertex
 10
18.337985
 20
-5.510258
 30
0.0
  0
VERTEX
  5
1FD
330
1E9
100
AcDbEntity
  8
LAYER_1
 62
     7
100
AcDbVertex
100
AcDb2dVertex
 10
18.381738
 20
-5.841848
 30
0.0
  0
VERTEX
  5
1FE
330
1E9
100
AcDbEntity
  8
LAYER_1
 62
     7
100
AcDbVertex
100
AcDb2dVertex
 10
18.508345
 20
-6.151734999999999
 30
0.0
  0
VERTEX
  5
1FF
330
1E9
100
AcDbEntity
  8
LAYER_1
 62
     7
100
AcDbVertex
100
AcDb2dVertex
 10
18.713328
 20
-6.417868
 30
0.0
  0
VERTEX
  5
200
330
1E9
100
AcDbEntity
  8
LAYER_1
 62
     7
100
AcDbVertex
100
AcDb2dVertex
 10
18.979634
 20
-6.623024
 30
0.0
  0
VERTEX
  5
201
330
1E9
100
AcDbEntity
  8
LAYER_1
 62
     7
100
AcDbVertex
100
AcDb2dVertex
 10
19.289348
 20
-6.749458999999999
 30
0.0
  0
VERTEX
  5
202
330
1E9
100
AcDbEntity
  8
LAYER_1
 62
     7
100
AcDbVertex
100
AcDb2dVertex
 10
19.625417
 20
-6.797517999999999
 30
0.0
  0
SEQEND
  5
203
330
1E9
100
AcDbEntity
  8
LAYER_1
 62
     7
  0
LINE
  5
1E8
330
1D8
100
AcDbEntity
  8
LAYER_1
 62
     7
100
AcDbLine
 10
44.395309
 20
7.909078
 30
0.0
 11
44.39548099999999
 21
3.130730999999999
 31
0.0
  0
LINE
  5
1E7
330
1D8
100
AcDbEntity
  8
LAYER_1
 62
     7
100
AcDbLine
 10
44.395309
 20
7.909078
 30
0.0
 11
44.395309
 21
8.458914999999999
 31
0.0
  0
LINE
  5
1E6
330
1D8
100
AcDbEntity
  8
LAYER_1
 62
     7
100
AcDbLine
 10
-17.943866
 20
-17.624247
 30
0.0
 11
-17.944383
 21
10.31341
 31
0.0
  0
LINE
  5
1E5
330
1D8
100
AcDbEntity
  8
LAYER_1
 62
     7
100
AcDbLine
 10
-13.698475
 20
9.763400999999999
 30
0.0
 11
-13.698475
 21
4.985052999999999
 31
0.0
  0
SPLINE
  5
1E4
330
1D8
100
AcDbEntity
  8
LAYER_1
 62
     7
100
AcDbSpline
210
0.0
220
0.0
230
1.0
 70
     8
 71
     3
 72
    11
 73
     7
 74
     0
 42
0.0000000001
 43
0.0000000001
 40
0.0
 40
0.0
 40
0.0
 40
0.0
 40
1.0
 40
1.0
 40
1.0
 40
2.0
 40
2.0
 40
2.0
 40
2.0
 10
-13.69847479926215
 20
4.985053168402777
 30
0.0
 10
-13.69847479926215
 20
4.985053168402777
 30
0.0
 10
-13.04046156141493
 20
4.985053168402777
 30
0.0
 10
-12.49286363389757
 20
4.985053168402777
 30
0.0
 10
-11.70703735351562
 20
4.985053168402777
 30
0.0
 10
-11.69532402886284
 20
4.151684570312499
 30
0.0
 10
-11.69532402886284
 20
4.151684570312499
 30
0.0
  0
SPLINE
  5
1E3
330
1D8
100
AcDbEntity
  8
LAYER_1
 62
     7
100
AcDbSpline
210
0.0
220
0.0
230
1.0
 70
     8
 71
     3
 72
    20
 73
    16
 74
     0
 42
0.0000000001
 43
0.0000000001
 40
0.0
 40
0.0
 40
0.0
 40
0.0
 40
1.0
 40
1.0
 40
1.0
 40
2.0
 40
2.0
 40
2.0
 40
3.0
 40
3.0
 40
3.0
 40
4.0
 40
4.0
 40
4.0
 40
5.0
 40
5.0
 40
5.0
 40
5.0
 10
-17.94438273111979
 20
10.31341010199652
 30
0.0
 10
-17.94438273111979
 20
10.31341010199652
 30
0.0
 10
-12.43274671766493
 20
10.31341010199652
 30
0.0
 10
-12.43274671766493
 20
10.31341010199652
 30
0.0
 10
-12.43274671766493
 20
10.31341010199652
 30
0.0
 10
-11.69532402886284
 20
10.3313245985243
 30
0.0
 10
-11.69532402886284
 20
9.491927083333331
 30
0.0
 10
-11.69532402886284
 20
9.491927083333331
 30
0.0
 10
-11.69515177408854
 20
-16.81430528428819
 30
0.0
 10
-11.69515177408854
 20
-16.81430528428819
 30
0.0
 10
-11.69515177408854
 20
-16.81430528428819
 30
0.0
 10
-11.6474372016059
 20
-17.62424723307291
 30
0.0
 10
-12.48683471679687
 20
-17.62424723307291
 30
0.0
 10
-12.48683471679687
 20
-17.62424723307291
 30
0.0
 10
-17.94386596679687
 20
-17.62424723307291
 30
0.0
 10
-17.94386596679687
 20
-17.62424723307291
 30
0.0
  0
LINE
  5
1E2
330
1D8
100
AcDbEntity
  8
LAYER_1
 62
     7
100
AcDbLine
 10
-13.698475
 20
9.763400999999999
 30
0.0
 11
-13.698475
 21
10.31341
 31
0.0
  0
POLYLINE
  5
1DC
330
1D8
100
AcDbEntity
  8
LAYER_1
 62
     7
100
AcDb2dPolyline
 66
     1
 10
0.0
 20
0.0
 30
0.0
  0
VERTEX
  5
1DD
330
1DC
100
AcDbEntity
  8
LAYER_1
 62
     7
100
AcDbVertex
100
AcDb2dVertex
 10
-11.754235
 20
9.706211999999998
 30
0.0
  0
VERTEX
  5
1DE
330
1DC
100
AcDbEntity
  8
LAYER_1
 62
     7
100
AcDbVertex
100
AcDb2dVertex
 10
-11.754235
 20
12.726527
 30
0.0
  0
VERTEX
  5
1DF
330
1DC
100
AcDbEntity
  8
LAYER_1
 62
     7
100
AcDbVertex
100
AcDb2dVertex
 10
-17.913205
 20
12.726355
 30
0.0
  0
VERTEX
  5
1E0
330
1DC
100
AcDbEntity
  8
LAYER_1
 62
     7
100
AcDbVertex
100
AcDb2dVertex
 10
-17.913205
 20
10.31341
 30
0.0
  0
SEQEND
  5
1E1
330
1DC
100
AcDbEntity
  8
LAYER_1
 62
     7
  0
LINE
  5
1DB
330
1D8
100
AcDbEntity
  8
LAYER_1
 62
     7
100
AcDbLine
 10
46.23275099999999
 20
0.8745370000000001
 30
0.0
 11
46.23275099999999
 21
-0.007062
 31
0.0
  0
ENDBLK
  5
321
330
1D8
100
AcDbEntity
  8
0
100
AcDbBlockEnd
  0
BLOCK
  5
324
330
322
100
AcDbEntity
  8
0
 62
     7
100
AcDbBlockBegin
  2
AI9-BLK3
 70
     0
 10
0.0
 20
0.0
 30
0.0
  3
AI9-BLK3
  1

  0
LINE
  5
37D
330
322
100
AcDbEntity
  8
LAYER_1
 62
     7
100
AcDbLine
 10
-43.948739
 20
20.895882
 30
0.0
 11
-43.94856599999999
 21
17.606333
 31
0.0
  0
LINE
  5
37C
330
322
100
AcDbEntity
  8
LAYER_1
 62
     7
100
AcDbLine
 10
24.75904
 20
24.183192
 30
0.0
 11
24.75904
 21
17.58394
 31
0.0
  0
LINE
  5
37B
330
322
100
AcDbEntity
  8
LAYER_1
 62
     7
100
AcDbLine
 10
21.489989
 20
12.994039
 30
0.0
 11
21.489989
 21
14.831308
 31
0.0
  0
LINE
  5
37A
330
322
100
AcDbEntity
  8
LAYER_1
 62
     7
100
AcDbLine
 10
39.481828
 20
17.513143
 30
0.0
 11
39.481828
 21
20.801314
 31
0.0
  0
LINE
  5
379
330
322
100
AcDbEntity
  8
LAYER_1
 62
     7
100
AcDbLine
 10
40.279195
 20
20.234079
 30
0.0
 11
44.897862
 21
20.234079
 31
0.0
  0
LINE
  5
378
330
322
100
AcDbEntity
  8
LAYER_1
 62
     7
100
AcDbLine
 10
45.85491
 20
20.801314
 30
0.0
 11
45.85491
 21
17.537431
 31
0.0
  0
LINE
  5
377
330
322
100
AcDbEntity
  8
LAYER_1
 62
     7
100
AcDbLine
 10
44.017813
 20
10.867726
 30
0.0
 11
44.017813
 21
8.386051
 31
0.0
  0
LINE
  5
376
330
322
100
AcDbEntity
  8
LAYER_1
 62
     7
100
AcDbLine
 10
41.02592
 20
8.94898
 30
0.0
 11
43.12467199999999
 21
8.94898
 31
0.0
  0
LINE
  5
375
330
322
100
AcDbEntity
  8
LAYER_1
 62
     7
100
AcDbLine
 10
44.017813
 20
8.94898
 30
0.0
 11
45.855082
 21
8.949151999999999
 31
0.0
  0
LINE
  5
374
330
322
100
AcDbEntity
  8
LAYER_1
 62
     7
100
AcDbLine
 10
46.78026299999999
 20
8.949151999999999
 30
0.0
 11
50.84754199999999
 21
8.949151999999999
 31
0.0
  0
LINE
  5
373
330
322
100
AcDbEntity
  8
LAYER_1
 62
     7
100
AcDbLine
 10
9.786654999999999
 20
13.914913
 30
0.0
 11
14.023433
 21
13.914913
 31
0.0
  0
LINE
  5
372
330
322
100
AcDbEntity
  8
LAYER_1
 62
     7
100
AcDbLine
 10
13.291178
 20
16.821884
 30
0.0
 11
9.787
 21
16.821884
 31
0.0
  0
LINE
  5
371
330
322
100
AcDbEntity
  8
LAYER_1
 62
     7
100
AcDbLine
 10
10.3501
 20
20.02255
 30
0.0
 11
10.349928
 21
17.512626
 31
0.0
  0
LINE
  5
370
330
322
100
AcDbEntity
  8
LAYER_1
 62
     7
100
AcDbLine
 10
10.349928
 20
13.869093
 30
0.0
 11
10.349928
 21
16.810343
 31
0.0
  0
LINE
  5
36F
330
322
100
AcDbEntity
  8
LAYER_1
 62
     7
100
AcDbLine
 10
13.731978
 20
-11.871455
 30
0.0
 11
13.732151
 21
-19.880268
 31
0.0
  0
LINE
  5
36E
330
322
100
AcDbEntity
  8
LAYER_1
 62
     7
100
AcDbLine
 10
10.137193
 20
-19.317339
 30
0.0
 11
12.820234
 21
-19.317339
 31
0.0
  0
LINE
  5
36D
330
322
100
AcDbEntity
  8
LAYER_1
 62
     7
100
AcDbLine
 10
13.732151
 20
-19.317339
 30
0.0
 11
15.660887
 21
-19.317339
 31
0.0
  0
LINE
  5
36C
330
322
100
AcDbEntity
  8
LAYER_1
 62
     7
100
AcDbLine
 10
15.660543
 20
11.348317
 30
0.0
 11
15.660887
 21
-19.880268
 31
0.0
  0
LINE
  5
36B
330
322
100
AcDbEntity
  8
LAYER_1
 62
     7
100
AcDbLine
 10
16.42656
 20
-19.317339
 30
0.0
 11
21.969546
 21
-19.317339
 31
0.0
  0
LINE
  5
36A
330
322
100
AcDbEntity
  8
LAYER_1
 62
     7
100
AcDbLine
 10
22.83082
 20
-10.627086
 30
0.0
 11
22.83082
 21
-19.88009599999999
 31
0.0
  0
LINE
  5
369
330
322
100
AcDbEntity
  8
LAYER_1
 62
     7
100
AcDbLine
 10
22.83082
 20
-19.317339
 30
0.0
 11
24.759557
 21
-19.317167
 31
0.0
  0
LINE
  5
368
330
322
100
AcDbEntity
  8
LAYER_1
 62
     7
100
AcDbLine
 10
25.593959
 20
-19.317167
 30
0.0
 11
28.003286
 21
-19.317167
 31
0.0
  0
LINE
  5
367
330
322
100
AcDbEntity
  8
LAYER_1
 62
     7
100
AcDbLine
 10
24.759729
 20
-19.88009599999999
 30
0.0
 11
24.759557
 21
-16.098759
 31
0.0
  0
LINE
  5
366
330
322
100
AcDbEntity
  8
LAYER_1
 62
     7
100
AcDbLine
 10
22.097531
 20
-10.086378
 30
0.0
 11
22.097531
 21
-15.398199
 31
0.0
  0
LINE
  5
365
330
322
100
AcDbEntity
  8
LAYER_1
 62
     7
100
AcDbLine
 10
22.097531
 20
-15.10571
 30
0.0
 11
23.563936
 21
-15.10571
 31
0.0
  0
LINE
  5
364
330
322
100
AcDbEntity
  8
LAYER_1
 62
     7
100
AcDbLine
 10
24.457077
 20
-15.10571
 30
0.0
 11
27.025224
 21
-15.10571
 31
0.0
  0
LINE
  5
363
330
322
100
AcDbEntity
  8
LAYER_1
 62
     7
100
AcDbLine
 10
21.227989
 20
-15.10571
 30
0.0
 11
18.659843
 21
-15.10571
 31
0.0
  0
LINE
  5
362
330
322
100
AcDbEntity
  8
LAYER_1
 62
     7
100
AcDbLine
 10
23.563764
 20
-10.073287
 30
0.0
 11
23.563936
 21
-15.406812
 31
0.0
  0
LINE
  5
361
330
322
100
AcDbEntity
  8
LAYER_1
 62
     7
100
AcDbLine
 10
28.141607
 20
-10.076732
 30
0.0
 11
28.141262
 21
1.989886999999999
 31
0.0
  0
LINE
  5
360
330
322
100
AcDbEntity
  8
LAYER_1
 62
     7
100
AcDbLine
 10
22.271681
 20
2.883027999999999
 30
0.0
 11
28.704191
 21
2.883027999999999
 31
0.0
  0
LINE
  5
35F
330
322
100
AcDbEntity
  8
LAYER_1
 62
     7
100
AcDbLine
 10
28.141262
 20
3.744301999999999
 30
0.0
 11
28.14109
 21
16.245692
 31
0.0
  0
LINE
  5
35E
330
322
100
AcDbEntity
  8
LAYER_1
 62
     7
100
AcDbLine
 10
25.586896
 20
-11.085801
 30
0.0
 11
33.17110200000001
 21
-11.085628
 31
0.0
  0
LINE
  5
35D
330
322
100
AcDbEntity
  8
LAYER_1
 62
     7
100
AcDbLine
 10
32.608173
 20
-10.128581
 30
0.0
 11
32.607657
 21
16.245865
 31
0.0
  0
LINE
  5
35C
330
322
100
AcDbEntity
  8
LAYER_1
 62
     7
100
AcDbLine
 10
33.170757
 20
16.852029
 30
0.0
 11
25.396038
 21
16.851857
 31
0.0
  0
LINE
  5
35B
330
322
100
AcDbEntity
  8
LAYER_1
 62
     7
100
AcDbLine
 10
14.784283
 20
19.662193
 30
0.0
 11
18.38613
 21
19.662193
 31
0.0
  0
LINE
  5
35A
330
322
100
AcDbEntity
  8
LAYER_1
 62
     7
100
AcDbLine
 10
19.247576
 20
5.911266999999999
 30
0.0
 11
19.247576
 21
20.801142
 31
0.0
  0
LINE
  5
359
330
322
100
AcDbEntity
  8
LAYER_1
 62
     7
100
AcDbLine
 10
20.300225
 20
19.662193
 30
0.0
 11
23.865899
 21
19.662366
 31
0.0
  0
LINE
  5
358
330
322
100
AcDbEntity
  8
LAYER_1
 62
     7
100
AcDbLine
 10
13.731462
 20
17.583767
 30
0.0
 11
13.731462
 21
24.182848
 31
0.0
  0
LINE
  5
357
330
322
100
AcDbEntity
  8
LAYER_1
 62
     7
100
AcDbLine
 10
14.720376
 20
23.615785
 30
0.0
 11
23.9615
 21
23.615785
 31
0.0
  0
LINE
  5
356
330
322
100
AcDbEntity
  8
LAYER_1
 62
     7
100
AcDbLine
 10
21.025762
 20
-8.14455
 30
0.0
 11
9.787
 21
-8.144721999999999
 31
0.0
  0
LINE
  5
355
330
322
100
AcDbEntity
  8
LAYER_1
 62
     7
100
AcDbLine
 10
10.349928
 20
-7.379222
 30
0.0
 11
10.349756
 21
13.149068
 31
0.0
  0
LINE
  5
354
330
322
100
AcDbEntity
  8
LAYER_1
 62
     7
100
AcDbLine
 10
17.715887
 20
12.994039
 30
0.0
 11
22.057224
 21
12.994039
 31
0.0
  0
LINE
  5
353
330
322
100
AcDbEntity
  8
LAYER_1
 62
     7
100
AcDbLine
 10
21.489989
 20
9.180146
 30
0.0
 11
21.489989
 21
12.568742
 31
0.0
  0
LINE
  5
352
330
322
100
AcDbEntity
  8
LAYER_1
 62
     7
100
AcDbLine
 10
21.489989
 20
15.29209
 30
0.0
 11
21.489989
 21
18.606444
 31
0.0
  0
LINE
  5
351
330
322
100
AcDbEntity
  8
LAYER_1
 62
     7
100
AcDbLine
 10
17.788578
 20
14.831308
 30
0.0
 11
22.060152
 21
14.831308
 31
0.0
  0
LINE
  5
350
330
322
100
AcDbEntity
  8
LAYER_1
 62
     7
100
AcDbLine
 10
24.759729
 20
-14.241508
 30
0.0
 11
24.759557
 21
-11.517643
 31
0.0
  0
LINE
  5
34F
330
322
100
AcDbEntity
  8
LAYER_1
 62
     7
100
AcDbLine
 10
-41.094477
 20
0.9713450000000001
 30
0.0
 11
-41.094305
 21
-10.200066
 31
0.0
  0
LINE
  5
34E
330
322
100
AcDbEntity
  8
LAYER_1
 62
     7
100
AcDbLine
 10
-49.992297
 20
-5.460821
 30
0.0
 11
-49.99264199999999
 21
14.939657
 31
0.0
  0
LINE
  5
34D
330
322
100
AcDbEntity
  8
LAYER_1
 62
     7
100
AcDbLine
 10
-50.55557
 20
15.769063
 30
0.0
 11
-46.679494
 21
15.769236
 31
0.0
  0
LINE
  5
34C
330
322
100
AcDbEntity
  8
LAYER_1
 62
     7
100
AcDbLine
 10
-39.364178
 20
-6.290227999999999
 30
0.0
 11
-50.84754199999999
 21
-6.290399999999999
 31
0.0
  0
LINE
  5
34B
330
322
100
AcDbEntity
  8
LAYER_1
 62
     7
100
AcDbLine
 10
-50.727998
 20
-13.857724
 30
0.0
 11
-47.91800499999999
 21
-13.857552
 31
0.0
  0
LINE
  5
34A
330
322
100
AcDbEntity
  8
LAYER_1
 62
     7
100
AcDbLine
 10
-46.610075
 20
-13.857552
 30
0.0
 11
-44.681338
 21
-13.857552
 31
0.0
  0
LINE
  5
349
330
322
100
AcDbEntity
  8
LAYER_1
 62
     7
100
AcDbLine
 10
-44.681683
 20
12.88948
 30
0.0
 11
-44.681338
 21
-14.420481
 31
0.0
  0
LINE
  5
348
330
322
100
AcDbEntity
  8
LAYER_1
 62
     7
100
AcDbLine
 10
-43.851931
 20
-13.857552
 30
0.0
 11
-38.372679
 21
-13.85738
 31
0.0
  0
LINE
  5
347
330
322
100
AcDbEntity
  8
LAYER_1
 62
     7
100
AcDbLine
 10
-37.511405
 20
-14.420308
 30
0.0
 11
-37.511578
 21
-4.684295999999999
 31
0.0
  0
LINE
  5
346
330
322
100
AcDbEntity
  8
LAYER_1
 62
     7
100
AcDbLine
 10
-46.610075
 20
-9.964593999999999
 30
0.0
 11
-46.610075
 21
-16.178857
 31
0.0
  0
LINE
  5
345
330
322
100
AcDbEntity
  8
LAYER_1
 62
     7
100
AcDbLine
 10
-45.68506699999999
 20
-18.132916
 30
0.0
 11
-42.05118
 21
-18.13274299999999
 31
0.0
  0
LINE
  5
344
330
322
100
AcDbEntity
  8
LAYER_1
 62
     7
100
AcDbLine
 10
-41.094132
 20
-15.252644
 30
0.0
 11
-41.094132
 21
-18.977653
 31
0.0
  0
LINE
  5
343
330
322
100
AcDbEntity
  8
LAYER_1
 62
     7
100
AcDbLine
 10
-40.13708499999999
 20
-18.13274299999999
 30
0.0
 11
-36.699052
 21
-18.132571
 31
0.0
  0
LINE
  5
342
330
322
100
AcDbEntity
  8
LAYER_1
 62
     7
100
AcDbLine
 10
-35.582496
 20
-16.178513
 30
0.0
 11
-35.582669
 21
-9.964422
 31
0.0
  0
LINE
  5
341
330
322
100
AcDbEntity
  8
LAYER_1
 62
     7
100
AcDbLine
 10
-46.610075
 20
-11.483192
 30
0.0
 11
-46.610075
 21
-24.183192
 31
0.0
  0
LINE
  5
340
330
322
100
AcDbEntity
  8
LAYER_1
 62
     7
100
AcDbLine
 10
-45.87627
 20
-23.269381
 30
0.0
 11
-36.380036
 21
-23.269208
 31
0.0
  0
LINE
  5
33F
330
322
100
AcDbEntity
  8
LAYER_1
 62
     7
100
AcDbLine
 10
-35.582496
 20
-24.18302000000001
 30
0.0
 11
-35.582669
 21
-11.483192
 31
0.0
  0
LINE
  5
33E
330
322
100
AcDbEntity
  8
LAYER_1
 62
     7
100
AcDbLine
 10
-37.511405
 20
-13.85738
 30
0.0
 11
-36.402946
 21
-13.85738
 31
0.0
  0
LINE
  5
33D
330
322
100
AcDbEntity
  8
LAYER_1
 62
     7
100
AcDbLine
 10
-36.402946
 20
-13.85738
 30
0.0
 11
-35.616947
 21
-13.85738
 31
0.0
  0
LINE
  5
33C
330
322
100
AcDbEntity
  8
LAYER_1
 62
     7
100
AcDbLine
 10
-33.926267
 20
-13.85738
 30
0.0
 11
-31.988573
 21
-13.85738
 31
0.0
  0
LINE
  5
33B
330
322
100
AcDbEntity
  8
LAYER_1
 62
     7
100
AcDbLine
 10
-32.200618
 20
-8.178483999999999
 30
0.0
 11
-32.20079099999999
 21
4.035585
 31
0.0
  0
LINE
  5
33A
330
322
100
AcDbEntity
  8
LAYER_1
 62
     7
100
AcDbLine
 10
-34.945843
 20
-9.231306
 30
0.0
 11
-27.740942
 21
-9.231306
 31
0.0
  0
LINE
  5
339
330
322
100
AcDbEntity
  8
LAYER_1
 62
     7
100
AcDbLine
 10
-28.308177
 20
-8.146616999999999
 30
0.0
 11
-28.308694
 21
17.940679
 31
0.0
  0
LINE
  5
338
330
322
100
AcDbEntity
  8
LAYER_1
 62
     7
100
AcDbLine
 10
-27.741287
 20
18.706352
 30
0.0
 11
-35.041444
 21
18.706179
 31
0.0
  0
LINE
  5
337
330
322
100
AcDbEntity
  8
LAYER_1
 62
     7
100
AcDbLine
 10
-36.45135
 20
4.737351
 30
0.0
 11
-31.633556
 21
4.737351
 31
0.0
  0
LINE
  5
336
330
322
100
AcDbEntity
  8
LAYER_1
 62
     7
100
AcDbLine
 10
-32.20079099999999
 20
5.535063
 30
0.0
 11
-32.201135
 21
18.100187
 31
0.0
  0
LINE
  5
335
330
322
100
AcDbEntity
  8
LAYER_1
 62
     7
100
AcDbLine
 10
-42.591371
 20
14.848362
 30
0.0
 11
-38.473965
 21
14.848534
 31
0.0
  0
LINE
  5
334
330
322
100
AcDbEntity
  8
LAYER_1
 62
     7
100
AcDbLine
 10
-39.04120000000001
 20
11.33557
 30
0.0
 11
-39.041372
 21
13.98726
 31
0.0
  0
LINE
  5
333
330
322
100
AcDbEntity
  8
LAYER_1
 62
     7
100
AcDbLine
 10
-39.041372
 20
14.848534
 30
0.0
 11
-39.041372
 21
16.685803
 31
0.0
  0
LINE
  5
332
330
322
100
AcDbEntity
  8
LAYER_1
 62
     7
100
AcDbLine
 10
-39.041372
 20
17.741208
 30
0.0
 11
-39.041372
 21
19.897666
 31
0.0
  0
LINE
  5
331
330
322
100
AcDbEntity
  8
LAYER_1
 62
     7
100
AcDbLine
 10
-42.761731
 20
16.685631
 30
0.0
 11
-38.473965
 21
16.685803
 31
0.0
  0
LINE
  5
330
330
322
100
AcDbEntity
  8
LAYER_1
 62
     7
100
AcDbLine
 10
-45.419278
 20
17.580322
 30
0.0
 11
-45.419278
 21
20.895882
 31
0.0
  0
LINE
  5
32F
330
322
100
AcDbEntity
  8
LAYER_1
 62
     7
100
AcDbLine
 10
-48.85472700000001
 20
20.328475
 30
0.0
 11
-46.057309
 21
20.328475
 31
0.0
  0
LINE
  5
32E
330
322
100
AcDbEntity
  8
LAYER_1
 62
     7
100
AcDbLine
 10
-45.419278
 20
20.328475
 30
0.0
 11
-43.948739
 21
20.328475
 31
0.0
  0
LINE
  5
32D
330
322
100
AcDbEntity
  8
LAYER_1
 62
     7
100
AcDbLine
 10
-43.27884
 20
20.328475
 30
0.0
 11
-41.873585
 21
20.328647
 31
0.0
  0
LINE
  5
32C
330
322
100
AcDbEntity
  8
LAYER_1
 62
     7
100
AcDbLine
 10
-19.619302
 20
21.15271400000001
 30
0.0
 11
-36.165923
 21
21.152542
 31
0.0
  0
LINE
  5
32B
330
322
100
AcDbEntity
  8
LAYER_1
 62
     7
100
AcDbLine
 10
-17.104382
 20
-1.328084
 30
0.0
 11
-14.74587
 21
-1.328084
 31
0.0
  0
LINE
  5
32A
330
322
100
AcDbEntity
  8
LAYER_1
 62
     7
100
AcDbLine
 10
-14.075971
 20
-1.328084
 30
0.0
 11
-12.132248
 21
-1.328084
 31
0.0
  0
LINE
  5
329
330
322
100
AcDbEntity
  8
LAYER_1
 62
     7
100
AcDbLine
 10
-11.512648
 20
-1.328084
 30
0.0
 11
-8.512831
 21
-1.328084
 31
0.0
  0
LINE
  5
328
330
322
100
AcDbEntity
  8
LAYER_1
 62
     7
100
AcDbLine
 10
-18.321535
 20
-9.486758999999999
 30
0.0
 11
-18.321535
 21
-14.420308
 31
0.0
  0
LINE
  5
327
330
322
100
AcDbEntity
  8
LAYER_1
 62
     7
100
AcDbLine
 10
-17.300753
 20
-13.857208
 30
0.0
 11
-12.879145
 21
-13.857208
 31
0.0
  0
LINE
  5
326
330
322
100
AcDbEntity
  8
LAYER_1
 62
     7
100
AcDbLine
 10
-12.113472
 20
-14.420136
 30
0.0
 11
-12.113472
 21
-9.522415999999999
 31
0.0
  0
LINE
  5
325
330
322
100
AcDbEntity
  8
LAYER_1
 62
     7
100
AcDbLine
 10
-14.060468
 20
-3.557577999999999
 30
0.0
 11
-14.060468
 21
-0.5663739999999999
 31
0.0
  0
ENDBLK
  5
37E
330
322
100
AcDbEntity
  8
0
100
AcDbBlockEnd
  0
BLOCK
  5
381
330
37F
100
AcDbEntity
  8
0
 62
     7
100
AcDbBlockBegin
  2
AI9-BLK4
 70
     0
 10
0.0
 20
0.0
 30
0.0
  3
AI9-BLK4
  1

  0
INSERT
  5
383
330
37F
100
AcDbEntity
  8
LAYER_1
 62
     7
100
AcDbBlockReference
  2
AI9-BLK5
 10
0.0
 20
0.0
 30
0.0
  0
ENDBLK
  5
3A9
330
37F
100
AcDbEntity
  8
0
100
AcDbBlockEnd
  0
BLOCK
  5
384
330
382
100
AcDbEntity
  8
0
 62
     7
100
AcDbBlockBegin
  2
AI9-BLK5
 70
     0
 10
0.0
 20
0.0
 30
0.0
  3
AI9-BLK5
  1

  0
LINE
  5
3A7
330
382
100
AcDbEntity
  8
LAYER_1
  6
AI9-LTYPE1
 62
     7
100
AcDbLine
 10
40.532668
 20
12.175312
 30
0.0
 11
44.99716699999999
 21
12.175312
 31
0.0
  0
LINE
  5
3A6
330
382
100
AcDbEntity
  8
LAYER_1
  6
AI9-LTYPE1
 62
     7
100
AcDbLine
 10
40.53284
 20
8.863196999999999
 30
0.0
 11
44.99734
 21
8.863196999999999
 31
0.0
  0
LINE
  5
3A5
330
382
100
AcDbEntity
  8
LAYER_1
  6
AI9-LTYPE1
 62
     7
100
AcDbLine
 10
44.99768399999999
 20
-9.146383999999999
 30
0.0
 11
44.997856
 21
-14.46165
 31
0.0
  0
LINE
  5
3A4
330
382
100
AcDbEntity
  8
LAYER_1
  6
AI9-LTYPE1
 62
     7
100
AcDbLine
 10
40.53318499999999
 20
-9.883979
 30
0.0
 11
44.99768399999999
 21
-9.883979
 31
0.0
  0
LINE
  5
3A3
330
382
100
AcDbEntity
  8
LAYER_1
  6
AI9-LTYPE1
 62
     7
100
AcDbLine
 10
40.53318499999999
 20
-13.191787
 30
0.0
 11
44.997856
 21
-13.191787
 31
0.0
  0
LINE
  5
3A2
330
382
100
AcDbEntity
  8
LAYER_1
 62
     7
100
AcDbLine
 10
20.227275
 20
-2.897841999999999
 30
0.0
 11
20.227275
 21
-1.060572999999999
 31
0.0
  0
LINE
  5
3A1
330
382
100
AcDbEntity
  8
LAYER_1
 62
     7
100
AcDbLine
 10
22.614382
 20
-0.510563
 30
0.0
 11
20.777112
 21
-0.510563
 31
0.0
  0
LINE
  5
3A0
330
382
100
AcDbEntity
  8
LAYER_1
 62
     7
100
AcDbLine
 10
20.227103
 20
1.880677999999999
 30
0.0
 11
20.227275
 21
0.04358
 31
0.0
  0
LINE
  5
39F
330
382
100
AcDbEntity
  8
LAYER_1
 62
     7
100
AcDbLine
 10
19.672959
 20
-0.5107350000000001
 30
0.0
 11
17.835862
 21
-0.5107350000000001
 31
0.0
  0
LINE
  5
39E
330
382
100
AcDbEntity
  8
LAYER_1
 62
     7
100
AcDbLine
 10
16.639897
 20
12.602676
 30
0.0
 11
16.64007
 21
8.496294
 31
0.0
  0
LINE
  5
39D
330
382
100
AcDbEntity
  8
LAYER_1
 62
     7
100
AcDbLine
 10
15.269783
 20
11.437545
 30
0.0
 11
17.79211
 21
11.437545
 31
0.0
  0
LINE
  5
39C
330
382
100
AcDbEntity
  8
LAYER_1
 62
     7
100
AcDbLine
 10
15.269783
 20
10.521322
 30
0.0
 11
17.79211
 21
10.521322
 31
0.0
  0
LINE
  5
39B
330
382
100
AcDbEntity
  8
LAYER_1
 62
     7
100
AcDbLine
 10
15.269783
 20
9.600448
 30
0.0
 11
17.79211
 21
9.600448
 31
0.0
  0
LINE
  5
39A
330
382
100
AcDbEntity
  8
LAYER_1
 62
     7
100
AcDbLine
 10
23.810175
 20
-9.548254
 30
0.0
 11
23.810175
 21
-13.698389
 31
0.0
  0
LINE
  5
399
330
382
100
AcDbEntity
  8
LAYER_1
 62
     7
100
AcDbLine
 10
22.662441
 20
-10.61744
 30
0.0
 11
25.049548
 21
-10.617268
 31
0.0
  0
LINE
  5
398
330
382
100
AcDbEntity
  8
LAYER_1
 62
     7
100
AcDbLine
 10
22.662441
 20
-11.538142
 30
0.0
 11
25.049548
 21
-11.538142
 31
0.0
  0
LINE
  5
397
330
382
100
AcDbEntity
  8
LAYER_1
 62
     7
100
AcDbLine
 10
22.662441
 20
-12.454537
 30
0.0
 11
25.049548
 21
-12.454537
 31
0.0
  0
LINE
  5
396
330
382
100
AcDbEntity
  8
LAYER_1
 62
     7
100
AcDbLine
 10
-40.11495
 20
-1.043347
 30
0.0
 11
-40.11495
 21
0.7939220000000001
 31
0.0
  0
LINE
  5
395
330
382
100
AcDbEntity
  8
LAYER_1
 62
     7
100
AcDbLine
 10
-37.727844
 20
1.343758999999999
 30
0.0
 11
-39.564941
 21
1.343758999999999
 31
0.0
  0
LINE
  5
394
330
382
100
AcDbEntity
  8
LAYER_1
 62
     7
100
AcDbLine
 10
-40.11495
 20
3.735173
 30
0.0
 11
-40.11495
 21
1.897902999999999
 31
0.0
  0
LINE
  5
393
330
382
100
AcDbEntity
  8
LAYER_1
 62
     7
100
AcDbLine
 10
-40.669094
 20
1.343758999999999
 30
0.0
 11
-42.506363
 21
1.343758999999999
 31
0.0
  0
LINE
  5
392
330
382
100
AcDbEntity
  8
LAYER_1
 62
     7
100
AcDbLine
 10
-36.532051
 20
-7.628302999999999
 30
0.0
 11
-36.532051
 21
-11.78705
 31
0.0
  0
LINE
  5
391
330
382
100
AcDbEntity
  8
LAYER_1
 62
     7
100
AcDbLine
 10
-43.702156
 20
14.46165
 30
0.0
 11
-43.702156
 21
10.241752
 31
0.0
  0
LINE
  5
390
330
382
100
AcDbEntity
  8
LAYER_1
 62
     7
100
AcDbLine
 10
-45.04195399999999
 20
13.29204
 30
0.0
 11
-42.50653599999999
 21
13.29204
 31
0.0
  0
LINE
  5
38F
330
382
100
AcDbEntity
  8
LAYER_1
 62
     7
100
AcDbLine
 10
-45.04195399999999
 20
12.375644
 30
0.0
 11
-42.50653599999999
 21
12.375644
 31
0.0
  0
LINE
  5
38E
330
382
100
AcDbEntity
  8
LAYER_1
 62
     7
100
AcDbLine
 10
-45.04195399999999
 20
11.45477
 30
0.0
 11
-42.50653599999999
 21
11.45477
 31
0.0
  0
LINE
  5
38D
330
382
100
AcDbEntity
  8
LAYER_1
 62
     7
100
AcDbLine
 10
-37.614328
 20
-8.762945
 30
0.0
 11
-35.401715
 21
-8.762945
 31
0.0
  0
LINE
  5
38C
330
382
100
AcDbEntity
  8
LAYER_1
 62
     7
100
AcDbLine
 10
-37.614328
 20
-9.683647
 30
0.0
 11
-35.414806
 21
-9.683647
 31
0.0
  0
LINE
  5
38B
330
382
100
AcDbEntity
  8
LAYER_1
 62
     7
100
AcDbLine
 10
-37.614155
 20
-10.600042
 30
0.0
 11
-35.423591
 21
-10.600042
 31
0.0
  0
LINE
  5
38A
330
382
100
AcDbEntity
  8
LAYER_1
  6
AI9-LTYPE1
 62
     7
100
AcDbLine
 10
-17.34218
 20
-8.029484
 30
0.0
 11
-13.096272
 21
-8.029484
 31
0.0
  0
LINE
  5
389
330
382
100
AcDbEntity
  8
LAYER_1
  6
AI9-LTYPE1
 62
     7
100
AcDbLine
 10
-13.096272
 20
-7.292061
 30
0.0
 11
-13.096272
 21
-12.517065
 31
0.0
  0
LINE
  5
388
330
382
100
AcDbEntity
  8
LAYER_1
  6
AI9-LTYPE1
 62
     7
100
AcDbLine
 10
-17.342008
 20
-11.337465
 30
0.0
 11
-13.096272
 21
-11.337465
 31
0.0
  0
SPLINE
  5
387
330
382
100
AcDbEntity
  8
LAYER_1
  6
AI9-LTYPE1
 62
     7
100
AcDbSpline
210
0.0
220
0.0
230
1.0
 70
     8
 71
     3
 72
    11
 73
     7
 74
     0
 42
0.0000000001
 43
0.0000000001
 40
0.0
 40
0.0
 40
0.0
 40
0.0
 40
1.0
 40
1.0
 40
1.0
 40
2.0
 40
2.0
 40
2.0
 40
2.0
 10
-13.09627210828993
 20
-7.292061360677081
 30
0.0
 10
-13.09627210828993
 20
-7.292061360677081
 30
0.0
 10
-11.8305440266927
 20
-7.292061360677081
 30
0.0
 10
-11.8305440266927
 20
-7.292061360677081
 30
0.0
 10
-11.8305440266927
 20
-7.292061360677081
 30
0.0
 10
-11.10517917209201
 20
-7.296367730034721
 30
0.0
 10
-11.10517917209201
 20
-6.462999131944443
 30
0.0
  0
LINE
  5
386
330
382
100
AcDbEntity
  8
LAYER_1
  6
AI9-LTYPE1
 62
     7
100
AcDbLine
 10
-17.342352
 20
10.717692
 30
0.0
 11
-13.096617
 21
10.717692
 31
0.0
  0
LINE
  5
385
330
382
100
AcDbEntity
  8
LAYER_1
  6
AI9-LTYPE1
 62
     7
100
AcDbLine
 10
-17.342525
 20
14.029807
 30
0.0
 11
-13.096617
 21
14.029979
 31
0.0
  0
ENDBLK
  5
3A8
330
382
100
AcDbEntity
  8
0
100
AcDbBlockEnd
  0
BLOCK
  5
3B8
330
3B6
100
AcDbEntity
  8
0
 62
     7
100
AcDbBlockBegin
  2
AI9-BLK6
 70
     0
 10
0.0
 20
0.0
 30
0.0
  3
AI9-BLK6
  1

  0
POLYLINE
  5
3BE
330
3B6
100
AcDbEntity
  8
LAYER_1
 62
     7
100
AcDb2dPolyline
 66
     1
 10
0.0
 20
0.0
 30
0.0
 70
     1
  0
VERTEX
  5
3BF
330
3BE
100
AcDbEntity
  8
LAYER_1
 62
     7
100
AcDbVertex
100
AcDb2dVertex
 10
3.565846
 20
-0.513319
 30
0.0
  0
VERTEX
  5
3C0
330
3BE
100
AcDbEntity
  8
LAYER_1
 62
     7
100
AcDbVertex
100
AcDb2dVertex
 10
5.502506999999999
 20
0.005512
 30
0.0
  0
VERTEX
  5
3C1
330
3BE
100
AcDbEntity
  8
LAYER_1
 62
     7
100
AcDbVertex
100
AcDb2dVertex
 10
3.565846
 20
0.5245160000000001
 30
0.0
  0
SEQEND
  5
3C2
330
3BE
100
AcDbEntity
  8
LAYER_1
 62
     7
  0
POLYLINE
  5
3B9
330
3B6
100
AcDbEntity
  8
LAYER_1
 62
     7
100
AcDb2dPolyline
 66
     1
 10
0.0
 20
0.0
 30
0.0
 70
     1
  0
VERTEX
  5
3BA
330
3B9
100
AcDbEntity
  8
LAYER_1
 62
     7
100
AcDbVertex
100
AcDb2dVertex
 10
-3.565846
 20
0.513319
 30
0.0
  0
VERTEX
  5
3BB
330
3B9
100
AcDbEntity
  8
LAYER_1
 62
     7
100
AcDbVertex
100
AcDb2dVertex
 10
-5.502506999999999
 20
-0.005684
 30
0.0
  0
VERTEX
  5
3BC
330
3B9
100
AcDbEntity
  8
LAYER_1
 62
     7
100
AcDbVertex
100
AcDb2dVertex
 10
-3.565846
 20
-0.5245160000000001
 30
0.0
  0
SEQEND
  5
3BD
330
3B9
100
AcDbEntity
  8
LAYER_1
 62
     7
  0
ENDBLK
  5
3C3
330
3B6
100
AcDbEntity
  8
0
100
AcDbBlockEnd
  0
BLOCK
  5
47A
330
478
100
AcDbEntity
  8
0
100
AcDbBlockBegin
  2
GENAXEH
 70
     0
 10
0.0
 20
0.0
 30
0.0
  3
GENAXEH
  1

  0
LINE
  5
479
330
478
100
AcDbEntity
  8
0
100
AcDbLine
 10
-1.0
 20
0.0
 30
0.0
 11
1.0
 21
0.0
 31
0.0
  0
ENDBLK
  5
47B
330
478
100
AcDbEntity
  8
0
100
AcDbBlockEnd
  0
ENDSEC
  0
SECTION
  2
ENTITIES
  0
INSERT
  5
35
330
A
100
AcDbEntity
  8
LAYER_1
 62
     7
100
AcDbBlockReference
  2
AI9-BLK1
 10
113.477397
 20
133.212196
 30
0.0
  0
MTEXT
  5
33
330
A
100
AcDbEntity
  8
LAYER_1
 62
     7
100
AcDbMText
 10
76.74346400000001
 20
164.000235
 30
0.0
 40
2.099867999999999
 41
0.0
 71
     1
 72
     2
  1
\fGill Sans|b1|i0;Switch
  7
STD
 73
     1
 44
1.0
1001
ACAD
1000
MTEXTBEGIN
1070
    73
1070
     1
1070
    44
1040
1.0
1070
    74
1070
     0
1000
MTEXTEND
  0
MTEXT
  5
32
330
A
100
AcDbEntity
  8
LAYER_1
 62
     7
100
AcDbMText
 10
136.386163
 20
164.000235
 30
0.0
 40
2.099867999999999
 41
0.0
 71
     1
 72
     2
  1
\fGill Sans|b1|i0;Actuator
  7
STD
 73
     1
 44
1.0
1001
ACAD
1000
MTEXTBEGIN
1070
    73
1070
     1
1070
    44
1040
1.0
1070
    74
1070
     0
1000
MTEXTEND
  0
MTEXT
  5
31
330
A
100
AcDbEntity
  8
LAYER_1
 62
     7
100
AcDbMText
 10
131.086745
 20
115.054591
 30
0.0
 40
1.837383999999999
 41
0.0
 71
     1
 72
     2
  1
\fGill Sans|b0|i0;19.5
  7
STD
 73
     1
 44
1.0
1001
ACAD
1000
MTEXTBEGIN
1070
    73
1070
     1
1070
    44
1040
1.0
1070
    74
1070
     0
1000
MTEXTEND
  0
MTEXT
  5
30
330
A
100
AcDbEntity
  8
LAYER_1
 62
     7
100
AcDbMText
 10
139.551
 20
115.054591
 30
0.0
 40
1.837383999999999
 41
0.0
 71
     1
 72
     2
  1
\fGill Sans|b0|i0;7 (0.28)
  7
STD
 73
     1
 44
1.0
1001
ACAD
1000
MTEXTBEGIN
1070
    73
1070
     1
1070
    44
1040
1.0
1070
    74
1070
     0
1000
MTEXTEND
  0
MTEXT
  5
2F
330
A
100
AcDbEntity
  8
LAYER_1
 62
     7
100
AcDbMText
 10
119.795444
 20
115.054591
 30
0.0
 40
1.837383999999999
 41
0.0
 71
     1
 72
     2
  1
\fGill Sans|b0|i0;7 (0.28)
  7
STD
 73
     1
 44
1.0
1001
ACAD
1000
MTEXTBEGIN
1070
    73
1070
     1
1070
    44
1040
1.0
1070
    74
1070
     0
1000
MTEXTEND
  0
MTEXT
  5
2E
330
A
100
AcDbEntity
  8
LAYER_1
 62
     7
100
AcDbMText
 10
152.274771
 20
155.226988
 30
0.0
 40
1.837383999999999
 41
0.0
 71
     1
 72
     2
  1
\fGill Sans|b0|i0;16 (0.63)
  7
STD
 73
     1
 44
1.0
1001
ACAD
1000
MTEXTBEGIN
1070
    73
1070
     1
1070
    44
1040
1.0
1070
    74
1070
     0
1000
MTEXTEND
  0
MTEXT
  5
2D
330
A
100
AcDbEntity
  8
LAYER_1
 62
     7
100
AcDbMText
 10
133.396164
 20
154.87421
 30
0.0
 40
1.837383999999999
 41
0.0
 71
     1
 72
     2
  1
\fGill Sans|b0|i0;16.75 (0.66)
  7
STD
 73
     1
 44
1.0
1001
ACAD
1000
MTEXTBEGIN
1070
    73
1070
     1
1070
    44
1040
1.0
1070
    74
1070
     0
1000
MTEXTEND
  0
MTEXT
  5
2C
330
A
100
AcDbEntity
  8
LAYER_1
 62
     7
100
AcDbMText
 10
121.817887
 20
154.87421
 30
0.0
 40
1.837383999999999
 41
0.0
 71
     1
 72
     2
  1
\fGill Sans|b0|i0;16.75 (0.66)
  7
STD
 73
     1
 44
1.0
1001
ACAD
1000
MTEXTBEGIN
1070
    73
1070
     1
1070
    44
1040
1.0
1070
    74
1070
     0
1000
MTEXTEND
  0
MTEXT
  5
2B
330
A
100
AcDbEntity
  8
LAYER_1
 62
     7
100
AcDbMText
 10
78.927654
 20
114.630672
 30
0.0
 40
1.837383999999999
 41
0.0
 71
     1
 72
     2
  1
\fGill Sans|b0|i0;16.75 (0.66)
  7
STD
 73
     1
 44
1.0
1001
ACAD
1000
MTEXTBEGIN
1070
    73
1070
     1
1070
    44
1040
1.0
1070
    74
1070
     0
1000
MTEXTEND
  0
MTEXT
  5
2A
330
A
100
AcDbEntity
  8
LAYER_1
 62
     7
100
AcDbMText
 10
55.179578
 20
114.630672
 30
0.0
 40
1.837383999999999
 41
0.0
 71
     1
 72
     2
  1
\fGill Sans|b0|i0;16.75 (0.66)
  7
STD
 73
     1
 44
1.0
1001
ACAD
1000
MTEXTBEGIN
1070
    73
1070
     1
1070
    44
1040
1.0
1070
    74
1070
     0
1000
MTEXTEND
  0
MTEXT
  5
29
330
A
100
AcDbEntity
  8
LAYER_1
 62
     7
100
AcDbMText
 10
79.17506999999999
 20
137.052444
 30
0.0
 40
1.837383999999999
 41
0.0
 71
     1
 72
     2
  1
\fGill Sans|b0|i0;39.25 (1.55)
  7
STD
 11
0.0
 21
1.0
 31
0.0
 73
     1
 44
1.0
1001
ACAD
1000
MTEXTBEGIN
1070
    73
1070
     1
1070
    44
1040
1.0
1070
    74
1070
     0
1000
MTEXTEND
  0
MTEXT
  5
28
330
A
100
AcDbEntity
  8
LAYER_1
 62
     7
100
AcDbMText
 10
79.17506999999999
 20
124.021026
 30
0.0
 40
1.837383999999999
 41
0.0
 71
     1
 72
     2
  1
\fGill Sans|b0|i0;39.25 (1.55)
  7
STD
 11
0.0
 21
1.0
 31
0.0
 73
     1
 44
1.0
1001
ACAD
1000
MTEXTBEGIN
1070
    73
1070
     1
1070
    44
1040
1.0
1070
    74
1070
     0
1000
MTEXTEND
  0
MTEXT
  5
27
330
A
100
AcDbEntity
  8
LAYER_1
 62
     7
100
AcDbMText
 10
139.504204
 20
135.303025
 30
0.0
 40
1.837383999999999
 41
0.0
 71
     1
 72
     2
  1
\fGill Sans|b0|i0;39.25 (1.55)
  7
STD
 11
0.0
 21
1.0
 31
0.0
 73
     1
 44
1.0
1001
ACAD
1000
MTEXTBEGIN
1070
    73
1070
     1
1070
    44
1040
1.0
1070
    74
1070
     0
1000
MTEXTEND
  0
MTEXT
  5
26
330
A
100
AcDbEntity
  8
LAYER_1
 62
     7
100
AcDbMText
 10
139.504204
 20
121.918829
 30
0.0
 40
1.837383999999999
 41
0.0
 71
     1
 72
     2
  1
\fGill Sans|b0|i0;39.25 (1.55)
  7
STD
 11
0.0
 21
1.0
 31
0.0
 73
     1
 44
1.0
1001
ACAD
1000
MTEXTBEGIN
1070
    73
1070
     1
1070
    44
1040
1.0
1070
    74
1070
     0
1000
MTEXTEND
  0
MTEXT
  5
25
330
A
100
AcDbEntity
  8
LAYER_1
 62
     7
100
AcDbMText
 10
82.464045
 20
119.033504
 30
0.0
 40
1.837383999999999
 41
0.0
 71
     1
 72
     2
  1
\fGill Sans|b0|i0;7 (0.28)
  7
STD
 73
     1
 44
1.0
1001
ACAD
1000
MTEXTBEGIN
1070
    73
1070
     1
1070
    44
1040
1.0
1070
    74
1070
     0
1000
MTEXTEND
  0
MTEXT
  5
24
330
A
100
AcDbEntity
  8
LAYER_1
 62
     7
100
AcDbMText
 10
55.466554
 20
119.033504
 30
0.0
 40
1.837383999999999
 41
0.0
 71
     1
 72
     2
  1
\fGill Sans|b0|i0;7 (0.28)
  7
STD
 73
     1
 44
1.0
1001
ACAD
1000
MTEXTBEGIN
1070
    73
1070
     1
1070
    44
1040
1.0
1070
    74
1070
     0
1000
MTEXTEND
  0
MTEXT
  5
23
330
A
100
AcDbEntity
  8
LAYER_1
 62
     7
100
AcDbMText
 10
99.529153
 20
100.104952
 30
0.0
 40
3.149802
 41
0.0
 71
     1
 72
     2
  1
\fAbadi MT Condensed Light|b0|i0;mm (in)
  7
STD
 73
     1
 44
1.0
1001
ACAD
1000
MTEXTBEGIN
1070
    73
1070
     1
1070
    44
1040
1.0
1070
    74
1070
     0
1000
MTEXTEND
  0
MTEXT
  5
22
330
A
100
AcDbEntity
  8
LAYER_1
 62
     7
100
AcDbMText
 10
94.48449999999999
 20
105.220229
 30
0.0
 40
3.149802
 41
0.0
 71
     1
 72
     2
  1
\fAbadi MT Condensed Light|b0|i0;Ferrogard GD2
  7
STD
 73
     1
 44
1.0
1001
ACAD
1000
MTEXTBEGIN
1070
    73
1070
     1
1070
    44
1040
1.0
1070
    74
1070
     0
1000
MTEXTEND
  0
ENDSEC
  0
SECTION
  2
OBJECTS
  0
DICTIONARY
  5
19
330
0
100
AcDbDictionary
281
     1
  3
ACAD_COLOR
350
3CC
  3
ACAD_GROUP
350
1A
  3
ACAD_LAYOUT
350
3CF
  3
ACAD_MATERIAL
350
3CB
  3
ACAD_MLINESTYLE
350
1B
  3
ACAD_PLOTSETTINGS
350
3D0
  3
ACAD_PLOTSTYLENAME
350
3C9
  3
ACAD_TABLESTYLE
350
3CD
  3
ACDBHEADERROUNDTRIPXREC
350
494
  3
AcDbVariableDictionary
350
48F
  3
AcmDictionary
350
430
  3
AMG
350
3D6
  3
AMGSNAPSETTINGS
350
484
  3
ASE_INDEX_DICTIONARY
350
48C
  0
DICTIONARY
  5
3CC
102
{ACAD_REACTORS
330
19
102
}
330
19
100
AcDbDictionary
281
     1
  0
DICTIONARY
  5
1A
102
{ACAD_REACTORS
330
19
102
}
330
19
100
AcDbDictionary
281
     1
  0
DICTIONARY
  5
3CF
102
{ACAD_REACTORS
330
19
102
}
330
19
100
AcDbDictionary
281
     1
  3
Layout1
350
3D2
  3
Model
350
3D1
  0
DICTIONARY
  5
3CB
102
{ACAD_REACTORS
330
19
102
}
330
19
100
AcDbDictionary
281
     1
  0
DICTIONARY
  5
1B
102
{ACAD_REACTORS
330
19
102
}
330
19
100
AcDbDictionary
281
     1
  3
STANDARD
350
1C
  0
DICTIONARY
  5
3D0
102
{ACAD_REACTORS
330
19
102
}
330
19
100
AcDbDictionary
281
     1
  0
ACDBDICTIONARYWDFLT
  5
3C9
102
{ACAD_REACTORS
330
19
102
}
330
19
100
AcDbDictionary
281
     1
  3
Normal
350
3CA
100
AcDbDictionaryWithDefault
340
3CA
  0
DICTIONARY
  5
3CD
102
{ACAD_REACTORS
330
19
102
}
330
19
100
AcDbDictionary
281
     1
  3
Standard
350
3CE
  0
DICTIONARY
  5
494
102
{ACAD_REACTORS
330
19
102
}
330
19
100
AcDbDictionary
281
     1
  0
DICTIONARY
  5
48F
102
{ACAD_REACTORS
330
19
102
}
330
19
100
AcDbDictionary
281
     1
  3
CTABLESTYLE
350
490
  3
DIMASSOC
350
491
  3
PROJECTNAME
350
492
  0
DICTIONARY
  5
430
102
{ACAD_REACTORS
330
19
102
}
330
19
100
AcDbDictionary
281
     1
  3
AcmStdDictionary
350
43B
  3
AMDTSECTSYM_ARROWCOLOR
350
45A
  0
DICTIONARY
  5
3D6
102
{ACAD_REACTORS
330
19
102
}
330
19
100
AcDbDictionary
281
     1
  0
DICTIONARY
  5
484
102
{ACAD_REACTORS
330
19
102
}
330
19
100
AcDbDictionary
281
     1
  0
DICTIONARY
  5
48C
102
{ACAD_REACTORS
330
19
102
}
330
19
100
AcDbDictionary
281
     1
  3
ASEBlockHierarchyIndexRecord
350
48E
1001
DCO15
1040
1733132651.772
  0
LAYOUT
  5
3D2
102
{ACAD_XDICTIONARY
360
497
102
}
102
{ACAD_REACTORS
330
3CF
102
}
330
3CF
100
AcDbPlotSettings
  1

  2
\\USMKEVPRNT001\USMKEPD0431
  4

  6

 40
0.0
 41
0.0
 42
0.0
 43
0.0
 44
0.0
 45
0.0
 46
0.0
 47
0.0
 48
0.0
 49
0.0
140
0.0
141
0.0
142
1.0
143
1.0
 70
   688
 72
     0
 73
     0
 74
     5
  7

 75
    16
147
1.0
148
0.0
149
0.0
100
AcDbLayout
  1
Layout1
 70
     0
 71
     1
 10
0.0
 20
0.0
 11
12.0
 21
9.0
 12
0.0
 22
0.0
 32
0.0
 14
1.000000000000000E+20
 24
1.000000000000000E+20
 34
1.000000000000000E+20
 15
-1.000000000000000E+20
 25
-1.000000000000000E+20
 35
-1.000000000000000E+20
146
0.0
 13
0.0
 23
0.0
 33
0.0
 16
1.0
 26
0.0
 36
0.0
 17
0.0
 27
1.0
 37
0.0
 76
     0
330
B
  0
LAYOUT
  5
3D1
102
{ACAD_XDICTIONARY
360
495
102
}
102
{ACAD_REACTORS
330
3CF
102
}
330
3CF
100
AcDbPlotSettings
  1

  2
\\USMKEVPRNT001\USMKEPD0431
  4

  6

 40
0.0
 41
0.0
 42
0.0
 43
0.0
 44
0.0
 45
0.0
 46
0.0
 47
0.0
 48
0.0
 49
0.0
140
0.0
141
0.0
142
1.0
143
1.0
 70
  1712
 72
     0
 73
     0
 74
     0
  7

 75
     0
147
1.0
148
0.0
149
0.0
100
AcDbLayout
  1
Model
 70
     1
 71
     0
 10
0.0
 20
0.0
 11
12.0
 21
9.0
 12
0.0
 22
0.0
 32
0.0
 14
0.0
 24
0.0
 34
0.0
 15
0.0
 25
0.0
 35
0.0
146
0.0
 13
0.0
 23
0.0
 33
0.0
 16
1.0
 26
0.0
 36
0.0
 17
0.0
 27
1.0
 37
0.0
 76
     0
330
A
  0
MLINESTYLE
  5
1C
102
{ACAD_REACTORS
330
1B
102
}
330
1B
100
AcDbMlineStyle
  2
STANDARD
 70
     0
  3

 62
     0
 51
90.0
 52
90.0
 71
     2
 49
0.5
 62
   256
  6
BYLAYER
 49
-0.5
 62
   256
  6
BYLAYER
  0
ACDBPLACEHOLDER
  5
3CA
102
{ACAD_REACTORS
330
3C9
102
}
330
3C9
  0
TABLESTYLE
  5
3CE
102
{ACAD_REACTORS
330
3CD
102
}
330
3CD
100
AcDbTableStyle
  3
Standard
 70
     0
 71
     0
 40
0.06
 41
0.06
280
     0
281
     0
  7
STANDARD
140
0.18
170
     2
 62
     0
 63
     7
283
     0
274
    -2
284
     1
 64
     0
275
    -2
285
     1
 65
     0
276
    -2
286
     1
 66
     0
277
    -2
287
     1
 67
     0
278
    -2
288
     1
 68
     0
279
    -2
289
     1
 69
     0
  7
STANDARD
140
0.25
170
     5
 62
     0
 63
     7
283
     0
274
    -2
284
     1
 64
     0
275
    -2
285
     1
 65
     0
276
    -2
286
     1
 66
     0
277
    -2
287
     1
 67
     0
278
    -2
288
     1
 68
     0
279
    -2
289
     1
 69
     0
  7
STANDARD
140
0.18
170
     5
 62
     0
 63
     7
283
     0
274
    -2
284
     1
 64
     0
275
    -2
285
     1
 65
     0
276
    -2
286
     1
 66
     0
277
    -2
287
     1
 67
     0
278
    -2
288
     1
 68
     0
279
    -2
289
     1
 69
     0
  0
DICTIONARYVAR
  5
490
102
{ACAD_REACTORS
330
48F
102
}
330
48F
100
DictionaryVariables
280
     0
  1
STANDARD
  0
DICTIONARYVAR
  5
491
102
{ACAD_REACTORS
330
48F
102
}
330
48F
100
DictionaryVariables
280
     0
  1
1
  0
DICTIONARYVAR
  5
492
102
{ACAD_REACTORS
330
48F
102
}
330
48F
100
DictionaryVariables
280
     0
  1

  0
DICTIONARY
  5
43B
102
{ACAD_REACTORS
330
430
102
}
330
430
100
AcDbDictionary
281
     1
  0
XRECORD
  5
45A
102
{ACAD_REACTORS
330
430
102
}
330
430
100
AcDbXrecord
280
     1
 90
-1023410169
  0
XRECORD
  5
48E
102
{ACAD_REACTORS
330
48C
102
}
330
48C
100
AcDbXrecord
280
     1
330
35
330
1D9
330
323
330
380
330
3B7
330
383
  0
DICTIONARY
  5
497
330
3D2
100
AcDbDictionary
280
     1
281
     1
  3
ACAD_XREC_ROUNDTRIP
360
498
  0
DICTIONARY
  5
495
330
3D1
100
AcDbDictionary
280
     1
281
     1
  3
ACAD_XREC_ROUNDTRIP
360
496
  0
XRECORD
  5
498
102
{ACAD_REACTORS
330
497
102
}
330
497
100
AcDbXrecord
280
     1
102
SHADEPLOT
 70
     0
102
SHADEPLOTRESLEVEL
 70
     2
102
SHADEPLOTCUSTOMDPI
 70
   300
  0
XRECORD
  5
496
102
{ACAD_REACTORS
330
495
102
}
330
495
100
AcDbXrecord
280
     1
102
SHADEPLOT
 70
     0
102
SHADEPLOTRESLEVEL
 70
     2
102
SHADEPLOTCUSTOMDPI
 70
   300
  0
ENDSEC
  0
EOF
