  0
SECTION
  2
HEADER
  9
$ACADVER
  1
AC1015
  9
$ACADMAINTVER
 70
    20
  9
$DWGCODEPAGE
  3
ANSI_1252
  9
$INSBASE
 10
0.0
 20
0.0
 30
0.0
  9
$EXTMIN
 10
68.74797100000001
 20
93.7764917142857
 30
0.0
  9
$EXTMAX
 10
153.3768119047618
 20
156.825684
 30
0.0
  9
$LIMMIN
 10
68.335708
 20
94.382525
  9
$LIMMAX
 10
149.763985
 20
157.237948
  9
$ORTHOMODE
 70
     0
  9
$REGENMODE
 70
     1
  9
$FILLMODE
 70
     1
  9
$QTEXTMODE
 70
     0
  9
$MIRRTEXT
 70
     1
  9
$LTSCALE
 40
1.0
  9
$ATTMODE
 70
     1
  9
$TEXTSIZE
 40
0.0
  9
$TRACEWID
 40
0.05
  9
$TEXTSTYLE
  7
STANDARD
  9
$CLAYER
  8
0
  9
$CELTYPE
  6
CONTINUOUS
  9
$CECOLOR
 62
   256
  9
$CELTSCALE
 40
1.0
  9
$DISPSILH
 70
     0
  9
$DIMSCALE
 40
1.0
  9
$DIMASZ
 40
0.18
  9
$DIMEXO
 40
0.0625
  9
$DIMDLI
 40
0.38
  9
$DIMRND
 40
0.0
  9
$DIMDLE
 40
0.0
  9
$DIMEXE
 40
0.18
  9
$DIMTP
 40
0.0
  9
$DIMTM
 40
0.0
  9
$DIMTXT
 40
0.18
  9
$DIMCEN
 40
0.09
  9
$DIMTSZ
 40
0.0
  9
$DIMTOL
 70
     0
  9
$DIMLIM
 70
     0
  9
$DIMTIH
 70
     1
  9
$DIMTOH
 70
     1
  9
$DIMSE1
 70
     0
  9
$DIMSE2
 70
     0
  9
$DIMTAD
 70
     0
  9
$DIMZIN
 70
     0
  9
$DIMBLK
  1

  9
$DIMASO
 70
     1
  9
$DIMSHO
 70
     1
  9
$DIMPOST
  1

  9
$DIMAPOST
  1

  9
$DIMALT
 70
     0
  9
$DIMALTD
 70
     2
  9
$DIMALTF
 40
25.4
  9
$DIMLFAC
 40
1.0
  9
$DIMTOFL
 70
     0
  9
$DIMTVP
 40
0.0
  9
$DIMTIX
 70
     0
  9
$DIMSOXD
 70
     0
  9
$DIMSAH
 70
     0
  9
$DIMBLK1
  1

  9
$DIMBLK2
  1

  9
$DIMSTYLE
  2
STANDARD
  9
$DIMCLRD
 70
     0
  9
$DIMCLRE
 70
     0
  9
$DIMCLRT
 70
     0
  9
$DIMTFAC
 40
1.0
  9
$DIMGAP
 40
0.09
  9
$DIMJUST
 70
     0
  9
$DIMSD1
 70
     0
  9
$DIMSD2
 70
     0
  9
$DIMTOLJ
 70
     1
  9
$DIMTZIN
 70
     0
  9
$DIMALTZ
 70
     0
  9
$DIMALTTZ
 70
     0
  9
$DIMUPT
 70
     0
  9
$DIMDEC
 70
     4
  9
$DIMTDEC
 70
     4
  9
$DIMALTU
 70
     2
  9
$DIMALTTD
 70
     2
  9
$DIMTXSTY
  7
STANDARD
  9
$DIMAUNIT
 70
     0
  9
$DIMADEC
 70
     0
  9
$DIMALTRND
 40
0.0
  9
$DIMAZIN
 70
     0
  9
$DIMDSEP
 70
    46
  9
$DIMATFIT
 70
     3
  9
$DIMFRAC
 70
     0
  9
$DIMLDRBLK
  1

  9
$DIMLUNIT
 70
     2
  9
$DIMLWD
 70
    -2
  9
$DIMLWE
 70
    -2
  9
$DIMTMOVE
 70
     0
  9
$LUNITS
 70
     2
  9
$LUPREC
 70
     4
  9
$SKETCHINC
 40
0.1
  9
$FILLETRAD
 40
0.0
  9
$AUNITS
 70
     0
  9
$AUPREC
 70
     0
  9
$MENU
  1
acad
  9
$ELEVATION
 40
0.0
  9
$PELEVATION
 40
0.0
  9
$THICKNESS
 40
0.0
  9
$LIMCHECK
 70
     0
  9
$CHAMFERA
 40
0.0
  9
$CHAMFERB
 40
0.0
  9
$CHAMFERC
 40
0.0
  9
$CHAMFERD
 40
0.0
  9
$SKPOLY
 70
     0
  9
$TDCREATE
 40
2305814.042176054
  9
$TDUCREATE
 40
2305814.250509387
  9
$TDUPDATE
 40
2455862.618279954
  9
$TDUUPDATE
 40
2455862.826613287
  9
$TDINDWG
 40
0.0001953356
  9
$TDUSRTIMER
 40
0.0001953356
  9
$USRTIMER
 70
     1
  9
$ANGBASE
 50
0.0
  9
$ANGDIR
 70
     0
  9
$PDMODE
 70
     0
  9
$PDSIZE
 40
0.0
  9
$PLINEWID
 40
0.0
  9
$SPLFRAME
 70
     0
  9
$SPLINETYPE
 70
     6
  9
$SPLINESEGS
 70
     8
  9
$HANDSEED
  5
318
  9
$SURFTAB1
 70
     6
  9
$SURFTAB2
 70
     6
  9
$SURFTYPE
 70
     6
  9
$SURFU
 70
     6
  9
$SURFV
 70
     6
  9
$UCSBASE
  2

  9
$UCSNAME
  2

  9
$UCSORG
 10
0.0
 20
0.0
 30
0.0
  9
$UCSXDIR
 10
1.0
 20
0.0
 30
0.0
  9
$UCSYDIR
 10
0.0
 20
1.0
 30
0.0
  9
$UCSORTHOREF
  2

  9
$UCSORTHOVIEW
 70
     0
  9
$UCSORGTOP
 10
0.0
 20
0.0
 30
0.0
  9
$UCSORGBOTTOM
 10
0.0
 20
0.0
 30
0.0
  9
$UCSORGLEFT
 10
0.0
 20
0.0
 30
0.0
  9
$UCSORGRIGHT
 10
0.0
 20
0.0
 30
0.0
  9
$UCSORGFRONT
 10
0.0
 20
0.0
 30
0.0
  9
$UCSORGBACK
 10
0.0
 20
0.0
 30
0.0
  9
$PUCSBASE
  2

  9
$PUCSNAME
  2

  9
$PUCSORG
 10
0.0
 20
0.0
 30
0.0
  9
$PUCSXDIR
 10
1.0
 20
0.0
 30
0.0
  9
$PUCSYDIR
 10
0.0
 20
1.0
 30
0.0
  9
$PUCSORTHOREF
  2

  9
$PUCSORTHOVIEW
 70
     0
  9
$PUCSORGTOP
 10
0.0
 20
0.0
 30
0.0
  9
$PUCSORGBOTTOM
 10
0.0
 20
0.0
 30
0.0
  9
$PUCSORGLEFT
 10
0.0
 20
0.0
 30
0.0
  9
$PUCSORGRIGHT
 10
0.0
 20
0.0
 30
0.0
  9
$PUCSORGFRONT
 10
0.0
 20
0.0
 30
0.0
  9
$PUCSORGBACK
 10
0.0
 20
0.0
 30
0.0
  9
$USERI1
 70
     0
  9
$USERI2
 70
     0
  9
$USERI3
 70
     0
  9
$USERI4
 70
     0
  9
$USERI5
 70
     0
  9
$USERR1
 40
0.0
  9
$USERR2
 40
0.0
  9
$USERR3
 40
0.0
  9
$USERR4
 40
0.0
  9
$USERR5
 40
0.0
  9
$WORLDVIEW
 70
     1
  9
$SHADEDGE
 70
     3
  9
$SHADEDIF
 70
    70
  9
$TILEMODE
 70
     1
  9
$MAXACTVP
 70
    16
  9
$PINSBASE
 10
0.0
 20
0.0
 30
0.0
  9
$PLIMCHECK
 70
     0
  9
$PEXTMIN
 10
1.000000000000000E+20
 20
1.000000000000000E+20
 30
1.000000000000000E+20
  9
$PEXTMAX
 10
-1.000000000000000E+20
 20
-1.000000000000000E+20
 30
-1.000000000000000E+20
  9
$PLIMMIN
 10
0.0
 20
0.0
  9
$PLIMMAX
 10
12.0
 20
9.0
  9
$UNITMODE
 70
     0
  9
$VISRETAIN
 70
     0
  9
$PLINEGEN
 70
     1
  9
$PSLTSCALE
 70
     0
  9
$TREEDEPTH
 70
  3020
  9
$CMLSTYLE
  2
STANDARD
  9
$CMLJUST
 70
     0
  9
$CMLSCALE
 40
1.0
  9
$PROXYGRAPHICS
 70
     1
  9
$MEASUREMENT
 70
     0
  9
$CELWEIGHT
370
    -1
  9
$ENDCAPS
280
     0
  9
$JOINSTYLE
280
     0
  9
$LWDISPLAY
290
     0
  9
$INSUNITS
 70
     0
  9
$HYPERLINKBASE
  1

  9
$STYLESHEET
  1

  9
$XEDIT
290
     1
  9
$CEPSNTYPE
380
     0
  9
$PSTYLEMODE
290
     1
  9
$FINGERPRINTGUID
  2
{2D54C4DD-819F-4F01-9103-4A159DC2E7C8}
  9
$VERSIONGUID
  2
{66603864-9E5F-4A71-9D22-DCC29E374FDC}
  9
$EXTNAMES
290
     1
  9
$PSVPSCALE
 40
0.0
  9
$OLESTARTUP
290
     0
  0
ENDSEC
  0
SECTION
  2
CLASSES
  0
CLASS
  1
IMAGE
  2
AcDbRasterImage
  3
ISM
 90
    32895
280
     0
281
     1
  0
CLASS
  1
DICTIONARYVAR
  2
AcDbDictionaryVar
  3
ObjectDBX Classes
 90
        0
280
     0
281
     0
  0
CLASS
  1
RASTERVARIABLES
  2
AcDbRasterVariables
  3
ISM
 90
    32768
280
     0
281
     0
  0
CLASS
  1
IMAGEDEF
  2
AcDbRasterImageDef
  3
ISM
 90
    32768
280
     0
281
     0
  0
CLASS
  1
IMAGEDEF_REACTOR
  2
AcDbRasterImageDefReactor
  3
ISM
 90
    32769
280
     0
281
     0
  0
CLASS
  1
IDBUFFER
  2
AcDbIdBuffer
  3
ObjectDBX Classes
 90
    32768
280
     0
281
     0
  0
CLASS
  1
SPATIAL_FILTER
  2
AcDbSpatialFilter
  3
ObjectDBX Classes
 90
    32768
280
     0
281
     0
  0
CLASS
  1
SORTENTSTABLE
  2
AcDbSortentsTable
  3
ObjectDBX Classes
 90
    32768
280
     0
281
     0
  0
CLASS
  1
LAYER_INDEX
  2
AcDbLayerIndex
  3
ObjectDBX Classes
 90
    32768
280
     0
281
     0
  0
CLASS
  1
SPATIAL_INDEX
  2
AcDbSpatialIndex
  3
ObjectDBX Classes
 90
    32768
280
     0
281
     0
  0
CLASS
  1
OBJECT_PTR
  2
CAseDLPNTableRecord
  3
ASE-LPNTableRecord
 90
    32769
280
     0
281
     0
  0
CLASS
  1
LAYOUT
  2
AcDbLayout
  3
ObjectDBX Classes
 90
        0
280
     0
281
     0
  0
CLASS
  1
PLOTSETTINGS
  2
AcDbPlotSettings
  3
ObjectDBX Classes
 90
    32768
280
     0
281
     0
  0
CLASS
  1
ACDBDICTIONARYWDFLT
  2
AcDbDictionaryWithDefault
  3
ObjectDBX Classes
 90
        0
280
     0
281
     0
  0
CLASS
  1
ACDBPLACEHOLDER
  2
AcDbPlaceHolder
  3
ObjectDBX Classes
 90
        0
280
     0
281
     0
  0
CLASS
  1
VBA_PROJECT
  2
AcDbVbaProject
  3
acad
 90
    32768
280
     0
281
     0
  0
CLASS
  1
WIPEOUT
  2
AcDbWipeout
  3
"WipeOut|Product Desc: Object Enabler for WipeOut entity^I^I^I^I^I^I|Company: Autodesk, Inc.^I^I^I^I^I^I|WEB Address: www.autodesk.com"
 90
    32895
280
     0
281
     1
  0
CLASS
  1
WIPEOUTVARIABLES
  2
AcDbWipeoutVariables
  3
"WipeOut|Product Desc:     WipeOut Dbx Application|Company:          Autodesk, Inc.|WEB Address:      www.autodesk.com"
 90
    32768
280
     0
281
     0
  0
CLASS
  1
RTEXT
  2
RText
  3
RText|AutoCAD Express Tool|expresstools@autodesk.com
 90
    32768
280
     0
281
     1
  0
CLASS
  1
ARCALIGNEDTEXT
  2
AcDbArcAlignedText
  3
ATEXT|AutoCAD Express Tool|expresstools@autodesk.com
 90
    32768
280
     0
281
     1
  0
CLASS
  1
TABLESTYLE
  2
AcDbTableStyle
  3
ObjectDBX Classes
 90
     2047
280
     0
281
     0
  0
CLASS
  1
AMGSETTINGSOBJ
  2
AmgSettingsObj
  3
"AcadM|Product Description: AutoCAD Mechanical 2000|Company: Autodesk"
 90
        0
280
     0
281
     0
  0
CLASS
  1
ACME_DOCUMENT
  2
AcMeDbDoc
  3
AcMeServices
 90
        0
280
     0
281
     0
  0
CLASS
  1
ACMESCOPE
  2
AcMeScope
  3
AcMeServices
 90
        0
280
     0
281
     0
  0
CLASS
  1
ACMECOMMANDHISTORY
  2
AcMeCommandHistory
  3
AcMeServices
 90
        0
280
     0
281
     0
  0
CLASS
  1
ACIMSYSVARMAN
  2
AcImSysVarManager
  3
AcMeServices
 90
        0
280
     0
281
     0
  0
CLASS
  1
ACIMINTSYSVAR
  2
AcImIntSysVar
  3
AcMeServices
 90
        0
280
     0
281
     0
  0
CLASS
  1
ACMEDRAWINGMAN
  2
AcMeDrawingMan
  3
AcMeServices
 90
        0
280
     0
281
     0
  0
CLASS
  1
ACMEVIEW
  2
AcMeView
  3
AcMeServices
 90
        0
280
     0
281
     0
  0
CLASS
  1
ACDBENTITYCACHE
  2
AcMeEntityCache
  3
AcMeServices
 90
        0
280
     0
281
     0
  0
CLASS
  1
GSMANAGER
  2
AcMeGSManager
  3
AcMeServices
 90
        0
280
     0
281
     0
  0
CLASS
  1
AMDTINTERNALREACTOR
  2
AmdtInternalReactor
  3
AcMeServices
 90
        0
280
     0
281
     0
  0
CLASS
  1
ACMESTATEMGR
  2
AcMeStateMgr
  3
AcMeServices
 90
        0
280
     0
281
     0
  0
CLASS
  1
ACGREFMASTER
  2
AcGrefMaster
  3
AcAttribServices
 90
        0
280
     0
281
     0
  0
CLASS
  1
AM_DRAWING_MGR
  2
AcDmDwgMgr
  3
AcMechDwgViewMgmt
 90
        0
280
     0
281
     0
  0
CLASS
  1
AM_DWG_DOCUMENT
  2
AcDmDwgDocument
  3
AcMechDwgViewMgmt
 90
        0
280
     0
281
     0
  0
CLASS
  1
AM_DWG_SHEET
  2
AcDmSheet
  3
AcMechDwgViewMgmt
 90
        0
280
     0
281
     0
  0
CLASS
  1
AM_VIEWDIMPARMAP
  2
AcDmViewDimParMap
  3
AcMechDwgViewMgmt
 90
        0
280
     0
281
     0
  0
CLASS
  1
ACIMREALSYSVAR
  2
AcImRealSysVar
  3
AcMeServices
 90
        0
280
     0
281
     0
  0
CLASS
  1
AM_DWGMGR_NAME
  2
AcDmDwgMgrName
  3
AcMechDwgViewMgmt
 90
        0
280
     0
281
     0
  0
CLASS
  1
ACME_DATABASE
  2
AcMeDbDatabase
  3
AcMeServices
 90
        0
280
     0
281
     0
  0
CLASS
  1
ACRFINSADJUSTERMGR
  2
AcRfInsAdjusterMgr
  3
AcMeServices
 90
        0
280
     0
281
     0
  0
CLASS
  1
ACGREFACADMASTER
  2
AcGrefacadMaster
  3
AcGrefServices
 90
        0
280
     0
281
     0
  0
CLASS
  1
AMDTMENUSTATEMGR
  2
AmdtMenuStateMgr
  3
McadcomServices
 90
        0
280
     0
281
     0
  0
CLASS
  1
AMDTMCOMMENUSTATE
  2
AmdtMcomMenuState
  3
McadcomServices
 90
        0
280
     0
281
     0
  0
CLASS
  1
AMIMASTER
  2
AmiMaster
  3
AmiServices
 90
        0
280
     0
281
     0
  0
CLASS
  1
MAPIAMMOUDLE
  2
MApiAmModule
  3
MApiAmServices
 90
        0
280
     0
281
     0
  0
CLASS
  1
ACIMSTRSYSVAR
  2
AcImStrSysVar
  3
AcMeServices
 90
        0
280
     0
281
     0
  0
CLASS
  1
AMDTADMENUSTATE
  2
AmdtAdMenuState
  3
DesignerServices
 90
        0
280
     0
281
     0
  0
CLASS
  1
ADAPPL
  2
AcAdAppl
  3
DesignerServices
 90
        0
280
     0
281
     0
  0
CLASS
  1
DEPMGR
  2
AcAdDepMgr
  3
DesignerServices
 90
        0
280
     0
281
     0
  0
CLASS
  1
PARAMMGR
  2
AcAdParamMgr
  3
DesignerServices
 90
        0
280
     0
281
     0
  0
CLASS
  1
PARAMSCOPE
  2
AcAdParamScope
  3
DesignerServices
 90
        0
280
     0
281
     0
  0
CLASS
  1
NAMEDAPPL
  2
AcAdNamedAppl
  3
DesignerServices
 90
        0
280
     0
281
     0
  0
CLASS
  1
AMDTDMMENUSTATE
  2
AmdtDmMenuState
  3
AcMechDwgViewMgmt
 90
        0
280
     0
281
     0
  0
CLASS
  1
AMDTAMMENUSTATE
  2
AmdtAmMenuState
  3
DesignerAssemblies
 90
        0
280
     0
281
     0
  0
CLASS
  1
ACAMPROJECT
  2
AcAmProject
  3
DesignerAssemblies
 90
        0
280
     0
281
     0
  0
CLASS
  1
ACAMGRCOMPDEF
  2
AcAmGrCompDef
  3
DesignerAssemblies
 90
        0
280
     0
281
     0
  0
CLASS
  1
ACCMCONTEXT
  2
AcCmContext
  3
DesignerAssemblies
 90
        0
280
     0
281
     0
  0
CLASS
  1
ACAMCOMPDEF
  2
AcAmCompDef
  3
DesignerAssemblies
 90
        0
280
     0
281
     0
  0
CLASS
  1
ACAMCOMPDEFMGR
  2
AcAmCompDefMgr
  3
DesignerAssemblies
 90
        0
280
     0
281
     0
  0
CLASS
  1
AMCONTEXTMGR
  2
AcAmContextMgr
  3
DesignerAssemblies
 90
        0
280
     0
281
     0
  0
CLASS
  1
ACAMCONTEXTMODELER
  2
AcAmContextModeler
  3
DesignerAssemblies
 90
        0
280
     0
281
     0
  0
CLASS
  1
ACMDATADICTIONARY
  2
AcmDataDictionary
  3
"AcmSymBB|Product Description: AutoCAD Mechanical 2004 DX|Company: Autodesk"
 90
        0
280
     0
281
     0
  0
CLASS
  1
CATALOGSTATE
  2
AcAmCatalogState
  3
DesignerAssemblies
 90
        0
280
     0
281
     0
  0
CLASS
  1
ACAMGRCOMPDEFSET
  2
AcAmGrCompDefSet
  3
DesignerAssemblies
 90
        0
280
     0
281
     0
  0
CLASS
  1
AMDTBROWSERDBTAB
  2
AmdtBrowserDbTab
  3
McadcomServices
 90
        0
280
     0
281
     0
  0
CLASS
  1
CBROWSERAPPOBJECT
  2
CBrowserAppObject
  3
McadcomServices
 90
        0
280
     0
281
     0
  0
CLASS
  1
DM_PLACEHOLDER
  2
AcDmSelsetPlaceholder
  3
AcMechDwgViewMgmt
 90
        0
280
     0
281
     0
  0
CLASS
  1
ACMSTANDARDANSI
  2
AcmStandardANSI
  3
"Amdt_StdImp|Product Description: AutoCAD Mechanical 2004 DX|Company: Autodesk"
 90
        0
280
     0
281
     0
  0
CLASS
  1
AMGOBJPROPCFG
  2
AmgObjPropCfg
  3
"AmgLay|Product Description: AutoCAD Mechanical 2000|Company: Autodesk"
 90
        1
280
     0
281
     0
  0
CLASS
  1
ACMSURFSTANDARDANSI
  2
AcmSurfTextStdANSI
  3
"Amdt_StdImp|Product Description: AutoCAD Mechanical 2004 DX|Company: Autodesk"
 90
        0
280
     0
281
     0
  0
CLASS
  1
ACMFCFSTANDARDANSI
  2
AcmFCFStdANSI
  3
"Amdt_StdImp|Product Description: AutoCAD Mechanical 2004 DX|Company: Autodesk"
 90
        0
280
     0
281
     0
  0
CLASS
  1
ACMWELDSTANDARDANSI
  2
AcmWeldingStdANSI
  3
"Amdt_StdImp|Product Description: AutoCAD Mechanical 2004 DX|Company: Autodesk"
 90
        0
280
     0
281
     0
  0
CLASS
  1
ACMIDSTANDARDANSI
  2
AcmIdStdANSI
  3
"Amdt_StdImp|Product Description: AutoCAD Mechanical 2004 DX|Company: Autodesk"
 90
        0
280
     0
281
     0
  0
CLASS
  1
ACMDATUMSTANDARDANSI
  2
AcmDatumStdANSI
  3
"Amdt_StdImp|Product Description: AutoCAD Mechanical 2004 DX|Company: Autodesk"
 90
        0
280
     0
281
     0
  0
CLASS
  1
ACMBOMSTANDARDANSI
  2
AcmBOMStdANSI
  3
"Amdt_StdImp|Product Description: AutoCAD Mechanical 2004 DX|Company: Autodesk"
 90
        0
280
     0
281
     0
  0
CLASS
  1
ACMDETAILSTANDARDANSI
  2
AmdtDetailSymStdANSI
  3
"Amdt_StdImp|Product Description: AutoCAD Mechanical 2004 DX|Company: Autodesk"
 90
        0
280
     0
281
     0
  0
CLASS
  1
ACMSECTIONSTANDARDANSI
  2
AmdtSectionSymStdANSI
  3
"Amdt_StdImp|Product Description: AutoCAD Mechanical 2004 DX|Company: Autodesk"
 90
        0
280
     0
281
     0
  0
CLASS
  1
ACMCENTERLINESTANDARDANSI
  2
AmdtCenterLineStdANSI
  3
"Amdt_StdImp|Product Description: AutoCAD Mechanical 2004 DX|Company: Autodesk"
 90
        0
280
     0
281
     0
  0
CLASS
  1
ACMTHREADLINESTANDARDANSI
  2
AmdtThreadLineStdANSI
  3
"Amdt_StdImp|Product Description: AutoCAD Mechanical 2004 DX|Company: Autodesk"
 90
        0
280
     0
281
     0
  0
CLASS
  1
ACMNOTESTANDARDANSI
  2
AmdtNoteStdANSI
  3
"Amdt_StdImp|Product Description: AutoCAD Mechanical 2004 DX|Company: Autodesk"
 90
        0
280
     0
281
     0
  0
CLASS
  1
AMDTNOTETEMPLATEDB
  2
AmdtNoteTemplateDB
  3
AMDT_STDIMP_MODULE_NAME
 90
        0
280
     0
281
     0
  0
CLASS
  1
ACAMGLAYSTD
  2
AcAmgLayStd
  3
"AcAmgLayStd|Product Description: AutoCAD Mechanical 2000|Company: Autodesk"
 90
        0
280
     0
281
     0
  0
CLASS
  1
ACAMGDIMSTD
  2
AcAmgDimStd
  3
"AcAmgDimStd|Product Description: AutoCAD Mechanical 2000|Company: Autodesk"
 90
        0
280
     0
281
     0
  0
CLASS
  1
ACAMGHOLECHARTSTDANSI
  2
AcAmgHoleChartStdANSI
  3
ACMSYMBB_MODULE_NAME
 90
        0
280
     0
281
     0
  0
CLASS
  1
ACAMGTITLESTD
  2
AcAmgTitleStd
  3
"TITLEAPP"
 90
        0
280
     0
281
     0
  0
CLASS
  1
ACAMGFILTERDAT
  2
AcAmgFilterDat
  3
"AcadM|Product Description: AutoCAD Mechanical 2000|Company: Autodesk"
 90
        0
280
     0
281
     0
  0
ENDSEC
  0
SECTION
  2
TABLES
  0
TABLE
  2
VPORT
  5
7
330
0
100
AcDbSymbolTable
 70
     3
  0
VPORT
  5
312
330
7
100
AcDbSymbolTableRecord
100
AcDbViewportTableRecord
  2
*Active
 70
     0
 10
0.0
 20
0.0
 11
1.0
 21
1.0
 12
110.2234842873338
 22
125.8696720828809
 13
0.0
 23
0.0
 14
1.0
 24
1.0
 15
0.0
 25
0.0
 16
0.0
 26
0.0
 36
1.0
 17
0.0
 27
0.0
 37
0.0
 40
75.49881963102428
 41
1.181318681318681
 42
50.0
 43
0.0
 44
0.0
 50
0.0
 51
0.0
 71
     0
 72
   100
 73
     1
 74
     1
 75
     0
 76
     0
 77
     0
 78
     0
281
     0
 65
     0
110
0.0
120
0.0
130
0.0
111
1.0
121
0.0
131
0.0
112
0.0
122
1.0
132
0.0
 79
     0
146
0.0
  0
ENDTAB
  0
TABLE
  2
LTYPE
  5
4
330
0
100
AcDbSymbolTable
 70
    16
  0
LTYPE
  5
11
330
4
100
AcDbSymbolTableRecord
100
AcDbLinetypeTableRecord
  2
BYBLOCK
 70
     0
  3

 72
    65
 73
     0
 40
0.0
  0
LTYPE
  5
12
330
4
100
AcDbSymbolTableRecord
100
AcDbLinetypeTableRecord
  2
BYLAYER
 70
     0
  3

 72
    65
 73
     0
 40
0.0
  0
LTYPE
  5
13
330
4
100
AcDbSymbolTableRecord
100
AcDbLinetypeTableRecord
  2
CONTINUOUS
 70
     0
  3
Solid line
 72
    65
 73
     0
 40
0.0
  0
LTYPE
  5
287
330
4
100
AcDbSymbolTableRecord
100
AcDbLinetypeTableRecord
  2
HIDDEN
 70
     0
  3
Hidden __ __ __ __ __ __ __ __ __ __ __ __ __ _
 72
    65
 73
     2
 40
0.375
 49
0.25
 74
     0
 49
-0.125
 74
     0
  0
LTYPE
  5
288
330
4
100
AcDbSymbolTableRecord
100
AcDbLinetypeTableRecord
  2
PHANTOM2
 70
     0
  3
Phantom (.5x) ___ _ _ ___ _ _ ___ _ _ ___ _ _
 72
    65
 73
     6
 40
1.25
 49
0.625
 74
     0
 49
-0.125
 74
     0
 49
0.125
 74
     0
 49
-0.125
 74
     0
 49
0.125
 74
     0
 49
-0.125
 74
     0
  0
LTYPE
  5
289
330
4
100
AcDbSymbolTableRecord
100
AcDbLinetypeTableRecord
  2
CENTER
 70
     0
  3
Center ____ _ ____ _ ____ _ ____ _ ____ _ ____
 72
    65
 73
     4
 40
2.0
 49
1.25
 74
     0
 49
-0.25
 74
     0
 49
0.25
 74
     0
 49
-0.25
 74
     0
  0
LTYPE
  5
2BD
330
4
100
AcDbSymbolTableRecord
100
AcDbLinetypeTableRecord
  2
AM_ISO02W050
 70
     0
  3
__ __ __ __ __ __ __ __ __ __ __ __ __ __ __
 72
    65
 73
     2
 40
7.5
 49
6.0
 74
     0
 49
-1.5
 74
     0
  0
LTYPE
  5
2BE
330
4
100
AcDbSymbolTableRecord
100
AcDbLinetypeTableRecord
  2
AM_ISO08W050
 70
     0
  3
____ . ____ . ____ . ____ . ____ . ____ . ____
 72
    65
 73
     4
 40
18.0
 49
12.0
 74
     0
 49
-1.5
 74
     0
 49
3.0
 74
     0
 49
-1.5
 74
     0
  0
LTYPE
  5
2BF
330
4
100
AcDbSymbolTableRecord
100
AcDbLinetypeTableRecord
  2
AM_ISO09W050
 70
     0
  3
_____ . . _____ . . _____ . . ____ .. ____
 72
    65
 73
     6
 40
22.5
 49
12.0
 74
     0
 49
-1.5
 74
     0
 49
3.0
 74
     0
 49
-1.5
 74
     0
 49
3.0
 74
     0
 49
-1.5
 74
     0
  0
LTYPE
  5
2C0
330
4
100
AcDbSymbolTableRecord
100
AcDbLinetypeTableRecord
  2
Amconstr
 70
     0
  3
_______________________
 72
    65
 73
     2
 40
9999.0
 49
9999.0
 74
     0
 49
0.0
 74
     0
  0
LTYPE
  5
2C1
330
4
100
AcDbSymbolTableRecord
100
AcDbLinetypeTableRecord
  2
AM_ISO08W050x2
 70
     0
  3
__ . __ . __ . __ . __ . __
 72
    65
 73
     4
 40
9.0
 49
6.0
 74
     0
 49
-0.75
 74
     0
 49
1.5
 74
     0
 49
-0.75
 74
     0
  0
LTYPE
  5
2C2
330
4
100
AcDbSymbolTableRecord
100
AcDbLinetypeTableRecord
  2
AM_ISO02W050x2
 70
     0
  3
 _ _ _ _ _ _ _ _ _ _ _ _
 72
    65
 73
     2
 40
3.75
 49
3.0
 74
     0
 49
-0.75
 74
     0
  0
LTYPE
  5
2C5
330
4
100
AcDbSymbolTableRecord
100
AcDbLinetypeTableRecord
  2
Amzigzag
 70
     0
  3
/\/-/\/-/\/-/\/-/\/-/\/
 72
    65
 73
     2
 40
11.0001
 49
0.0001
 74
     4
 75
   136
340
2C4
 46
0.04
 50
0.0
 44
0.0
 45
0.0
 49
-11.0
 74
     0
  0
LTYPE
  5
2C6
330
4
100
AcDbSymbolTableRecord
100
AcDbLinetypeTableRecord
  2
CENTER2
 70
     0
  3
Center (.5x) ___ _ ___ _ ___ _ ___ _ ___ _ ___
 72
    65
 73
     4
 40
1.125
 49
0.75
 74
     0
 49
-0.125
 74
     0
 49
0.125
 74
     0
 49
-0.125
 74
     0
  0
LTYPE
  5
2C7
330
4
100
AcDbSymbolTableRecord
100
AcDbLinetypeTableRecord
  2
HIDDEN2
 70
     0
  3
Hidden (.5x) _ _ _ _ _ _ _ _ _ _ _ _ _ _ _ _ _
 72
    65
 73
     2
 40
0.1875
 49
0.125
 74
     0
 49
-0.0625
 74
     0
  0
LTYPE
  5
2C8
330
4
100
AcDbSymbolTableRecord
100
AcDbLinetypeTableRecord
  2
Amzigzag2
 70
     0
  3
/\/-/\/-/\/-/\/-/\/-/\/
 72
    65
 73
     2
 40
0.4401
 49
0.0001
 74
     4
 75
   136
340
2C4
 46
0.0016
 50
0.0
 44
0.0
 45
0.0
 49
-0.4400000000000001
 74
     0
  0
LTYPE
  5
2D6
330
4
100
AcDbSymbolTableRecord
100
AcDbLinetypeTableRecord
  2
ACANSTGB
 70
     0
  3
__ . . __ . .
 72
    65
 73
     6
 40
0.35433070866
 49
0.15748031496
 74
     0
 49
-0.03937007874
 74
     0
 49
0.03937007874
 74
     0
 49
-0.03937007874
 74
     0
 49
0.03937007874
 74
     0
 49
-0.03937007874
 74
     0
  0
LTYPE
  5
2D7
330
4
100
AcDbSymbolTableRecord
100
AcDbLinetypeTableRecord
  2
ACANSTGL
 70
     0
  3
_ _ _ _ _
 72
    65
 73
     2
 40
0.11811023622
 49
0.07874015748
 74
     0
 49
-0.03937007874
 74
     0
  0
ENDTAB
  0
TABLE
  2
LAYER
  5
2
330
0
100
AcDbSymbolTable
 70
     2
  0
LAYER
  5
14
330
2
100
AcDbSymbolTableRecord
100
AcDbLayerTableRecord
  2
0
 70
     0
 62
     7
  6
CONTINUOUS
370
    -3
390
249
  0
LAYER
  5
21
330
2
100
AcDbSymbolTableRecord
100
AcDbLayerTableRecord
  2
LAYER_1
 70
     0
 62
     5
  6
CONTINUOUS
370
    -3
390
249
  0
ENDTAB
  0
TABLE
  2
STYLE
  5
3
330
0
100
AcDbSymbolTable
 70
     8
  0
STYLE
  5
17
330
3
100
AcDbSymbolTableRecord
100
AcDbTextStyleTableRecord
  2
STANDARD
 70
     0
 40
0.0
 41
1.0
 50
0.0
 71
     0
 42
0.0
  3
txt
  4

  0
STYLE
  5
1D
330
3
100
AcDbSymbolTableRecord
100
AcDbTextStyleTableRecord
  2
STD
 70
     0
 40
0.0
 41
1.0
 50
0.0
 71
     0
 42
0.0
  3
txt
  4

  0
STYLE
  5
1E
330
3
100
AcDbSymbolTableRecord
100
AcDbTextStyleTableRecord
  2
TATESTD
 70
     4
 40
0.0
 41
1.0
 50
0.0
 71
     0
 42
0.0
  3
txt
  4

  0
STYLE
  5
1F
330
3
100
AcDbSymbolTableRecord
100
AcDbTextStyleTableRecord
  2
KANJISTD
 70
     0
 40
0.0
 41
1.0
 50
0.0
 71
     0
 42
0.0
  3
txt
  4
extfont
  0
STYLE
  5
20
330
3
100
AcDbSymbolTableRecord
100
AcDbTextStyleTableRecord
  2
KANJITATE
 70
     4
 40
0.0
 41
1.0
 50
0.0
 71
     0
 42
0.0
  3
txt
  4
extfont
  0
STYLE
  5
2C4
330
3
100
AcDbSymbolTableRecord
100
AcDbTextStyleTableRecord
  2

 70
     1
 40
0.0
 41
1.0
 50
0.0
 71
     0
 42
0.2
  3
genltshp.shx
  4

  0
STYLE
  5
2C9
330
3
100
AcDbSymbolTableRecord
100
AcDbTextStyleTableRecord
  2
ACANSTS
 70
     0
 40
1.0
 41
1.0
 50
0.0
 71
     0
 42
0.2
  3
romans.shx
  4

  0
STYLE
  5
2D5
330
3
100
AcDbSymbolTableRecord
100
AcDbTextStyleTableRecord
  2
ACANSGDT
 70
     0
 40
0.0
 41
1.0
 50
0.0
 71
     0
 42
0.2
  3
AMGDT
  4

  0
ENDTAB
  0
TABLE
  2
VIEW
  5
5
330
0
100
AcDbSymbolTable
 70
     0
  0
ENDTAB
  0
TABLE
  2
UCS
  5
6
330
0
100
AcDbSymbolTable
 70
     0
  0
ENDTAB
  0
TABLE
  2
APPID
  5
8
330
0
100
AcDbSymbolTable
 70
    11
  0
APPID
  5
16
330
8
100
AcDbSymbolTableRecord
100
AcDbRegAppTableRecord
  2
ACAD
 70
     0
  0
APPID
  5
25A
330
8
100
AcDbSymbolTableRecord
100
AcDbRegAppTableRecord
  2
MCAD_NO_VIS
 70
     0
  0
APPID
  5
25B
330
8
100
AcDbSymbolTableRecord
100
AcDbRegAppTableRecord
  2
ACAD_TEMP_GRAPHIC
 70
     0
  0
APPID
  5
28B
330
8
100
AcDbSymbolTableRecord
100
AcDbRegAppTableRecord
  2
AD_DRAW
 70
     0
  0
APPID
  5
28E
330
8
100
AcDbSymbolTableRecord
100
AcDbRegAppTableRecord
  2
ACATTRIBSERVICES
 70
     0
  0
APPID
  5
2AE
330
8
100
AcDbSymbolTableRecord
100
AcDbRegAppTableRecord
  2
DESIGNERASSEMBLIES
 70
     0
  0
APPID
  5
2B4
330
8
100
AcDbSymbolTableRecord
100
AcDbRegAppTableRecord
  2
ACADM_DIM_EDIT
 70
     0
  0
APPID
  5
2B5
330
8
100
AcDbSymbolTableRecord
100
AcDbRegAppTableRecord
  2
AMDT_DM_ADJ
 70
     0
  0
APPID
  5
2E3
330
8
100
AcDbSymbolTableRecord
100
AcDbRegAppTableRecord
  2
ACAD_DSTYLE_DIMARC_LENGTH_SYMBOL
 70
     0
  0
APPID
  5
2E4
330
8
100
AcDbSymbolTableRecord
100
AcDbRegAppTableRecord
  2
ACAD_DSTYLE_DIMJOGGED_JOGANGLE_SYMBOL
 70
     0
  0
APPID
  5
30C
330
8
100
AcDbSymbolTableRecord
100
AcDbRegAppTableRecord
  2
DCO15
 70
     0
  0
ENDTAB
  0
TABLE
  2
DIMSTYLE
  5
9
330
0
100
AcDbSymbolTable
 70
     7
100
AcDbDimStyleTable
 71
     0
  0
DIMSTYLE
105
18
330
9
100
AcDbSymbolTableRecord
100
AcDbDimStyleTableRecord
  2
STANDARD
 70
     0
340
17
  0
DIMSTYLE
105
2E2
330
9
100
AcDbSymbolTableRecord
100
AcDbDimStyleTableRecord
  2
AM_ANSI
 70
     0
  4
mm
 41
0.1
 42
0.05
 43
0.5
 44
0.1
 47
0.1
 48
0.1
 78
     7
 79
     2
140
0.12
141
0.0
146
0.71
147
0.06
176
   256
177
   256
178
     2
274
     4
284
     7
340
17
371
    -1
372
    -1
1001
ACAD_DSTYLE_DIMARC_LENGTH_SYMBOL
1070
   379
1070
     1
1001
ACAD_DSTYLE_DIMJOGGED_JOGANGLE_SYMBOL
1070
   384
1040
0.7853981633974483
  0
DIMSTYLE
105
2EB
330
9
100
AcDbSymbolTableRecord
100
AcDbDimStyleTableRecord
  2
AM_ANSI$3
 70
     0
  4
mm
 41
0.1
 42
0.05
 43
0.5
 44
0.1
 47
0.1
 48
0.1
 78
     7
 79
     2
140
0.12
141
0.0
146
0.71
147
0.06
176
   256
177
   256
178
     2
274
     4
284
     7
288
     1
289
     0
340
17
371
    -1
372
    -1
1001
ACAD_DSTYLE_DIMARC_LENGTH_SYMBOL
1070
   379
1070
     1
1001
ACAD_DSTYLE_DIMJOGGED_JOGANGLE_SYMBOL
1070
   384
1040
0.7853981633974483
  0
DIMSTYLE
105
2EE
330
9
100
AcDbSymbolTableRecord
100
AcDbDimStyleTableRecord
  2
AM_ANSI$4
 70
     0
  4
mm
 41
0.1
 42
0.05
 43
0.5
 44
0.1
 47
0.1
 48
0.1
 78
     7
 79
     2
140
0.12
141
0.0
146
0.71
147
0.06
176
   256
177
   256
178
     2
274
     4
284
     7
288
     1
289
     0
340
17
371
    -1
372
    -1
1001
ACAD_DSTYLE_DIMARC_LENGTH_SYMBOL
1070
   379
1070
     1
1001
ACAD_DSTYLE_DIMJOGGED_JOGANGLE_SYMBOL
1070
   384
1040
0.7853981633974483
  0
DIMSTYLE
105
2F3
330
9
100
AcDbSymbolTableRecord
100
AcDbDimStyleTableRecord
  2
AM_ANSI$7
 70
     0
  4
mm
 41
0.1
 42
0.05
 43
0.5
 44
0.1
 47
0.1
 48
0.1
 78
     7
 79
     2
140
0.24
141
0.0
146
0.71
147
0.06
176
   256
177
   256
178
     2
274
     4
284
     7
340
17
371
    -1
372
    -1
1001
ACAD_DSTYLE_DIMARC_LENGTH_SYMBOL
1070
   379
1070
     1
1001
ACAD_DSTYLE_DIMJOGGED_JOGANGLE_SYMBOL
1070
   384
1040
0.7853981633974483
  0
DIMSTYLE
105
2F6
330
9
100
AcDbSymbolTableRecord
100
AcDbDimStyleTableRecord
  2
AM_ANSI$SF
 70
     0
  4
mm
 41
0.1
 42
0.05
 43
0.5
 44
0.1
 47
0.1
 48
0.1
 75
     1
 76
     1
 78
     7
 79
     2
140
0.12
141
0.0
146
0.71
147
0.06
176
   256
177
   256
178
     2
274
     4
284
     7
340
17
371
    -1
372
    -1
1001
ACAD_DSTYLE_DIMARC_LENGTH_SYMBOL
1070
   379
1070
     1
1001
ACAD_DSTYLE_DIMJOGGED_JOGANGLE_SYMBOL
1070
   384
1040
0.7853981633974483
  0
DIMSTYLE
105
2FD
330
9
100
AcDbSymbolTableRecord
100
AcDbDimStyleTableRecord
  2
AM_ANSI$SH
 70
     0
  4
mm
 41
0.1
 42
0.05
 43
0.5
 44
0.1
 47
0.1
 48
0.1
 75
     1
 76
     1
 78
     7
 79
     2
140
0.12
141
0.0
146
0.71
147
0.06
173
     1
176
   256
177
   256
178
     2
274
     4
284
     7
340
17
343
2F7
371
    -1
372
    -1
1001
ACAD_DSTYLE_DIMARC_LENGTH_SYMBOL
1070
   379
1070
     1
1001
ACAD_DSTYLE_DIMJOGGED_JOGANGLE_SYMBOL
1070
   384
1040
0.7853981633974483
  0
ENDTAB
  0
TABLE
  2
BLOCK_RECORD
  5
1
330
0
100
AcDbSymbolTable
 70
     3
  0
BLOCK_RECORD
  5
A
330
1
100
AcDbSymbolTableRecord
100
AcDbBlockTableRecord
  2
*MODEL_SPACE
340
250
  0
BLOCK_RECORD
  5
B
330
1
100
AcDbSymbolTableRecord
100
AcDbBlockTableRecord
  2
*PAPER_SPACE
340
251
  0
BLOCK_RECORD
  5
15F
330
1
100
AcDbSymbolTableRecord
100
AcDbBlockTableRecord
  2
AI9-BLK1
340
0
102
{BLKREFS
331
160
102
}
  0
BLOCK_RECORD
  5
2F7
330
1
100
AcDbSymbolTableRecord
100
AcDbBlockTableRecord
  2
GENAXEH
340
0
  0
ENDTAB
  0
ENDSEC
  0
SECTION
  2
BLOCKS
  0
BLOCK
  5
D
330
A
100
AcDbEntity
  8
0
100
AcDbBlockBegin
  2
*MODEL_SPACE
 70
     0
 10
0.0
 20
0.0
 30
0.0
  3
*MODEL_SPACE
  1

  0
ENDBLK
  5
E
330
A
100
AcDbEntity
  8
0
100
AcDbBlockEnd
  0
BLOCK
  5
F
330
B
100
AcDbEntity
 67
     1
  8
0
100
AcDbBlockBegin
  2
*PAPER_SPACE
 70
     0
 10
0.0
 20
0.0
 30
0.0
  3
*PAPER_SPACE
  1

  0
ENDBLK
  5
10
330
B
100
AcDbEntity
 67
     1
  8
0
100
AcDbBlockEnd
  0
BLOCK
  5
161
330
15F
100
AcDbEntity
  8
0
 62
     7
100
AcDbBlockBegin
  2
AI9-BLK1
 70
     0
 10
0.0
 20
0.0
 30
0.0
  3
AI9-BLK1
  1

  0
LINE
  5
164
330
15F
100
AcDbEntity
  8
LAYER_1
 62
     7
100
AcDbLine
 10
0.013867
 20
11.382768
 30
0.0
 11
0.013867
 21
-11.406367
 31
0.0
  0
SPLINE
  5
163
330
15F
100
AcDbEntity
  8
LAYER_1
 62
     7
100
AcDbSpline
210
0.0
220
0.0
230
1.0
 70
     9
 71
     3
 72
    20
 73
    16
 74
     0
 42
0.0000000001
 43
0.0000000001
 40
0.0
 40
0.0
 40
0.0
 40
0.0
 40
1.0
 40
1.0
 40
1.0
 40
2.0
 40
2.0
 40
2.0
 40
3.0
 40
3.0
 40
3.0
 40
4.0
 40
4.0
 40
4.0
 40
5.0
 40
5.0
 40
5.0
 40
5.0
 10
0.068988037109375
 20
-11.3512451171875
 30
0.0
 10
0.1044725206163194
 20
-11.2335951063368
 30
0.0
 10
0.137200927734375
 20
-11.15711398654513
 30
0.0
 10
0.1749247233072916
 20
-11.062890625
 30
0.0
 10
0.1749247233072916
 20
-11.062890625
 30
0.0
 10
-0.183709716796875
 20
-11.062890625
 30
0.0
 10
-0.183709716796875
 20
-11.062890625
 30
0.0
 10
-0.118597412109375
 20
-11.20034993489583
 30
0.0
 10
-0.121697998046875
 20
-11.20534532335069
 30
0.0
 10
-0.0776007758246528
 20
-11.3512451171875
 30
0.0
 10
-0.0397047254774306
 20
-11.47699110243055
 30
0.0
 10
-0.0136942545572917
 20
-11.59119601779513
 30
0.0
 10
-0.0043924967447917
 20
-11.66509331597222
 30
0.0
 10
0.0049092610677083
 20
-11.59119601779513
 30
0.0
 10
0.0309197319878472
 20
-11.47699110243055
 30
0.0
 10
0.068988037109375
 20
-11.3512451171875
 30
0.0
  0
SPLINE
  5
162
330
15F
100
AcDbEntity
  8
LAYER_1
 62
     7
100
AcDbSpline
210
0.0
220
0.0
230
1.0
 70
     9
 71
     3
 72
    20
 73
    16
 74
     0
 42
0.0000000001
 43
0.0000000001
 40
0.0
 40
0.0
 40
0.0
 40
0.0
 40
1.0
 40
1.0
 40
1.0
 40
2.0
 40
2.0
 40
2.0
 40
3.0
 40
3.0
 40
3.0
 40
4.0
 40
4.0
 40
4.0
 40
5.0
 40
5.0
 40
5.0
 40
5.0
 10
-0.068988037109375
 20
11.3512451171875
 30
0.0
 10
-0.1044725206163194
 20
11.2335951063368
 30
0.0
 10
-0.137200927734375
 20
11.15711398654513
 30
0.0
 10
-0.1750969780815972
 20
11.062890625
 30
0.0
 10
-0.1750969780815972
 20
11.062890625
 30
0.0
 10
0.183709716796875
 20
11.062890625
 30
0.0
 10
0.183709716796875
 20
11.062890625
 30
0.0
 10
0.1676900227864583
 20
11.09665256076388
 30
0.0
 10
0.1130852593315972
 20
11.2335951063368
 30
0.0
 10
0.0776007758246528
 20
11.3512451171875
 30
0.0
 10
0.039532470703125
 20
11.47699110243055
 30
0.0
 10
0.0135219997829861
 20
11.59119601779513
 30
0.0
 10
0.0043924967447917
 20
11.66509331597222
 30
0.0
 10
-0.0049092610677083
 20
11.59119601779513
 30
0.0
 10
-0.0309197319878472
 20
11.47699110243055
 30
0.0
 10
-0.068988037109375
 20
11.3512451171875
 30
0.0
  0
ENDBLK
  5
165
330
15F
100
AcDbEntity
  8
0
100
AcDbBlockEnd
  0
BLOCK
  5
2F9
330
2F7
100
AcDbEntity
  8
0
100
AcDbBlockBegin
  2
GENAXEH
 70
     0
 10
0.0
 20
0.0
 30
0.0
  3
GENAXEH
  1

  0
LINE
  5
2F8
330
2F7
100
AcDbEntity
  8
0
100
AcDbLine
 10
-1.0
 20
0.0
 30
0.0
 11
1.0
 21
0.0
 31
0.0
  0
ENDBLK
  5
2FA
330
2F7
100
AcDbEntity
  8
0
100
AcDbBlockEnd
  0
ENDSEC
  0
SECTION
  2
ENTITIES
  0
SPLINE
  5
243
330
A
100
AcDbEntity
  8
LAYER_1
 62
     7
100
AcDbSpline
210
0.0
220
0.0
230
1.0
 70
     9
 71
     3
 72
    32
 73
    28
 74
     0
 42
0.0000000001
 43
0.0000000001
 40
0.0
 40
0.0
 40
0.0
 40
0.0
 40
1.0
 40
1.0
 40
1.0
 40
2.0
 40
2.0
 40
2.0
 40
3.0
 40
3.0
 40
3.0
 40
4.0
 40
4.0
 40
4.0
 40
5.0
 40
5.0
 40
5.0
 40
6.0
 40
6.0
 40
6.0
 40
7.0
 40
7.0
 40
7.0
 40
8.0
 40
8.0
 40
8.0
 40
9.0
 40
9.0
 40
9.0
 40
9.0
 10
131.5737087673611
 20
120.2438232421874
 30
0.0
 10
131.5737087673611
 20
120.2438232421874
 30
0.0
 10
131.8977199978298
 20
120.2438232421874
 30
0.0
 10
131.8977199978298
 20
120.5273546006944
 30
0.0
 10
131.8977199978298
 20
120.7907321506076
 30
0.0
 10
131.8977199978298
 20
143.6608262803819
 30
0.0
 10
131.8977199978298
 20
147.0638916015624
 30
0.0
 10
131.8977199978298
 20
147.3272691514757
 30
0.0
 10
131.8977199978298
 20
147.4690348307291
 30
0.0
 10
131.4925767686632
 20
147.4690348307291
 30
0.0
 10
131.0672797309027
 20
147.4690348307291
 30
0.0
 10
126.6715101453993
 20
147.4690348307291
 30
0.0
 10
126.3068467881944
 20
147.4690348307291
 30
0.0
 10
125.9220296223958
 20
147.4690348307291
 30
0.0
 10
125.9220296223958
 20
147.1246975368923
 30
0.0
 10
125.9220296223958
 20
147.1246975368923
 30
0.0
 10
125.9220296223958
 20
147.1246975368923
 30
0.0
 10
125.9220296223958
 20
120.5680067274305
 30
0.0
 10
125.9220296223958
 20
120.5680067274305
 30
0.0
 10
125.9220296223958
 20
120.5680067274305
 30
0.0
 10
125.9220296223958
 20
120.2438232421874
 30
0.0
 10
126.2663669162326
 20
120.2438232421874
 30
0.0
 10
126.6107042100694
 20
120.2438232421874
 30
0.0
 10
131.5737087673611
 20
120.2438232421874
 30
0.0
 10
131.5737087673611
 20
120.2438232421874
 30
0.0
 10
131.5737087673611
 20
120.2438232421874
 30
0.0
 10
131.5737087673611
 20
120.2438232421874
 30
0.0
 10
131.5737087673611
 20
120.2438232421874
 30
0.0
  0
SPLINE
  5
242
330
A
100
AcDbEntity
  8
LAYER_1
 62
     7
100
AcDbSpline
210
0.0
220
0.0
230
1.0
 70
     9
 71
     3
 72
    32
 73
    28
 74
     0
 42
0.0000000001
 43
0.0000000001
 40
0.0
 40
0.0
 40
0.0
 40
0.0
 40
1.0
 40
1.0
 40
1.0
 40
2.0
 40
2.0
 40
2.0
 40
3.0
 40
3.0
 40
3.0
 40
4.0
 40
4.0
 40
4.0
 40
5.0
 40
5.0
 40
5.0
 40
6.0
 40
6.0
 40
6.0
 40
7.0
 40
7.0
 40
7.0
 40
8.0
 40
8.0
 40
8.0
 40
9.0
 40
9.0
 40
9.0
 40
9.0
 10
145.6520914713541
 20
120.2438232421874
 30
0.0
 10
145.9357950846354
 20
120.2438232421874
 30
0.0
 10
145.9357950846354
 20
120.5273546006944
 30
0.0
 10
145.9357950846354
 20
120.5273546006944
 30
0.0
 10
145.9357950846354
 20
120.5273546006944
 30
0.0
 10
145.9357950846354
 20
147.1246975368923
 30
0.0
 10
145.9357950846354
 20
147.1246975368923
 30
0.0
 10
145.9357950846354
 20
147.1246975368923
 30
0.0
 10
145.8953152126736
 20
147.4690348307291
 30
0.0
 10
145.5914577907986
 20
147.4690348307291
 30
0.0
 10
145.2672743055555
 20
147.4690348307291
 30
0.0
 10
140.7095852322048
 20
147.4690348307291
 30
0.0
 10
140.3245958116319
 20
147.4690348307291
 30
0.0
 10
139.9599324544271
 20
147.4690348307291
 30
0.0
 10
139.9599324544271
 20
147.0842176649305
 30
0.0
 10
139.9599324544271
 20
147.0842176649305
 30
0.0
 10
139.9599324544271
 20
147.0842176649305
 30
0.0
 10
139.9599324544271
 20
120.5680067274305
 30
0.0
 10
139.9599324544271
 20
120.5680067274305
 30
0.0
 10
139.9599324544271
 20
120.5680067274305
 30
0.0
 10
139.9802585177951
 20
120.2438232421874
 30
0.0
 10
140.3042697482638
 20
120.2438232421874
 30
0.0
 10
140.6082994249132
 20
120.2438232421874
 30
0.0
 10
145.3685601128472
 20
120.2438232421874
 30
0.0
 10
145.6520914713541
 20
120.2438232421874
 30
0.0
 10
145.6520914713541
 20
120.2438232421874
 30
0.0
 10
145.6520914713541
 20
120.2438232421874
 30
0.0
 10
145.6520914713541
 20
120.2438232421874
 30
0.0
  0
SPLINE
  5
241
330
A
100
AcDbEntity
  8
LAYER_1
 62
     7
100
AcDbSpline
210
0.0
220
0.0
230
1.0
 70
     8
 71
     3
 72
    26
 73
    22
 74
     0
 42
0.0000000001
 43
0.0000000001
 40
0.0
 40
0.0
 40
0.0
 40
0.0
 40
1.0
 40
1.0
 40
1.0
 40
2.0
 40
2.0
 40
2.0
 40
3.0
 40
3.0
 40
3.0
 40
4.0
 40
4.0
 40
4.0
 40
5.0
 40
5.0
 40
5.0
 40
6.0
 40
6.0
 40
6.0
 40
7.0
 40
7.0
 40
7.0
 40
7.0
 10
95.93333468967012
 20
147.5906467013888
 30
0.0
 10
95.93333468967012
 20
147.5906467013888
 30
0.0
 10
95.93333468967012
 20
152.8371826171874
 30
0.0
 10
95.93333468967012
 20
152.8371826171874
 30
0.0
 10
95.93333468967012
 20
153.1207139756944
 30
0.0
 10
96.297998046875
 20
153.1611938476562
 30
0.0
 10
96.297998046875
 20
153.1611938476562
 30
0.0
 10
96.66248914930555
 20
153.1611938476562
 30
0.0
 10
96.72346733940971
 20
152.8371826171874
 30
0.0
 10
96.72346733940971
 20
152.8371826171874
 30
0.0
 10
96.80442708333332
 20
152.4523654513889
 30
0.0
 10
97.20957031250001
 20
152.5333251953125
 30
0.0
 10
97.20957031250001
 20
152.5333251953125
 30
0.0
 10
97.5539076063368
 20
152.5333251953125
 30
0.0
 10
97.61471354166666
 20
152.897816297743
 30
0.0
 10
97.61471354166666
 20
152.897816297743
 30
0.0
 10
97.61471354166666
 20
153.1611938476562
 30
0.0
 10
97.18924424913193
 20
153.2018459743923
 30
0.0
 10
97.18924424913193
 20
153.2018459743923
 30
0.0
 10
96.84490695529513
 20
153.2018459743923
 30
0.0
 10
96.72346733940971
 20
152.8371826171874
 30
0.0
 10
96.72346733940971
 20
152.8371826171874
 30
0.0
  0
LINE
  5
240
330
A
100
AcDbEntity
  8
LAYER_1
 62
     7
100
AcDbLine
 10
97.61471400000001
 20
147.590647
 30
0.0
 11
97.61471400000001
 21
152.897816
 31
0.0
  0
LINE
  5
23F
330
A
100
AcDbEntity
  8
LAYER_1
 62
     7
100
AcDbLine
 10
84.083067
 20
147.489189
 30
0.0
 11
84.083067
 21
151.92561
 31
0.0
  0
LINE
  5
23E
330
A
100
AcDbEntity
  8
LAYER_1
 62
     7
100
AcDbLine
 10
85.764446
 20
147.489189
 30
0.0
 11
85.764446
 21
151.986416
 31
0.0
  0
SPLINE
  5
23D
330
A
100
AcDbEntity
  8
LAYER_1
 62
     7
100
AcDbSpline
210
0.0
220
0.0
230
1.0
 70
     8
 71
     3
 72
    23
 73
    19
 74
     0
 42
0.0000000001
 43
0.0000000001
 40
0.0
 40
0.0
 40
0.0
 40
0.0
 40
1.0
 40
1.0
 40
1.0
 40
2.0
 40
2.0
 40
2.0
 40
3.0
 40
3.0
 40
3.0
 40
4.0
 40
4.0
 40
4.0
 40
5.0
 40
5.0
 40
5.0
 40
6.0
 40
6.0
 40
6.0
 40
6.0
 10
84.06274142795139
 20
151.9256103515624
 30
0.0
 10
84.06274142795139
 20
152.2091417100694
 30
0.0
 10
84.44755859375
 20
152.2699476453993
 30
0.0
 10
84.44755859375
 20
152.2699476453993
 30
0.0
 10
84.81239420572917
 20
152.2699476453993
 30
0.0
 10
84.8730278862847
 20
151.9459364149305
 30
0.0
 10
84.8730278862847
 20
151.9459364149305
 30
0.0
 10
84.93383382161455
 20
151.5609469943576
 30
0.0
 10
85.35930311414931
 20
151.6217529296874
 30
0.0
 10
85.35930311414931
 20
151.6217529296874
 30
0.0
 10
85.68331434461804
 20
151.6217529296874
 30
0.0
 10
85.76444634331597
 20
151.9864162868923
 30
0.0
 10
85.76444634331597
 20
151.9864162868923
 30
0.0
 10
85.76444634331597
 20
152.2699476453993
 30
0.0
 10
85.33897705078125
 20
152.2902737087674
 30
0.0
 10
85.33897705078125
 20
152.2902737087674
 30
0.0
 10
84.99463975694444
 20
152.2902737087674
 30
0.0
 10
84.8730278862847
 20
151.9459364149305
 30
0.0
 10
84.8730278862847
 20
151.9459364149305
 30
0.0
  0
SPLINE
  5
23C
330
A
100
AcDbEntity
  8
LAYER_1
 62
     7
100
AcDbSpline
210
0.0
220
0.0
230
1.0
 70
     8
 71
     3
 72
    20
 73
    16
 74
     0
 42
0.0000000001
 43
0.0000000001
 40
0.0
 40
0.0
 40
0.0
 40
0.0
 40
1.0
 40
1.0
 40
1.0
 40
2.0
 40
2.0
 40
2.0
 40
3.0
 40
3.0
 40
3.0
 40
4.0
 40
4.0
 40
4.0
 40
5.0
 40
5.0
 40
5.0
 40
5.0
 10
130.7430962456597
 20
147.4690348307291
 30
0.0
 10
130.3786051432291
 20
147.4690348307291
 30
0.0
 10
130.3786051432291
 20
147.1450236002604
 30
0.0
 10
130.3786051432291
 20
147.1450236002604
 30
0.0
 10
130.3786051432291
 20
147.1450236002604
 30
0.0
 10
130.3786051432291
 20
145.3420328776041
 30
0.0
 10
130.3786051432291
 20
145.3420328776041
 30
0.0
 10
130.3786051432291
 20
145.3420328776041
 30
0.0
 10
130.3786051432291
 20
145.0180216471354
 30
0.0
 10
130.0139417860243
 20
145.0180216471354
 30
0.0
 10
129.6694322374132
 20
145.0180216471354
 30
0.0
 10
126.2663669162326
 20
145.0180216471354
 30
0.0
 10
126.2663669162326
 20
145.0180216471354
 30
0.0
 10
126.2663669162326
 20
145.0180216471354
 30
0.0
 10
125.9220296223958
 20
145.0381754557291
 30
0.0
 10
125.9220296223958
 20
144.7546440972222
 30
0.0
  0
SPLINE
  5
23B
330
A
100
AcDbEntity
  8
LAYER_1
 62
     7
100
AcDbSpline
210
0.0
220
0.0
230
1.0
 70
     8
 71
     3
 72
    20
 73
    16
 74
     0
 42
0.0000000001
 43
0.0000000001
 40
0.0
 40
0.0
 40
0.0
 40
0.0
 40
1.0
 40
1.0
 40
1.0
 40
2.0
 40
2.0
 40
2.0
 40
3.0
 40
3.0
 40
3.0
 40
4.0
 40
4.0
 40
4.0
 40
5.0
 40
5.0
 40
5.0
 40
5.0
 10
141.1348822699652
 20
147.4891886393228
 30
0.0
 10
141.1348822699652
 20
147.4891886393228
 30
0.0
 10
141.4184136284722
 20
147.4082288953993
 30
0.0
 10
141.4184136284722
 20
147.1246975368923
 30
0.0
 10
141.4184136284722
 20
146.8411661783854
 30
0.0
 10
141.4184136284722
 20
145.2610731336805
 30
0.0
 10
141.4184136284722
 20
145.2610731336805
 30
0.0
 10
141.4184136284722
 20
145.2610731336805
 30
0.0
 10
141.4387396918402
 20
144.9572157118055
 30
0.0
 10
141.8034030490451
 20
144.9572157118055
 30
0.0
 10
142.147740342882
 20
144.9572157118055
 30
0.0
 10
145.2469482421875
 20
144.9572157118055
 30
0.0
 10
145.5914577907986
 20
144.9572157118055
 30
0.0
 10
145.9357950846354
 20
144.9572157118055
 30
0.0
 10
145.9357950846354
 20
144.6128784179687
 30
0.0
 10
145.9357950846354
 20
144.6128784179687
 30
0.0
  0
SPLINE
  5
23A
330
A
100
AcDbEntity
  8
LAYER_1
 62
     7
100
AcDbSpline
210
0.0
220
0.0
230
1.0
 70
     8
 71
     3
 72
    20
 73
    16
 74
     0
 42
0.0000000001
 43
0.0000000001
 40
0.0
 40
0.0
 40
0.0
 40
0.0
 40
1.0
 40
1.0
 40
1.0
 40
2.0
 40
2.0
 40
2.0
 40
3.0
 40
3.0
 40
3.0
 40
4.0
 40
4.0
 40
4.0
 40
5.0
 40
5.0
 40
5.0
 40
5.0
 10
130.6216566297743
 20
120.2438232421874
 30
0.0
 10
130.6216566297743
 20
120.2438232421874
 30
0.0
 10
130.3786051432291
 20
120.3654351128472
 30
0.0
 10
130.3786051432291
 20
120.5680067274305
 30
0.0
 10
130.3786051432291
 20
121.1149156358507
 30
0.0
 10
130.3786051432291
 20
122.1682535807291
 30
0.0
 10
130.3786051432291
 20
122.3708251953125
 30
0.0
 10
130.3786051432291
 20
122.6746826171875
 30
0.0
 10
130.0949015299479
 20
122.6948364257812
 30
0.0
 10
130.0949015299479
 20
122.6948364257812
 30
0.0
 10
130.0949015299479
 20
122.6948364257812
 30
0.0
 10
126.185407172309
 20
122.6948364257812
 30
0.0
 10
126.185407172309
 20
122.6948364257812
 30
0.0
 10
126.185407172309
 20
122.6948364257812
 30
0.0
 10
125.9220296223958
 20
122.735316297743
 30
0.0
 10
125.9220296223958
 20
122.4113050672743
 30
0.0
  0
SPLINE
  5
239
330
A
100
AcDbEntity
  8
LAYER_1
 62
     7
100
AcDbSpline
210
0.0
220
0.0
230
1.0
 70
     8
 71
     3
 72
    20
 73
    16
 74
     0
 42
0.0000000001
 43
0.0000000001
 40
0.0
 40
0.0
 40
0.0
 40
0.0
 40
1.0
 40
1.0
 40
1.0
 40
2.0
 40
2.0
 40
2.0
 40
3.0
 40
3.0
 40
3.0
 40
4.0
 40
4.0
 40
4.0
 40
5.0
 40
5.0
 40
5.0
 40
5.0
 10
141.1552083333333
 20
120.2234971788194
 30
0.0
 10
141.5400254991319
 20
120.2234971788194
 30
0.0
 10
141.4184136284722
 20
120.5273546006944
 30
0.0
 10
141.4184136284722
 20
120.5273546006944
 30
0.0
 10
141.4184136284722
 20
120.5273546006944
 30
0.0
 10
141.4184136284722
 20
122.1277737087673
 30
0.0
 10
141.4184136284722
 20
122.431458875868
 30
0.0
 10
141.4184136284722
 20
122.7556423611111
 30
0.0
 10
141.7425971137153
 20
122.7556423611111
 30
0.0
 10
141.7425971137153
 20
122.7556423611111
 30
0.0
 10
141.7425971137153
 20
122.7556423611111
 30
0.0
 10
145.6520914713541
 20
122.7556423611111
 30
0.0
 10
145.6520914713541
 20
122.7556423611111
 30
0.0
 10
145.6520914713541
 20
122.7556423611111
 30
0.0
 10
145.9357950846354
 20
122.7151624891493
 30
0.0
 10
145.9357950846354
 20
122.9785400390625
 30
0.0
  0
LINE
  5
238
330
A
100
AcDbEntity
  8
LAYER_1
 62
     7
100
AcDbLine
 10
120.634842
 20
120.223497
 30
0.0
 11
125.739612
 21
120.223497
 31
0.0
  0
LINE
  5
237
330
A
100
AcDbEntity
  8
LAYER_1
 62
     7
100
AcDbLine
 10
120.27035
 20
147.469035
 30
0.0
 11
125.516886
 21
147.469035
 31
0.0
  0
LINE
  5
236
330
A
100
AcDbEntity
  8
LAYER_1
 62
     7
100
AcDbLine
 10
123.956947
 20
150.296769
 30
0.0
 11
123.956947
 21
147.813544
 31
0.0
  0
LINE
  5
235
330
A
100
AcDbEntity
  8
LAYER_1
 62
     7
100
AcDbLine
 10
123.956947
 20
145.828308
 30
0.0
 11
123.956947
 21
121.76311
 31
0.0
  0
LINE
  5
234
330
A
100
AcDbEntity
  8
LAYER_1
 62
     7
100
AcDbLine
 10
123.956947
 20
119.87916
 30
0.0
 11
123.956947
 21
117.083637
 31
0.0
  0
LINE
  5
233
330
A
100
AcDbEntity
  8
LAYER_1
 62
     7
100
AcDbLine
 10
123.349405
 20
121.459253
 30
0.0
 11
129.85185
 21
121.459253
 31
0.0
  0
LINE
  5
232
330
A
100
AcDbEntity
  8
LAYER_1
 62
     7
100
AcDbLine
 10
122.235261
 20
146.192799
 30
0.0
 11
129.487187
 21
146.192799
 31
0.0
  0
LINE
  5
231
330
A
100
AcDbEntity
  8
LAYER_1
 62
     7
100
AcDbLine
 10
127.218419
 20
149.454271
 30
0.0
 11
129.122523
 21
149.454271
 31
0.0
  0
LINE
  5
230
330
A
100
AcDbEntity
  8
LAYER_1
 62
     7
100
AcDbLine
 10
131.958526
 20
119.818354
 30
0.0
 11
131.958526
 21
114.990225
 31
0.0
  0
LINE
  5
22F
330
A
100
AcDbEntity
  8
LAYER_1
 62
     7
100
AcDbLine
 10
125.982836
 20
119.939966
 30
0.0
 11
125.982836
 21
114.969899
 31
0.0
  0
LINE
  5
22E
330
A
100
AcDbEntity
  8
LAYER_1
 62
     7
100
AcDbLine
 10
129.608799
 20
118.258587
 30
0.0
 11
128.352717
 21
118.258587
 31
0.0
  0
LINE
  5
22D
330
A
100
AcDbEntity
  8
LAYER_1
 62
     7
100
AcDbLine
 10
128.170643
 20
122.330173
 30
0.0
 11
128.170643
 21
118.096495
 31
0.0
  0
LINE
  5
22C
330
A
100
AcDbEntity
  8
LAYER_1
 62
     7
100
AcDbLine
 10
131.573709
 20
115.253602
 30
0.0
 11
126.347327
 21
115.253602
 31
0.0
  0
LINE
  5
22B
330
A
100
AcDbEntity
  8
LAYER_1
 62
     7
100
AcDbLine
 10
125.759938
 20
118.258587
 30
0.0
 11
124.686274
 21
118.258587
 31
0.0
  0
LINE
  5
22A
330
A
100
AcDbEntity
  8
LAYER_1
 62
     7
100
AcDbLine
 10
126.83343
 20
149.656843
 30
0.0
 11
126.83343
 21
146.94228
 31
0.0
  0
LINE
  5
229
330
A
100
AcDbEntity
  8
LAYER_1
 62
     7
100
AcDbLine
 10
129.487187
 20
149.656843
 30
0.0
 11
129.487187
 21
146.94228
 31
0.0
  0
LINE
  5
228
330
A
100
AcDbEntity
  8
LAYER_1
 62
     7
100
AcDbLine
 10
141.580505
 20
146.192799
 30
0.0
 11
145.733223
 21
146.192799
 31
0.0
  0
LINE
  5
227
330
A
100
AcDbEntity
  8
LAYER_1
 62
     7
100
AcDbLine
 10
143.646701
 20
147.185503
 30
0.0
 11
143.646701
 21
145.078655
 31
0.0
  0
LINE
  5
226
330
A
100
AcDbEntity
  8
LAYER_1
 62
     7
100
AcDbLine
 10
141.580505
 20
121.540213
 30
0.0
 11
145.733223
 21
121.540213
 31
0.0
  0
LINE
  5
225
330
A
100
AcDbEntity
  8
LAYER_1
 62
     7
100
AcDbLine
 10
143.585895
 20
122.532745
 30
0.0
 11
143.585895
 21
120.426069
 31
0.0
  0
LINE
  5
224
330
A
100
AcDbEntity
  8
LAYER_1
 62
     7
100
AcDbLine
 10
144.031691
 20
149.454271
 30
0.0
 11
145.712897
 21
149.454271
 31
0.0
  0
LINE
  5
223
330
A
100
AcDbEntity
  8
LAYER_1
 62
     7
100
AcDbLine
 10
145.935795
 20
149.656843
 30
0.0
 11
145.935795
 21
147.732412
 31
0.0
  0
LINE
  5
222
330
A
100
AcDbEntity
  8
LAYER_1
 62
     7
100
AcDbLine
 10
145.935795
 20
119.818354
 30
0.0
 11
145.935795
 21
117.258993
 31
0.0
  0
LINE
  5
221
330
A
100
AcDbEntity
  8
LAYER_1
 62
     7
100
AcDbLine
 10
139.959932
 20
119.939966
 30
0.0
 11
139.959932
 21
117.380604
 31
0.0
  0
LINE
  5
220
330
A
100
AcDbEntity
  8
LAYER_1
 62
     7
100
AcDbLine
 10
145.591458
 20
117.623656
 30
0.0
 11
140.365248
 21
117.623656
 31
0.0
  0
LINE
  5
21F
330
A
100
AcDbEntity
  8
LAYER_1
 62
     7
100
AcDbLine
 10
130.601331
 20
133.9577149999999
 30
0.0
 11
129.547993
 21
133.9577149999999
 31
0.0
  0
SPLINE
  5
21E
330
A
100
AcDbEntity
  8
LAYER_1
 62
     7
100
AcDbSpline
210
0.0
220
0.0
230
1.0
 70
     9
 71
     3
 72
    20
 73
    16
 74
     0
 42
0.0000000001
 43
0.0000000001
 40
0.0
 40
0.0
 40
0.0
 40
0.0
 40
1.0
 40
1.0
 40
1.0
 40
2.0
 40
2.0
 40
2.0
 40
3.0
 40
3.0
 40
3.0
 40
4.0
 40
4.0
 40
4.0
 40
5.0
 40
5.0
 40
5.0
 40
5.0
 10
128.9402777777777
 20
132.6409993489583
 30
0.0
 10
129.6694322374132
 20
132.6409993489583
 30
0.0
 10
130.2569932725694
 20
133.2283881293402
 30
0.0
 10
130.2569932725694
 20
133.95771484375
 30
0.0
 10
130.2569932725694
 20
134.6870415581597
 30
0.0
 10
129.6694322374132
 20
135.2945841471354
 30
0.0
 10
128.9402777777777
 20
135.2945841471354
 30
0.0
 10
128.210951063368
 20
135.2945841471354
 30
0.0
 10
127.6235622829861
 20
134.6870415581597
 30
0.0
 10
127.6235622829861
 20
133.95771484375
 30
0.0
 10
127.6235622829861
 20
133.2283881293402
 30
0.0
 10
128.210951063368
 20
132.6409993489583
 30
0.0
 10
128.9402777777777
 20
132.6409993489583
 30
0.0
 10
128.9402777777777
 20
132.6409993489583
 30
0.0
 10
128.9402777777777
 20
132.6409993489583
 30
0.0
 10
128.9402777777777
 20
132.6409993489583
 30
0.0
  0
LINE
  5
21D
330
A
100
AcDbEntity
  8
LAYER_1
 62
     7
100
AcDbLine
 10
128.940278
 20
135.639094
 30
0.0
 11
128.940278
 21
134.585756
 31
0.0
  0
LINE
  5
21C
330
A
100
AcDbEntity
  8
LAYER_1
 62
     7
100
AcDbLine
 10
127.279225
 20
133.9577149999999
 30
0.0
 11
128.332563
 21
133.9577149999999
 31
0.0
  0
LINE
  5
21B
330
A
100
AcDbEntity
  8
LAYER_1
 62
     7
100
AcDbLine
 10
128.940278
 20
132.296662
 30
0.0
 11
128.940278
 21
133.35
 31
0.0
  0
POLYLINE
  5
214
330
A
100
AcDbEntity
  8
LAYER_1
 62
     7
100
AcDb2dPolyline
 66
     1
 10
0.0
 20
0.0
 30
0.0
 70
     1
  0
VERTEX
  5
215
330
214
100
AcDbEntity
  8
LAYER_1
 62
     7
100
AcDbVertex
100
AcDb2dVertex
 10
123.956947
 20
121.884722
 30
0.0
  0
VERTEX
  5
216
330
214
100
AcDbEntity
  8
LAYER_1
 62
     7
100
AcDbVertex
100
AcDb2dVertex
 10
124.119211
 20
121.884722
 30
0.0
  0
VERTEX
  5
217
330
214
100
AcDbEntity
  8
LAYER_1
 62
     7
100
AcDbVertex
100
AcDb2dVertex
 10
123.956947
 20
121.459253
 30
0.0
  0
VERTEX
  5
218
330
214
100
AcDbEntity
  8
LAYER_1
 62
     7
100
AcDbVertex
100
AcDb2dVertex
 10
123.795028
 20
121.884722
 30
0.0
  0
VERTEX
  5
219
330
214
100
AcDbEntity
  8
LAYER_1
 62
     7
100
AcDbVertex
100
AcDb2dVertex
 10
123.956947
 20
121.884722
 30
0.0
  0
SEQEND
  5
21A
330
214
100
AcDbEntity
  8
LAYER_1
 62
     7
  0
POLYLINE
  5
20D
330
A
100
AcDbEntity
  8
LAYER_1
 62
     7
100
AcDb2dPolyline
 66
     1
 10
0.0
 20
0.0
 30
0.0
 70
     1
  0
VERTEX
  5
20E
330
20D
100
AcDbEntity
  8
LAYER_1
 62
     7
100
AcDbVertex
100
AcDb2dVertex
 10
123.956947
 20
145.767502
 30
0.0
  0
VERTEX
  5
20F
330
20D
100
AcDbEntity
  8
LAYER_1
 62
     7
100
AcDbVertex
100
AcDb2dVertex
 10
123.795028
 20
145.767502
 30
0.0
  0
VERTEX
  5
210
330
20D
100
AcDbEntity
  8
LAYER_1
 62
     7
100
AcDbVertex
100
AcDb2dVertex
 10
123.956947
 20
146.192799
 30
0.0
  0
VERTEX
  5
211
330
20D
100
AcDbEntity
  8
LAYER_1
 62
     7
100
AcDbVertex
100
AcDb2dVertex
 10
124.119211
 20
145.767502
 30
0.0
  0
VERTEX
  5
212
330
20D
100
AcDbEntity
  8
LAYER_1
 62
     7
100
AcDbVertex
100
AcDb2dVertex
 10
123.956947
 20
145.767502
 30
0.0
  0
SEQEND
  5
213
330
20D
100
AcDbEntity
  8
LAYER_1
 62
     7
  0
POLYLINE
  5
206
330
A
100
AcDbEntity
  8
LAYER_1
 62
     7
100
AcDb2dPolyline
 66
     1
 10
0.0
 20
0.0
 30
0.0
 70
     1
  0
VERTEX
  5
207
330
206
100
AcDbEntity
  8
LAYER_1
 62
     7
100
AcDbVertex
100
AcDb2dVertex
 10
123.956947
 20
119.777874
 30
0.0
  0
VERTEX
  5
208
330
206
100
AcDbEntity
  8
LAYER_1
 62
     7
100
AcDbVertex
100
AcDb2dVertex
 10
123.795028
 20
119.777874
 30
0.0
  0
VERTEX
  5
209
330
206
100
AcDbEntity
  8
LAYER_1
 62
     7
100
AcDbVertex
100
AcDb2dVertex
 10
123.956947
 20
120.223497
 30
0.0
  0
VERTEX
  5
20A
330
206
100
AcDbEntity
  8
LAYER_1
 62
     7
100
AcDbVertex
100
AcDb2dVertex
 10
124.119211
 20
119.777874
 30
0.0
  0
VERTEX
  5
20B
330
206
100
AcDbEntity
  8
LAYER_1
 62
     7
100
AcDbVertex
100
AcDb2dVertex
 10
123.956947
 20
119.777874
 30
0.0
  0
SEQEND
  5
20C
330
206
100
AcDbEntity
  8
LAYER_1
 62
     7
  0
POLYLINE
  5
1FF
330
A
100
AcDbEntity
  8
LAYER_1
 62
     7
100
AcDb2dPolyline
 66
     1
 10
0.0
 20
0.0
 30
0.0
 70
     1
  0
VERTEX
  5
200
330
1FF
100
AcDbEntity
  8
LAYER_1
 62
     7
100
AcDbVertex
100
AcDb2dVertex
 10
123.956947
 20
147.934984
 30
0.0
  0
VERTEX
  5
201
330
1FF
100
AcDbEntity
  8
LAYER_1
 62
     7
100
AcDbVertex
100
AcDb2dVertex
 10
124.119211
 20
147.934984
 30
0.0
  0
VERTEX
  5
202
330
1FF
100
AcDbEntity
  8
LAYER_1
 62
     7
100
AcDbVertex
100
AcDb2dVertex
 10
123.956947
 20
147.509687
 30
0.0
  0
VERTEX
  5
203
330
1FF
100
AcDbEntity
  8
LAYER_1
 62
     7
100
AcDbVertex
100
AcDb2dVertex
 10
123.795028
 20
147.934984
 30
0.0
  0
VERTEX
  5
204
330
1FF
100
AcDbEntity
  8
LAYER_1
 62
     7
100
AcDbVertex
100
AcDb2dVertex
 10
123.956947
 20
147.934984
 30
0.0
  0
SEQEND
  5
205
330
1FF
100
AcDbEntity
  8
LAYER_1
 62
     7
  0
POLYLINE
  5
1F8
330
A
100
AcDbEntity
  8
LAYER_1
 62
     7
100
AcDb2dPolyline
 66
     1
 10
0.0
 20
0.0
 30
0.0
 70
     1
  0
VERTEX
  5
1F9
330
1F8
100
AcDbEntity
  8
LAYER_1
 62
     7
100
AcDbVertex
100
AcDb2dVertex
 10
127.299379
 20
149.474425
 30
0.0
  0
VERTEX
  5
1FA
330
1F8
100
AcDbEntity
  8
LAYER_1
 62
     7
100
AcDbVertex
100
AcDb2dVertex
 10
127.299379
 20
149.292179
 30
0.0
  0
VERTEX
  5
1FB
330
1F8
100
AcDbEntity
  8
LAYER_1
 62
     7
100
AcDbVertex
100
AcDb2dVertex
 10
126.874082
 20
149.474425
 30
0.0
  0
VERTEX
  5
1FC
330
1F8
100
AcDbEntity
  8
LAYER_1
 62
     7
100
AcDbVertex
100
AcDb2dVertex
 10
127.299379
 20
149.636517
 30
0.0
  0
VERTEX
  5
1FD
330
1F8
100
AcDbEntity
  8
LAYER_1
 62
     7
100
AcDbVertex
100
AcDb2dVertex
 10
127.299379
 20
149.474425
 30
0.0
  0
SEQEND
  5
1FE
330
1F8
100
AcDbEntity
  8
LAYER_1
 62
     7
  0
POLYLINE
  5
1F1
330
A
100
AcDbEntity
  8
LAYER_1
 62
     7
100
AcDb2dPolyline
 66
     1
 10
0.0
 20
0.0
 30
0.0
 70
     1
  0
VERTEX
  5
1F2
330
1F1
100
AcDbEntity
  8
LAYER_1
 62
     7
100
AcDbVertex
100
AcDb2dVertex
 10
129.021238
 20
149.474425
 30
0.0
  0
VERTEX
  5
1F3
330
1F1
100
AcDbEntity
  8
LAYER_1
 62
     7
100
AcDbVertex
100
AcDb2dVertex
 10
129.021238
 20
149.636517
 30
0.0
  0
VERTEX
  5
1F4
330
1F1
100
AcDbEntity
  8
LAYER_1
 62
     7
100
AcDbVertex
100
AcDb2dVertex
 10
129.467033
 20
149.474425
 30
0.0
  0
VERTEX
  5
1F5
330
1F1
100
AcDbEntity
  8
LAYER_1
 62
     7
100
AcDbVertex
100
AcDb2dVertex
 10
129.021238
 20
149.292179
 30
0.0
  0
VERTEX
  5
1F6
330
1F1
100
AcDbEntity
  8
LAYER_1
 62
     7
100
AcDbVertex
100
AcDb2dVertex
 10
129.021238
 20
149.474425
 30
0.0
  0
SEQEND
  5
1F7
330
1F1
100
AcDbEntity
  8
LAYER_1
 62
     7
  0
POLYLINE
  5
1EA
330
A
100
AcDbEntity
  8
LAYER_1
 62
     7
100
AcDb2dPolyline
 66
     1
 10
0.0
 20
0.0
 30
0.0
 70
     1
  0
VERTEX
  5
1EB
330
1EA
100
AcDbEntity
  8
LAYER_1
 62
     7
100
AcDbVertex
100
AcDb2dVertex
 10
126.448785
 20
115.253602
 30
0.0
  0
VERTEX
  5
1EC
330
1EA
100
AcDbEntity
  8
LAYER_1
 62
     7
100
AcDbVertex
100
AcDb2dVertex
 10
126.448785
 20
115.091511
 30
0.0
  0
VERTEX
  5
1ED
330
1EA
100
AcDbEntity
  8
LAYER_1
 62
     7
100
AcDbVertex
100
AcDb2dVertex
 10
126.002989
 20
115.253602
 30
0.0
  0
VERTEX
  5
1EE
330
1EA
100
AcDbEntity
  8
LAYER_1
 62
     7
100
AcDbVertex
100
AcDb2dVertex
 10
126.448785
 20
115.415522
 30
0.0
  0
VERTEX
  5
1EF
330
1EA
100
AcDbEntity
  8
LAYER_1
 62
     7
100
AcDbVertex
100
AcDb2dVertex
 10
126.448785
 20
115.253602
 30
0.0
  0
SEQEND
  5
1F0
330
1EA
100
AcDbEntity
  8
LAYER_1
 62
     7
  0
POLYLINE
  5
1E3
330
A
100
AcDbEntity
  8
LAYER_1
 62
     7
100
AcDb2dPolyline
 66
     1
 10
0.0
 20
0.0
 30
0.0
 70
     1
  0
VERTEX
  5
1E4
330
1E3
100
AcDbEntity
  8
LAYER_1
 62
     7
100
AcDbVertex
100
AcDb2dVertex
 10
131.472251
 20
115.253602
 30
0.0
  0
VERTEX
  5
1E5
330
1E3
100
AcDbEntity
  8
LAYER_1
 62
     7
100
AcDbVertex
100
AcDb2dVertex
 10
131.472251
 20
115.415522
 30
0.0
  0
VERTEX
  5
1E6
330
1E3
100
AcDbEntity
  8
LAYER_1
 62
     7
100
AcDbVertex
100
AcDb2dVertex
 10
131.89772
 20
115.253602
 30
0.0
  0
VERTEX
  5
1E7
330
1E3
100
AcDbEntity
  8
LAYER_1
 62
     7
100
AcDbVertex
100
AcDb2dVertex
 10
131.472251
 20
115.091511
 30
0.0
  0
VERTEX
  5
1E8
330
1E3
100
AcDbEntity
  8
LAYER_1
 62
     7
100
AcDbVertex
100
AcDb2dVertex
 10
131.472251
 20
115.253602
 30
0.0
  0
SEQEND
  5
1E9
330
1E3
100
AcDbEntity
  8
LAYER_1
 62
     7
  0
POLYLINE
  5
1DC
330
A
100
AcDbEntity
  8
LAYER_1
 62
     7
100
AcDb2dPolyline
 66
     1
 10
0.0
 20
0.0
 30
0.0
 70
     1
  0
VERTEX
  5
1DD
330
1DC
100
AcDbEntity
  8
LAYER_1
 62
     7
100
AcDbVertex
100
AcDb2dVertex
 10
128.63642
 20
118.258587
 30
0.0
  0
VERTEX
  5
1DE
330
1DC
100
AcDbEntity
  8
LAYER_1
 62
     7
100
AcDbVertex
100
AcDb2dVertex
 10
128.63642
 20
118.096495
 30
0.0
  0
VERTEX
  5
1DF
330
1DC
100
AcDbEntity
  8
LAYER_1
 62
     7
100
AcDbVertex
100
AcDb2dVertex
 10
128.210951
 20
118.258587
 30
0.0
  0
VERTEX
  5
1E0
330
1DC
100
AcDbEntity
  8
LAYER_1
 62
     7
100
AcDbVertex
100
AcDb2dVertex
 10
128.63642
 20
118.420679
 30
0.0
  0
VERTEX
  5
1E1
330
1DC
100
AcDbEntity
  8
LAYER_1
 62
     7
100
AcDbVertex
100
AcDb2dVertex
 10
128.63642
 20
118.258587
 30
0.0
  0
SEQEND
  5
1E2
330
1DC
100
AcDbEntity
  8
LAYER_1
 62
     7
  0
POLYLINE
  5
1D5
330
A
100
AcDbEntity
  8
LAYER_1
 62
     7
100
AcDb2dPolyline
 66
     1
 10
0.0
 20
0.0
 30
0.0
 70
     1
  0
VERTEX
  5
1D6
330
1D5
100
AcDbEntity
  8
LAYER_1
 62
     7
100
AcDbVertex
100
AcDb2dVertex
 10
125.516886
 20
118.258587
 30
0.0
  0
VERTEX
  5
1D7
330
1D5
100
AcDbEntity
  8
LAYER_1
 62
     7
100
AcDbVertex
100
AcDb2dVertex
 10
125.516886
 20
118.420679
 30
0.0
  0
VERTEX
  5
1D8
330
1D5
100
AcDbEntity
  8
LAYER_1
 62
     7
100
AcDbVertex
100
AcDb2dVertex
 10
125.942183
 20
118.258587
 30
0.0
  0
VERTEX
  5
1D9
330
1D5
100
AcDbEntity
  8
LAYER_1
 62
     7
100
AcDbVertex
100
AcDb2dVertex
 10
125.516886
 20
118.096495
 30
0.0
  0
VERTEX
  5
1DA
330
1D5
100
AcDbEntity
  8
LAYER_1
 62
     7
100
AcDbVertex
100
AcDb2dVertex
 10
125.516886
 20
118.258587
 30
0.0
  0
SEQEND
  5
1DB
330
1D5
100
AcDbEntity
  8
LAYER_1
 62
     7
  0
POLYLINE
  5
1CE
330
A
100
AcDbEntity
  8
LAYER_1
 62
     7
100
AcDb2dPolyline
 66
     1
 10
0.0
 20
0.0
 30
0.0
 70
     1
  0
VERTEX
  5
1CF
330
1CE
100
AcDbEntity
  8
LAYER_1
 62
     7
100
AcDbVertex
100
AcDb2dVertex
 10
140.385402
 20
117.623656
 30
0.0
  0
VERTEX
  5
1D0
330
1CE
100
AcDbEntity
  8
LAYER_1
 62
     7
100
AcDbVertex
100
AcDb2dVertex
 10
140.385402
 20
117.461564
 30
0.0
  0
VERTEX
  5
1D1
330
1CE
100
AcDbEntity
  8
LAYER_1
 62
     7
100
AcDbVertex
100
AcDb2dVertex
 10
139.959932
 20
117.623656
 30
0.0
  0
VERTEX
  5
1D2
330
1CE
100
AcDbEntity
  8
LAYER_1
 62
     7
100
AcDbVertex
100
AcDb2dVertex
 10
140.385402
 20
117.785748
 30
0.0
  0
VERTEX
  5
1D3
330
1CE
100
AcDbEntity
  8
LAYER_1
 62
     7
100
AcDbVertex
100
AcDb2dVertex
 10
140.385402
 20
117.623656
 30
0.0
  0
SEQEND
  5
1D4
330
1CE
100
AcDbEntity
  8
LAYER_1
 62
     7
  0
POLYLINE
  5
1C7
330
A
100
AcDbEntity
  8
LAYER_1
 62
     7
100
AcDb2dPolyline
 66
     1
 10
0.0
 20
0.0
 30
0.0
 70
     1
  0
VERTEX
  5
1C8
330
1C7
100
AcDbEntity
  8
LAYER_1
 62
     7
100
AcDbVertex
100
AcDb2dVertex
 10
145.469846
 20
117.623656
 30
0.0
  0
VERTEX
  5
1C9
330
1C7
100
AcDbEntity
  8
LAYER_1
 62
     7
100
AcDbVertex
100
AcDb2dVertex
 10
145.469846
 20
117.785748
 30
0.0
  0
VERTEX
  5
1CA
330
1C7
100
AcDbEntity
  8
LAYER_1
 62
     7
100
AcDbVertex
100
AcDb2dVertex
 10
145.895315
 20
117.623656
 30
0.0
  0
VERTEX
  5
1CB
330
1C7
100
AcDbEntity
  8
LAYER_1
 62
     7
100
AcDbVertex
100
AcDb2dVertex
 10
145.469846
 20
117.461564
 30
0.0
  0
VERTEX
  5
1CC
330
1C7
100
AcDbEntity
  8
LAYER_1
 62
     7
100
AcDbVertex
100
AcDb2dVertex
 10
145.469846
 20
117.623656
 30
0.0
  0
SEQEND
  5
1CD
330
1C7
100
AcDbEntity
  8
LAYER_1
 62
     7
  0
POLYLINE
  5
1C0
330
A
100
AcDbEntity
  8
LAYER_1
 62
     7
100
AcDb2dPolyline
 66
     1
 10
0.0
 20
0.0
 30
0.0
 70
     1
  0
VERTEX
  5
1C1
330
1C0
100
AcDbEntity
  8
LAYER_1
 62
     7
100
AcDbVertex
100
AcDb2dVertex
 10
144.112651
 20
149.474425
 30
0.0
  0
VERTEX
  5
1C2
330
1C0
100
AcDbEntity
  8
LAYER_1
 62
     7
100
AcDbVertex
100
AcDb2dVertex
 10
144.112651
 20
149.292179
 30
0.0
  0
VERTEX
  5
1C3
330
1C0
100
AcDbEntity
  8
LAYER_1
 62
     7
100
AcDbVertex
100
AcDb2dVertex
 10
143.667027
 20
149.474425
 30
0.0
  0
VERTEX
  5
1C4
330
1C0
100
AcDbEntity
  8
LAYER_1
 62
     7
100
AcDbVertex
100
AcDb2dVertex
 10
144.112651
 20
149.636517
 30
0.0
  0
VERTEX
  5
1C5
330
1C0
100
AcDbEntity
  8
LAYER_1
 62
     7
100
AcDbVertex
100
AcDb2dVertex
 10
144.112651
 20
149.474425
 30
0.0
  0
SEQEND
  5
1C6
330
1C0
100
AcDbEntity
  8
LAYER_1
 62
     7
  0
POLYLINE
  5
1B9
330
A
100
AcDbEntity
  8
LAYER_1
 62
     7
100
AcDb2dPolyline
 66
     1
 10
0.0
 20
0.0
 30
0.0
 70
     1
  0
VERTEX
  5
1BA
330
1B9
100
AcDbEntity
  8
LAYER_1
 62
     7
100
AcDbVertex
100
AcDb2dVertex
 10
145.490172
 20
149.474425
 30
0.0
  0
VERTEX
  5
1BB
330
1B9
100
AcDbEntity
  8
LAYER_1
 62
     7
100
AcDbVertex
100
AcDb2dVertex
 10
145.490172
 20
149.636517
 30
0.0
  0
VERTEX
  5
1BC
330
1B9
100
AcDbEntity
  8
LAYER_1
 62
     7
100
AcDbVertex
100
AcDb2dVertex
 10
145.915469
 20
149.474425
 30
0.0
  0
VERTEX
  5
1BD
330
1B9
100
AcDbEntity
  8
LAYER_1
 62
     7
100
AcDbVertex
100
AcDb2dVertex
 10
145.490172
 20
149.292179
 30
0.0
  0
VERTEX
  5
1BE
330
1B9
100
AcDbEntity
  8
LAYER_1
 62
     7
100
AcDbVertex
100
AcDb2dVertex
 10
145.490172
 20
149.474425
 30
0.0
  0
SEQEND
  5
1BF
330
1B9
100
AcDbEntity
  8
LAYER_1
 62
     7
  0
LINE
  5
1B8
330
A
100
AcDbEntity
  8
LAYER_1
 62
     7
100
AcDbLine
 10
143.646701
 20
149.656843
 30
0.0
 11
143.646701
 21
147.732412
 31
0.0
  0
LINE
  5
1B7
330
A
100
AcDbEntity
  8
LAYER_1
 62
     7
100
AcDbLine
 10
120.597807
 20
147.023412
 30
0.0
 11
120.597807
 21
120.62864
 31
0.0
  0
POLYLINE
  5
1B0
330
A
100
AcDbEntity
  8
LAYER_1
 62
     7
100
AcDb2dPolyline
 66
     1
 10
0.0
 20
0.0
 30
0.0
 70
     1
  0
VERTEX
  5
1B1
330
1B0
100
AcDbEntity
  8
LAYER_1
 62
     7
100
AcDbVertex
100
AcDb2dVertex
 10
120.597807
 20
120.750252
 30
0.0
  0
VERTEX
  5
1B2
330
1B0
100
AcDbEntity
  8
LAYER_1
 62
     7
100
AcDbVertex
100
AcDb2dVertex
 10
120.759899
 20
120.750252
 30
0.0
  0
VERTEX
  5
1B3
330
1B0
100
AcDbEntity
  8
LAYER_1
 62
     7
100
AcDbVertex
100
AcDb2dVertex
 10
120.597807
 20
120.324783
 30
0.0
  0
VERTEX
  5
1B4
330
1B0
100
AcDbEntity
  8
LAYER_1
 62
     7
100
AcDbVertex
100
AcDb2dVertex
 10
120.435715
 20
120.750252
 30
0.0
  0
VERTEX
  5
1B5
330
1B0
100
AcDbEntity
  8
LAYER_1
 62
     7
100
AcDbVertex
100
AcDb2dVertex
 10
120.597807
 20
120.750252
 30
0.0
  0
SEQEND
  5
1B6
330
1B0
100
AcDbEntity
  8
LAYER_1
 62
     7
  0
POLYLINE
  5
1A9
330
A
100
AcDbEntity
  8
LAYER_1
 62
     7
100
AcDb2dPolyline
 66
     1
 10
0.0
 20
0.0
 30
0.0
 70
     1
  0
VERTEX
  5
1AA
330
1A9
100
AcDbEntity
  8
LAYER_1
 62
     7
100
AcDbVertex
100
AcDb2dVertex
 10
120.597807
 20
146.962606
 30
0.0
  0
VERTEX
  5
1AB
330
1A9
100
AcDbEntity
  8
LAYER_1
 62
     7
100
AcDbVertex
100
AcDb2dVertex
 10
120.435715
 20
146.962606
 30
0.0
  0
VERTEX
  5
1AC
330
1A9
100
AcDbEntity
  8
LAYER_1
 62
     7
100
AcDbVertex
100
AcDb2dVertex
 10
120.597807
 20
147.388075
 30
0.0
  0
VERTEX
  5
1AD
330
1A9
100
AcDbEntity
  8
LAYER_1
 62
     7
100
AcDbVertex
100
AcDb2dVertex
 10
120.759899
 20
146.962606
 30
0.0
  0
VERTEX
  5
1AE
330
1A9
100
AcDbEntity
  8
LAYER_1
 62
     7
100
AcDbVertex
100
AcDb2dVertex
 10
120.597807
 20
146.962606
 30
0.0
  0
SEQEND
  5
1AF
330
1A9
100
AcDbEntity
  8
LAYER_1
 62
     7
  0
LINE
  5
1A8
330
A
100
AcDbEntity
  8
LAYER_1
 62
     7
100
AcDbLine
 10
135.152474
 20
120.203171
 30
0.0
 11
131.999006
 21
120.203171
 31
0.0
  0
LINE
  5
1A7
330
A
100
AcDbEntity
  8
LAYER_1
 62
     7
100
AcDbLine
 10
135.517137
 20
147.509687
 30
0.0
 11
132.242057
 21
147.509687
 31
0.0
  0
LINE
  5
1A6
330
A
100
AcDbEntity
  8
LAYER_1
 62
     7
100
AcDbLine
 10
134.484125
 20
147.063892
 30
0.0
 11
134.484125
 21
120.608487
 31
0.0
  0
POLYLINE
  5
19F
330
A
100
AcDbEntity
  8
LAYER_1
 62
     7
100
AcDb2dPolyline
 66
     1
 10
0.0
 20
0.0
 30
0.0
 70
     1
  0
VERTEX
  5
1A0
330
19F
100
AcDbEntity
  8
LAYER_1
 62
     7
100
AcDbVertex
100
AcDb2dVertex
 10
134.484125
 20
120.7096
 30
0.0
  0
VERTEX
  5
1A1
330
19F
100
AcDbEntity
  8
LAYER_1
 62
     7
100
AcDbVertex
100
AcDb2dVertex
 10
134.322034
 20
120.7096
 30
0.0
  0
VERTEX
  5
1A2
330
19F
100
AcDbEntity
  8
LAYER_1
 62
     7
100
AcDbVertex
100
AcDb2dVertex
 10
134.484125
 20
120.284303
 30
0.0
  0
VERTEX
  5
1A3
330
19F
100
AcDbEntity
  8
LAYER_1
 62
     7
100
AcDbVertex
100
AcDb2dVertex
 10
134.646045
 20
120.7096
 30
0.0
  0
VERTEX
  5
1A4
330
19F
100
AcDbEntity
  8
LAYER_1
 62
     7
100
AcDbVertex
100
AcDb2dVertex
 10
134.484125
 20
120.7096
 30
0.0
  0
SEQEND
  5
1A5
330
19F
100
AcDbEntity
  8
LAYER_1
 62
     7
  0
POLYLINE
  5
198
330
A
100
AcDbEntity
  8
LAYER_1
 62
     7
100
AcDb2dPolyline
 66
     1
 10
0.0
 20
0.0
 30
0.0
 70
     1
  0
VERTEX
  5
199
330
198
100
AcDbEntity
  8
LAYER_1
 62
     7
100
AcDbVertex
100
AcDb2dVertex
 10
134.484125
 20
147.003258
 30
0.0
  0
VERTEX
  5
19A
330
198
100
AcDbEntity
  8
LAYER_1
 62
     7
100
AcDbVertex
100
AcDb2dVertex
 10
134.646045
 20
147.003258
 30
0.0
  0
VERTEX
  5
19B
330
198
100
AcDbEntity
  8
LAYER_1
 62
     7
100
AcDbVertex
100
AcDb2dVertex
 10
134.484125
 20
147.428555
 30
0.0
  0
VERTEX
  5
19C
330
198
100
AcDbEntity
  8
LAYER_1
 62
     7
100
AcDbVertex
100
AcDb2dVertex
 10
134.322034
 20
147.003258
 30
0.0
  0
VERTEX
  5
19D
330
198
100
AcDbEntity
  8
LAYER_1
 62
     7
100
AcDbVertex
100
AcDb2dVertex
 10
134.484125
 20
147.003258
 30
0.0
  0
SEQEND
  5
19E
330
198
100
AcDbEntity
  8
LAYER_1
 62
     7
  0
LINE
  5
197
330
A
100
AcDbEntity
  8
LAYER_1
 62
     7
100
AcDbLine
 10
135.517137
 20
133.937389
 30
0.0
 11
130.743096
 21
133.937389
 31
0.0
  0
POLYLINE
  5
190
330
A
100
AcDbEntity
  8
LAYER_1
 62
     7
100
AcDb2dPolyline
 66
     1
 10
0.0
 20
0.0
 30
0.0
 70
     1
  0
VERTEX
  5
191
330
190
100
AcDbEntity
  8
LAYER_1
 62
     7
100
AcDbVertex
100
AcDb2dVertex
 10
134.423147
 20
133.451286
 30
0.0
  0
VERTEX
  5
192
330
190
100
AcDbEntity
  8
LAYER_1
 62
     7
100
AcDbVertex
100
AcDb2dVertex
 10
134.585239
 20
133.451286
 30
0.0
  0
VERTEX
  5
193
330
190
100
AcDbEntity
  8
LAYER_1
 62
     7
100
AcDbVertex
100
AcDb2dVertex
 10
134.423147
 20
133.876583
 30
0.0
  0
VERTEX
  5
194
330
190
100
AcDbEntity
  8
LAYER_1
 62
     7
100
AcDbVertex
100
AcDb2dVertex
 10
134.261228
 20
133.451286
 30
0.0
  0
VERTEX
  5
195
330
190
100
AcDbEntity
  8
LAYER_1
 62
     7
100
AcDbVertex
100
AcDb2dVertex
 10
134.423147
 20
133.451286
 30
0.0
  0
SEQEND
  5
196
330
190
100
AcDbEntity
  8
LAYER_1
 62
     7
  0
POLYLINE
  5
189
330
A
100
AcDbEntity
  8
LAYER_1
 62
     7
100
AcDb2dPolyline
 66
     1
 10
0.0
 20
0.0
 30
0.0
 70
     1
  0
VERTEX
  5
18A
330
189
100
AcDbEntity
  8
LAYER_1
 62
     7
100
AcDbVertex
100
AcDb2dVertex
 10
134.484125
 20
134.464144
 30
0.0
  0
VERTEX
  5
18B
330
189
100
AcDbEntity
  8
LAYER_1
 62
     7
100
AcDbVertex
100
AcDb2dVertex
 10
134.322034
 20
134.464144
 30
0.0
  0
VERTEX
  5
18C
330
189
100
AcDbEntity
  8
LAYER_1
 62
     7
100
AcDbVertex
100
AcDb2dVertex
 10
134.484125
 20
134.018521
 30
0.0
  0
VERTEX
  5
18D
330
189
100
AcDbEntity
  8
LAYER_1
 62
     7
100
AcDbVertex
100
AcDb2dVertex
 10
134.646045
 20
134.464144
 30
0.0
  0
VERTEX
  5
18E
330
189
100
AcDbEntity
  8
LAYER_1
 62
     7
100
AcDbVertex
100
AcDb2dVertex
 10
134.484125
 20
134.464144
 30
0.0
  0
SEQEND
  5
18F
330
189
100
AcDbEntity
  8
LAYER_1
 62
     7
  0
POLYLINE
  5
182
330
A
100
AcDbEntity
  8
LAYER_1
 62
     7
100
AcDb2dPolyline
 66
     1
 10
0.0
 20
0.0
 30
0.0
 70
     1
  0
VERTEX
  5
183
330
182
100
AcDbEntity
  8
LAYER_1
 62
     7
100
AcDbVertex
100
AcDb2dVertex
 10
145.024223
 20
145.544604
 30
0.0
  0
VERTEX
  5
184
330
182
100
AcDbEntity
  8
LAYER_1
 62
     7
100
AcDbVertex
100
AcDb2dVertex
 10
145.024223
 20
146.9018
 30
0.0
  0
VERTEX
  5
185
330
182
100
AcDbEntity
  8
LAYER_1
 62
     7
100
AcDbVertex
100
AcDb2dVertex
 10
142.309832
 20
146.9018
 30
0.0
  0
VERTEX
  5
186
330
182
100
AcDbEntity
  8
LAYER_1
 62
     7
100
AcDbVertex
100
AcDb2dVertex
 10
142.309832
 20
145.544604
 30
0.0
  0
VERTEX
  5
187
330
182
100
AcDbEntity
  8
LAYER_1
 62
     7
100
AcDbVertex
100
AcDb2dVertex
 10
145.024223
 20
145.544604
 30
0.0
  0
SEQEND
  5
188
330
182
100
AcDbEntity
  8
LAYER_1
 62
     7
  0
POLYLINE
  5
17B
330
A
100
AcDbEntity
  8
LAYER_1
 62
     7
100
AcDb2dPolyline
 66
     1
 10
0.0
 20
0.0
 30
0.0
 70
     1
  0
VERTEX
  5
17C
330
17B
100
AcDbEntity
  8
LAYER_1
 62
     7
100
AcDbVertex
100
AcDb2dVertex
 10
129.507513
 20
145.564931
 30
0.0
  0
VERTEX
  5
17D
330
17B
100
AcDbEntity
  8
LAYER_1
 62
     7
100
AcDbVertex
100
AcDb2dVertex
 10
129.507513
 20
146.922126
 30
0.0
  0
VERTEX
  5
17E
330
17B
100
AcDbEntity
  8
LAYER_1
 62
     7
100
AcDbVertex
100
AcDb2dVertex
 10
126.79295
 20
146.922126
 30
0.0
  0
VERTEX
  5
17F
330
17B
100
AcDbEntity
  8
LAYER_1
 62
     7
100
AcDbVertex
100
AcDb2dVertex
 10
126.79295
 20
145.564931
 30
0.0
  0
VERTEX
  5
180
330
17B
100
AcDbEntity
  8
LAYER_1
 62
     7
100
AcDbVertex
100
AcDb2dVertex
 10
129.507513
 20
145.564931
 30
0.0
  0
SEQEND
  5
181
330
17B
100
AcDbEntity
  8
LAYER_1
 62
     7
  0
POLYLINE
  5
174
330
A
100
AcDbEntity
  8
LAYER_1
 62
     7
100
AcDb2dPolyline
 66
     1
 10
0.0
 20
0.0
 30
0.0
 70
     1
  0
VERTEX
  5
175
330
174
100
AcDbEntity
  8
LAYER_1
 62
     7
100
AcDbVertex
100
AcDb2dVertex
 10
145.0040689999999
 20
120.851538
 30
0.0
  0
VERTEX
  5
176
330
174
100
AcDbEntity
  8
LAYER_1
 62
     7
100
AcDbVertex
100
AcDb2dVertex
 10
145.0040689999999
 20
122.208733
 30
0.0
  0
VERTEX
  5
177
330
174
100
AcDbEntity
  8
LAYER_1
 62
     7
100
AcDbVertex
100
AcDb2dVertex
 10
142.269352
 20
122.208733
 30
0.0
  0
VERTEX
  5
178
330
174
100
AcDbEntity
  8
LAYER_1
 62
     7
100
AcDbVertex
100
AcDb2dVertex
 10
142.269352
 20
120.851538
 30
0.0
  0
VERTEX
  5
179
330
174
100
AcDbEntity
  8
LAYER_1
 62
     7
100
AcDbVertex
100
AcDb2dVertex
 10
145.0040689999999
 20
120.851538
 30
0.0
  0
SEQEND
  5
17A
330
174
100
AcDbEntity
  8
LAYER_1
 62
     7
  0
POLYLINE
  5
16D
330
A
100
AcDbEntity
  8
LAYER_1
 62
     7
100
AcDb2dPolyline
 66
     1
 10
0.0
 20
0.0
 30
0.0
 70
     1
  0
VERTEX
  5
16E
330
16D
100
AcDbEntity
  8
LAYER_1
 62
     7
100
AcDbVertex
100
AcDb2dVertex
 10
129.507513
 20
120.790732
 30
0.0
  0
VERTEX
  5
16F
330
16D
100
AcDbEntity
  8
LAYER_1
 62
     7
100
AcDbVertex
100
AcDb2dVertex
 10
129.507513
 20
122.147928
 30
0.0
  0
VERTEX
  5
170
330
16D
100
AcDbEntity
  8
LAYER_1
 62
     7
100
AcDbVertex
100
AcDb2dVertex
 10
126.79295
 20
122.147928
 30
0.0
  0
VERTEX
  5
171
330
16D
100
AcDbEntity
  8
LAYER_1
 62
     7
100
AcDbVertex
100
AcDb2dVertex
 10
126.79295
 20
120.790732
 30
0.0
  0
VERTEX
  5
172
330
16D
100
AcDbEntity
  8
LAYER_1
 62
     7
100
AcDbVertex
100
AcDb2dVertex
 10
129.507513
 20
120.790732
 30
0.0
  0
SEQEND
  5
173
330
16D
100
AcDbEntity
  8
LAYER_1
 62
     7
  0
SPLINE
  5
16C
330
A
100
AcDbEntity
  8
LAYER_1
 62
     7
100
AcDbSpline
210
0.0
220
0.0
230
1.0
 70
     9
 71
     3
 72
    32
 73
    28
 74
     0
 42
0.0000000001
 43
0.0000000001
 40
0.0
 40
0.0
 40
0.0
 40
0.0
 40
1.0
 40
1.0
 40
1.0
 40
2.0
 40
2.0
 40
2.0
 40
3.0
 40
3.0
 40
3.0
 40
4.0
 40
4.0
 40
4.0
 40
5.0
 40
5.0
 40
5.0
 40
6.0
 40
6.0
 40
6.0
 40
7.0
 40
7.0
 40
7.0
 40
8.0
 40
8.0
 40
8.0
 40
9.0
 40
9.0
 40
9.0
 40
9.0
 10
86.55440673828124
 20
120.2843031141493
 30
0.0
 10
86.55440673828124
 20
120.2843031141493
 30
0.0
 10
86.8785902235243
 20
120.2843031141493
 30
0.0
 10
86.8785902235243
 20
120.5680067274305
 30
0.0
 10
86.8785902235243
 20
120.8312120225694
 30
0.0
 10
86.8785902235243
 20
143.6809800889757
 30
0.0
 10
86.8785902235243
 20
147.0842176649305
 30
0.0
 10
86.8785902235243
 20
147.3677490234374
 30
0.0
 10
86.8785902235243
 20
147.5096869574652
 30
0.0
 10
86.45312093098956
 20
147.5096869574652
 30
0.0
 10
86.04797770182292
 20
147.5096869574652
 30
0.0
 10
81.65220811631945
 20
147.5096869574652
 30
0.0
 10
81.2673909505208
 20
147.5096869574652
 30
0.0
 10
80.90272759331597
 20
147.5096869574652
 30
0.0
 10
80.90272759331597
 20
147.1450236002604
 30
0.0
 10
80.90272759331597
 20
147.1450236002604
 30
0.0
 10
80.90272759331597
 20
147.1450236002604
 30
0.0
 10
80.90272759331597
 20
120.5881605360243
 30
0.0
 10
80.90272759331597
 20
120.5881605360243
 30
0.0
 10
80.90272759331597
 20
120.5881605360243
 30
0.0
 10
80.90272759331597
 20
120.2843031141493
 30
0.0
 10
81.24706488715276
 20
120.2843031141493
 30
0.0
 10
81.59140218098956
 20
120.2843031141493
 30
0.0
 10
86.55440673828124
 20
120.2843031141493
 30
0.0
 10
86.55440673828124
 20
120.2843031141493
 30
0.0
 10
86.55440673828124
 20
120.2843031141493
 30
0.0
 10
86.55440673828124
 20
120.2843031141493
 30
0.0
 10
86.55440673828124
 20
120.2843031141493
 30
0.0
  0
SPLINE
  5
16B
330
A
100
AcDbEntity
  8
LAYER_1
 62
     7
100
AcDbSpline
210
0.0
220
0.0
230
1.0
 70
     9
 71
     3
 72
    32
 73
    28
 74
     0
 42
0.0000000001
 43
0.0000000001
 40
0.0
 40
0.0
 40
0.0
 40
0.0
 40
1.0
 40
1.0
 40
1.0
 40
2.0
 40
2.0
 40
2.0
 40
3.0
 40
3.0
 40
3.0
 40
4.0
 40
4.0
 40
4.0
 40
5.0
 40
5.0
 40
5.0
 40
6.0
 40
6.0
 40
6.0
 40
7.0
 40
7.0
 40
7.0
 40
8.0
 40
8.0
 40
8.0
 40
9.0
 40
9.0
 40
9.0
 40
9.0
 10
100.6126356336805
 20
120.2843031141493
 30
0.0
 10
100.8963392469618
 20
120.2843031141493
 30
0.0
 10
100.8963392469618
 20
120.6894463433159
 30
0.0
 10
100.8963392469618
 20
120.6894463433159
 30
0.0
 10
100.8963392469618
 20
120.6894463433159
 30
0.0
 10
100.8963392469618
 20
147.1450236002604
 30
0.0
 10
100.8963392469618
 20
147.1450236002604
 30
0.0
 10
100.8963392469618
 20
147.1450236002604
 30
0.0
 10
100.8760131835937
 20
147.5096869574652
 30
0.0
 10
100.5518296983507
 20
147.5096869574652
 30
0.0
 10
100.2479722764757
 20
147.5096869574652
 30
0.0
 10
95.69028320312501
 20
147.5096869574652
 30
0.0
 10
95.30529378255208
 20
147.5096869574652
 30
0.0
 10
94.92047661675345
 20
147.5096869574652
 30
0.0
 10
94.92047661675345
 20
147.1246975368923
 30
0.0
 10
94.92047661675345
 20
147.1246975368923
 30
0.0
 10
94.92047661675345
 20
147.1246975368923
 30
0.0
 10
94.92047661675345
 20
120.5881605360243
 30
0.0
 10
94.92047661675345
 20
120.5881605360243
 30
0.0
 10
94.92047661675345
 20
120.5881605360243
 30
0.0
 10
94.96095648871529
 20
120.2843031141493
 30
0.0
 10
95.28513997395831
 20
120.2843031141493
 30
0.0
 10
95.58899739583331
 20
120.2843031141493
 30
0.0
 10
100.3291042751736
 20
120.2843031141493
 30
0.0
 10
100.6126356336805
 20
120.2843031141493
 30
0.0
 10
100.6126356336805
 20
120.2843031141493
 30
0.0
 10
100.6126356336805
 20
120.2843031141493
 30
0.0
 10
100.6126356336805
 20
120.2843031141493
 30
0.0
  0
SPLINE
  5
16A
330
A
100
AcDbEntity
  8
LAYER_1
 62
     7
100
AcDbSpline
210
0.0
220
0.0
230
1.0
 70
     8
 71
     3
 72
    20
 73
    16
 74
     0
 42
0.0000000001
 43
0.0000000001
 40
0.0
 40
0.0
 40
0.0
 40
0.0
 40
1.0
 40
1.0
 40
1.0
 40
2.0
 40
2.0
 40
2.0
 40
3.0
 40
3.0
 40
3.0
 40
4.0
 40
4.0
 40
4.0
 40
5.0
 40
5.0
 40
5.0
 40
5.0
 10
85.72379421657984
 20
147.5096869574652
 30
0.0
 10
85.33897705078125
 20
147.5096869574652
 30
0.0
 10
85.33897705078125
 20
147.1855034722222
 30
0.0
 10
85.33897705078125
 20
147.1855034722222
 30
0.0
 10
85.33897705078125
 20
147.1855034722222
 30
0.0
 10
85.33897705078125
 20
143.8025919596354
 30
0.0
 10
85.33897705078125
 20
143.8025919596354
 30
0.0
 10
85.33897705078125
 20
143.8025919596354
 30
0.0
 10
85.33897705078125
 20
143.4582546657986
 30
0.0
 10
84.99463975694444
 20
143.4582546657986
 30
0.0
 10
84.65030246310762
 20
143.4582546657986
 30
0.0
 10
81.22673882378469
 20
143.4582546657986
 30
0.0
 10
81.22673882378469
 20
143.4582546657986
 30
0.0
 10
81.22673882378469
 20
143.4582546657986
 30
0.0
 10
80.90272759331597
 20
143.4987345377604
 30
0.0
 10
80.90272759331597
 20
143.2150309244791
 30
0.0
  0
SPLINE
  5
169
330
A
100
AcDbEntity
  8
LAYER_1
 62
     7
100
AcDbSpline
210
0.0
220
0.0
230
1.0
 70
     8
 71
     3
 72
    20
 73
    16
 74
     0
 42
0.0000000001
 43
0.0000000001
 40
0.0
 40
0.0
 40
0.0
 40
0.0
 40
1.0
 40
1.0
 40
1.0
 40
2.0
 40
2.0
 40
2.0
 40
3.0
 40
3.0
 40
3.0
 40
4.0
 40
4.0
 40
4.0
 40
5.0
 40
5.0
 40
5.0
 40
5.0
 10
96.11558024088541
 20
147.5096869574652
 30
0.0
 10
96.11558024088541
 20
147.5096869574652
 30
0.0
 10
96.39911159939236
 20
147.4285549587673
 30
0.0
 10
96.39911159939236
 20
147.1450236002604
 30
0.0
 10
96.39911159939236
 20
146.8613199869791
 30
0.0
 10
96.39911159939236
 20
143.7621120876736
 30
0.0
 10
96.39911159939236
 20
143.7621120876736
 30
0.0
 10
96.39911159939236
 20
143.7621120876736
 30
0.0
 10
96.41960991753471
 20
143.4784084743924
 30
0.0
 10
96.76377495659719
 20
143.4784084743924
 30
0.0
 10
97.1284383138021
 20
143.4784084743924
 30
0.0
 10
100.2278184678819
 20
143.4784084743924
 30
0.0
 10
100.5721557617188
 20
143.4784084743924
 30
0.0
 10
100.9164930555555
 20
143.4784084743924
 30
0.0
 10
100.9164930555555
 20
143.1139173719618
 30
0.0
 10
100.9164930555555
 20
143.1139173719618
 30
0.0
  0
SPLINE
  5
168
330
A
100
AcDbEntity
  8
LAYER_1
 62
     7
100
AcDbSpline
210
0.0
220
0.0
230
1.0
 70
     8
 71
     3
 72
    20
 73
    16
 74
     0
 42
0.0000000001
 43
0.0000000001
 40
0.0
 40
0.0
 40
0.0
 40
0.0
 40
1.0
 40
1.0
 40
1.0
 40
2.0
 40
2.0
 40
2.0
 40
3.0
 40
3.0
 40
3.0
 40
4.0
 40
4.0
 40
4.0
 40
5.0
 40
5.0
 40
5.0
 40
5.0
 10
85.60235460069444
 20
120.2639770507812
 30
0.0
 10
85.60235460069444
 20
120.2639770507812
 30
0.0
 10
85.33897705078125
 20
120.405914984809
 30
0.0
 10
85.33897705078125
 20
120.5881605360243
 30
0.0
 10
85.33897705078125
 20
121.1350694444444
 30
0.0
 10
85.33897705078125
 20
123.7886542426215
 30
0.0
 10
85.33897705078125
 20
123.9913981119791
 30
0.0
 10
85.33897705078125
 20
124.2749294704861
 30
0.0
 10
85.0554456922743
 20
124.3154093424479
 30
0.0
 10
85.0554456922743
 20
124.3154093424479
 30
0.0
 10
85.0554456922743
 20
124.3154093424479
 30
0.0
 10
81.16610514322916
 20
124.3154093424479
 30
0.0
 10
81.16610514322916
 20
124.3154093424479
 30
0.0
 10
81.16610514322916
 20
124.3154093424479
 30
0.0
 10
80.90272759331597
 20
124.3357354058159
 30
0.0
 10
80.90272759331597
 20
124.0318779839409
 30
0.0
  0
SPLINE
  5
167
330
A
100
AcDbEntity
  8
LAYER_1
 62
     7
100
AcDbSpline
210
0.0
220
0.0
230
1.0
 70
     8
 71
     3
 72
    20
 73
    16
 74
     0
 42
0.0000000001
 43
0.0000000001
 40
0.0
 40
0.0
 40
0.0
 40
0.0
 40
1.0
 40
1.0
 40
1.0
 40
2.0
 40
2.0
 40
2.0
 40
3.0
 40
3.0
 40
3.0
 40
4.0
 40
4.0
 40
4.0
 40
5.0
 40
5.0
 40
5.0
 40
5.0
 10
96.01429443359373
 20
120.2843031141493
 30
0.0
 10
96.39911159939236
 20
120.2843031141493
 30
0.0
 10
96.39911159939236
 20
120.5680067274305
 30
0.0
 10
96.39911159939236
 20
120.5680067274305
 30
0.0
 10
96.39911159939236
 20
120.5680067274305
 30
0.0
 10
96.39911159939236
 20
123.6672146267361
 30
0.0
 10
96.39911159939236
 20
123.9913981119791
 30
0.0
 10
96.39911159939236
 20
124.3154093424479
 30
0.0
 10
96.70314127604166
 20
124.3154093424479
 30
0.0
 10
96.70314127604166
 20
124.3154093424479
 30
0.0
 10
96.70314127604166
 20
124.3154093424479
 30
0.0
 10
100.6329616970486
 20
124.3154093424479
 30
0.0
 10
100.6329616970486
 20
124.3154093424479
 30
0.0
 10
100.6329616970486
 20
124.3154093424479
 30
0.0
 10
100.9164930555555
 20
124.2749294704861
 30
0.0
 10
100.9164930555555
 20
124.5179809570312
 30
0.0
  0
LINE
  5
166
330
A
100
AcDbEntity
  8
LAYER_1
 62
     7
100
AcDbLine
 10
70.93038199999999
 20
120.297222
 30
0.0
 11
80.70532400000001
 21
120.297222
 31
0.0
  0
INSERT
  5
160
330
A
100
AcDbEntity
  8
LAYER_1
 62
     7
100
AcDbBlockReference
  2
AI9-BLK1
 10
78.923951
 20
133.837826
 30
0.0
  0
LINE
  5
15E
330
A
100
AcDbEntity
  8
LAYER_1
 62
     7
100
AcDbLine
 10
78.93781700000001
 20
119.899486
 30
0.0
 11
78.93781700000001
 21
118.724536
 31
0.0
  0
LINE
  5
15D
330
A
100
AcDbEntity
  8
LAYER_1
 62
     7
100
AcDbLine
 10
78.309776
 20
122.127774
 30
0.0
 11
84.81239399999999
 21
122.127774
 31
0.0
  0
LINE
  5
15C
330
A
100
AcDbEntity
  8
LAYER_1
 62
     7
100
AcDbLine
 10
86.91906999999998
 20
119.859006
 30
0.0
 11
86.91906999999998
 21
114.888939
 31
0.0
  0
LINE
  5
15B
330
A
100
AcDbEntity
  8
LAYER_1
 62
     7
100
AcDbLine
 10
80.943207
 20
120.102058
 30
0.0
 11
80.943207
 21
114.8686129999999
 31
0.0
  0
LINE
  5
15A
330
A
100
AcDbEntity
  8
LAYER_1
 62
     7
100
AcDbLine
 10
83.94113
 20
118.420679
 30
0.0
 11
82.68539200000001
 21
118.420679
 31
0.0
  0
LINE
  5
159
330
A
100
AcDbEntity
  8
LAYER_1
 62
     7
100
AcDbLine
 10
82.44234099999999
 20
123.80898
 30
0.0
 11
82.44234099999999
 21
117.995382
 31
0.0
  0
LINE
  5
158
330
A
100
AcDbEntity
  8
LAYER_1
 62
     7
100
AcDbLine
 10
86.55440699999999
 20
115.192796
 30
0.0
 11
81.30787099999999
 21
115.192796
 31
0.0
  0
LINE
  5
157
330
A
100
AcDbEntity
  8
LAYER_1
 62
     7
100
AcDbLine
 10
80.72031
 20
118.420679
 30
0.0
 11
78.10720500000001
 21
118.420679
 31
0.0
  0
LINE
  5
156
330
A
100
AcDbEntity
  8
LAYER_1
 62
     7
100
AcDbLine
 10
81.8143
 20
149.676997
 30
0.0
 11
81.8143
 21
147.225983
 31
0.0
  0
LINE
  5
155
330
A
100
AcDbEntity
  8
LAYER_1
 62
     7
100
AcDbLine
 10
83.131015
 20
149.676997
 30
0.0
 11
83.131015
 21
147.225983
 31
0.0
  0
LINE
  5
154
330
A
100
AcDbEntity
  8
LAYER_1
 62
     7
100
AcDbLine
 10
85.359303
 20
120.426069
 30
0.0
 11
85.359303
 21
117.934403
 31
0.0
  0
LINE
  5
153
330
A
100
AcDbEntity
  8
LAYER_1
 62
     7
100
AcDbLine
 10
100.896339
 20
119.859006
 30
0.0
 11
100.896339
 21
114.888939
 31
0.0
  0
LINE
  5
152
330
A
100
AcDbEntity
  8
LAYER_1
 62
     7
100
AcDbLine
 10
94.920477
 20
119.980446
 30
0.0
 11
94.920477
 21
115.010551
 31
0.0
  0
LINE
  5
151
330
A
100
AcDbEntity
  8
LAYER_1
 62
     7
100
AcDbLine
 10
100.572156
 20
115.253602
 30
0.0
 11
95.32562
 21
115.253602
 31
0.0
  0
LINE
  5
150
330
A
100
AcDbEntity
  8
LAYER_1
 62
     7
100
AcDbLine
 10
85.58202900000001
 20
133.998195
 30
0.0
 11
84.528691
 21
133.998195
 31
0.0
  0
SPLINE
  5
14F
330
A
100
AcDbEntity
  8
LAYER_1
 62
     7
100
AcDbSpline
210
0.0
220
0.0
230
1.0
 70
     9
 71
     3
 72
    20
 73
    16
 74
     0
 42
0.0000000001
 43
0.0000000001
 40
0.0
 40
0.0
 40
0.0
 40
0.0
 40
1.0
 40
1.0
 40
1.0
 40
2.0
 40
2.0
 40
2.0
 40
3.0
 40
3.0
 40
3.0
 40
4.0
 40
4.0
 40
4.0
 40
5.0
 40
5.0
 40
5.0
 40
5.0
 10
83.92097574869792
 20
132.6814792209201
 30
0.0
 10
84.65030246310762
 20
132.6814792209201
 30
0.0
 10
85.23769124348957
 20
133.2690402560763
 30
0.0
 10
85.23769124348957
 20
133.9981947157118
 30
0.0
 10
85.23769124348957
 20
134.7275214301215
 30
0.0
 10
84.65030246310762
 20
135.3149102105034
 30
0.0
 10
83.92097574869792
 20
135.3149102105034
 30
0.0
 10
83.1918212890625
 20
135.3149102105034
 30
0.0
 10
82.60426025390623
 20
134.7275214301215
 30
0.0
 10
82.60426025390623
 20
133.9981947157118
 30
0.0
 10
82.60426025390623
 20
133.2690402560763
 30
0.0
 10
83.1918212890625
 20
132.6814792209201
 30
0.0
 10
83.92097574869792
 20
132.6814792209201
 30
0.0
 10
83.92097574869792
 20
132.6814792209201
 30
0.0
 10
83.92097574869792
 20
132.6814792209201
 30
0.0
 10
83.92097574869792
 20
132.6814792209201
 30
0.0
  0
LINE
  5
14E
330
A
100
AcDbEntity
  8
LAYER_1
 62
     7
100
AcDbLine
 10
83.92097599999999
 20
135.659248
 30
0.0
 11
83.92097599999999
 21
134.60591
 31
0.0
  0
LINE
  5
14D
330
A
100
AcDbEntity
  8
LAYER_1
 62
     7
100
AcDbLine
 10
82.23959699999999
 20
133.998195
 30
0.0
 11
83.29310699999998
 21
133.998195
 31
0.0
  0
LINE
  5
14C
330
A
100
AcDbEntity
  8
LAYER_1
 62
     7
100
AcDbLine
 10
83.92097599999999
 20
132.337142
 30
0.0
 11
83.92097599999999
 21
133.39048
 31
0.0
  0
POLYLINE
  5
145
330
A
100
AcDbEntity
  8
LAYER_1
 62
     7
100
AcDb2dPolyline
 66
     1
 10
0.0
 20
0.0
 30
0.0
 70
     1
  0
VERTEX
  5
146
330
145
100
AcDbEntity
  8
LAYER_1
 62
     7
100
AcDbVertex
100
AcDb2dVertex
 10
78.93781700000001
 20
119.818354
 30
0.0
  0
VERTEX
  5
147
330
145
100
AcDbEntity
  8
LAYER_1
 62
     7
100
AcDbVertex
100
AcDb2dVertex
 10
78.775726
 20
119.818354
 30
0.0
  0
VERTEX
  5
148
330
145
100
AcDbEntity
  8
LAYER_1
 62
     7
100
AcDbVertex
100
AcDb2dVertex
 10
78.93781700000001
 20
120.243823
 30
0.0
  0
VERTEX
  5
149
330
145
100
AcDbEntity
  8
LAYER_1
 62
     7
100
AcDbVertex
100
AcDb2dVertex
 10
79.099909
 20
119.818354
 30
0.0
  0
VERTEX
  5
14A
330
145
100
AcDbEntity
  8
LAYER_1
 62
     7
100
AcDbVertex
100
AcDb2dVertex
 10
78.93781700000001
 20
119.818354
 30
0.0
  0
SEQEND
  5
14B
330
145
100
AcDbEntity
  8
LAYER_1
 62
     7
  0
LINE
  5
144
330
A
100
AcDbEntity
  8
LAYER_1
 62
     7
100
AcDbLine
 10
70.95243100000001
 20
147.509687
 30
0.0
 11
80.477258
 21
147.509687
 31
0.0
  0
LINE
  5
143
330
A
100
AcDbEntity
  8
LAYER_1
 62
     7
100
AcDbLine
 10
78.93781700000001
 20
149.049128
 30
0.0
 11
78.93781700000001
 21
147.853852
 31
0.0
  0
LINE
  5
142
330
A
100
AcDbEntity
  8
LAYER_1
 62
     7
100
AcDbLine
 10
78.728183
 20
145.585084
 30
0.0
 11
84.78431699999999
 21
145.585084
 31
0.0
  0
POLYLINE
  5
13B
330
A
100
AcDbEntity
  8
LAYER_1
 62
     7
100
AcDb2dPolyline
 66
     1
 10
0.0
 20
0.0
 30
0.0
 70
     1
  0
VERTEX
  5
13C
330
13B
100
AcDbEntity
  8
LAYER_1
 62
     7
100
AcDbVertex
100
AcDb2dVertex
 10
78.93781700000001
 20
147.975464
 30
0.0
  0
VERTEX
  5
13D
330
13B
100
AcDbEntity
  8
LAYER_1
 62
     7
100
AcDbVertex
100
AcDb2dVertex
 10
79.099909
 20
147.975464
 30
0.0
  0
VERTEX
  5
13E
330
13B
100
AcDbEntity
  8
LAYER_1
 62
     7
100
AcDbVertex
100
AcDb2dVertex
 10
78.93781700000001
 20
147.529841
 30
0.0
  0
VERTEX
  5
13F
330
13B
100
AcDbEntity
  8
LAYER_1
 62
     7
100
AcDbVertex
100
AcDb2dVertex
 10
78.775726
 20
147.975464
 30
0.0
  0
VERTEX
  5
140
330
13B
100
AcDbEntity
  8
LAYER_1
 62
     7
100
AcDbVertex
100
AcDb2dVertex
 10
78.93781700000001
 20
147.975464
 30
0.0
  0
SEQEND
  5
141
330
13B
100
AcDbEntity
  8
LAYER_1
 62
     7
  0
POLYLINE
  5
134
330
A
100
AcDbEntity
  8
LAYER_1
 62
     7
100
AcDb2dPolyline
 66
     1
 10
0.0
 20
0.0
 30
0.0
 70
     1
  0
VERTEX
  5
135
330
134
100
AcDbEntity
  8
LAYER_1
 62
     7
100
AcDbVertex
100
AcDb2dVertex
 10
81.40915699999998
 20
115.192796
 30
0.0
  0
VERTEX
  5
136
330
134
100
AcDbEntity
  8
LAYER_1
 62
     7
100
AcDbVertex
100
AcDb2dVertex
 10
81.40915699999998
 20
115.030705
 30
0.0
  0
VERTEX
  5
137
330
134
100
AcDbEntity
  8
LAYER_1
 62
     7
100
AcDbVertex
100
AcDb2dVertex
 10
80.98385999999999
 20
115.192796
 30
0.0
  0
VERTEX
  5
138
330
134
100
AcDbEntity
  8
LAYER_1
 62
     7
100
AcDbVertex
100
AcDb2dVertex
 10
81.40915699999998
 20
115.354888
 30
0.0
  0
VERTEX
  5
139
330
134
100
AcDbEntity
  8
LAYER_1
 62
     7
100
AcDbVertex
100
AcDb2dVertex
 10
81.40915699999998
 20
115.192796
 30
0.0
  0
SEQEND
  5
13A
330
134
100
AcDbEntity
  8
LAYER_1
 62
     7
  0
POLYLINE
  5
12D
330
A
100
AcDbEntity
  8
LAYER_1
 62
     7
100
AcDb2dPolyline
 66
     1
 10
0.0
 20
0.0
 30
0.0
 70
     1
  0
VERTEX
  5
12E
330
12D
100
AcDbEntity
  8
LAYER_1
 62
     7
100
AcDbVertex
100
AcDb2dVertex
 10
86.45312099999999
 20
115.192796
 30
0.0
  0
VERTEX
  5
12F
330
12D
100
AcDbEntity
  8
LAYER_1
 62
     7
100
AcDbVertex
100
AcDb2dVertex
 10
86.45312099999999
 20
115.354888
 30
0.0
  0
VERTEX
  5
130
330
12D
100
AcDbEntity
  8
LAYER_1
 62
     7
100
AcDbVertex
100
AcDb2dVertex
 10
86.87859000000001
 20
115.192796
 30
0.0
  0
VERTEX
  5
131
330
12D
100
AcDbEntity
  8
LAYER_1
 62
     7
100
AcDbVertex
100
AcDb2dVertex
 10
86.45312099999999
 20
115.030705
 30
0.0
  0
VERTEX
  5
132
330
12D
100
AcDbEntity
  8
LAYER_1
 62
     7
100
AcDbVertex
100
AcDb2dVertex
 10
86.45312099999999
 20
115.192796
 30
0.0
  0
SEQEND
  5
133
330
12D
100
AcDbEntity
  8
LAYER_1
 62
     7
  0
POLYLINE
  5
126
330
A
100
AcDbEntity
  8
LAYER_1
 62
     7
100
AcDb2dPolyline
 66
     1
 10
0.0
 20
0.0
 30
0.0
 70
     1
  0
VERTEX
  5
127
330
126
100
AcDbEntity
  8
LAYER_1
 62
     7
100
AcDbVertex
100
AcDb2dVertex
 10
82.968924
 20
118.420679
 30
0.0
  0
VERTEX
  5
128
330
126
100
AcDbEntity
  8
LAYER_1
 62
     7
100
AcDbVertex
100
AcDb2dVertex
 10
82.968924
 20
118.258587
 30
0.0
  0
VERTEX
  5
129
330
126
100
AcDbEntity
  8
LAYER_1
 62
     7
100
AcDbVertex
100
AcDb2dVertex
 10
82.54362699999999
 20
118.420679
 30
0.0
  0
VERTEX
  5
12A
330
126
100
AcDbEntity
  8
LAYER_1
 62
     7
100
AcDbVertex
100
AcDb2dVertex
 10
82.968924
 20
118.58277
 30
0.0
  0
VERTEX
  5
12B
330
126
100
AcDbEntity
  8
LAYER_1
 62
     7
100
AcDbVertex
100
AcDb2dVertex
 10
82.968924
 20
118.420679
 30
0.0
  0
SEQEND
  5
12C
330
126
100
AcDbEntity
  8
LAYER_1
 62
     7
  0
POLYLINE
  5
11F
330
A
100
AcDbEntity
  8
LAYER_1
 62
     7
100
AcDb2dPolyline
 66
     1
 10
0.0
 20
0.0
 30
0.0
 70
     1
  0
VERTEX
  5
120
330
11F
100
AcDbEntity
  8
LAYER_1
 62
     7
100
AcDbVertex
100
AcDb2dVertex
 10
80.477258
 20
118.420679
 30
0.0
  0
VERTEX
  5
121
330
11F
100
AcDbEntity
  8
LAYER_1
 62
     7
100
AcDbVertex
100
AcDb2dVertex
 10
80.477258
 20
118.58277
 30
0.0
  0
VERTEX
  5
122
330
11F
100
AcDbEntity
  8
LAYER_1
 62
     7
100
AcDbVertex
100
AcDb2dVertex
 10
80.923054
 20
118.420679
 30
0.0
  0
VERTEX
  5
123
330
11F
100
AcDbEntity
  8
LAYER_1
 62
     7
100
AcDbVertex
100
AcDb2dVertex
 10
80.477258
 20
118.258587
 30
0.0
  0
VERTEX
  5
124
330
11F
100
AcDbEntity
  8
LAYER_1
 62
     7
100
AcDbVertex
100
AcDb2dVertex
 10
80.477258
 20
118.420679
 30
0.0
  0
SEQEND
  5
125
330
11F
100
AcDbEntity
  8
LAYER_1
 62
     7
  0
POLYLINE
  5
118
330
A
100
AcDbEntity
  8
LAYER_1
 62
     7
100
AcDb2dPolyline
 66
     1
 10
0.0
 20
0.0
 30
0.0
 70
     1
  0
VERTEX
  5
119
330
118
100
AcDbEntity
  8
LAYER_1
 62
     7
100
AcDbVertex
100
AcDb2dVertex
 10
95.36610000000001
 20
115.253602
 30
0.0
  0
VERTEX
  5
11A
330
118
100
AcDbEntity
  8
LAYER_1
 62
     7
100
AcDbVertex
100
AcDb2dVertex
 10
95.36610000000001
 20
115.091511
 30
0.0
  0
VERTEX
  5
11B
330
118
100
AcDbEntity
  8
LAYER_1
 62
     7
100
AcDbVertex
100
AcDb2dVertex
 10
94.940803
 20
115.253602
 30
0.0
  0
VERTEX
  5
11C
330
118
100
AcDbEntity
  8
LAYER_1
 62
     7
100
AcDbVertex
100
AcDb2dVertex
 10
95.36610000000001
 20
115.415522
 30
0.0
  0
VERTEX
  5
11D
330
118
100
AcDbEntity
  8
LAYER_1
 62
     7
100
AcDbVertex
100
AcDb2dVertex
 10
95.36610000000001
 20
115.253602
 30
0.0
  0
SEQEND
  5
11E
330
118
100
AcDbEntity
  8
LAYER_1
 62
     7
  0
POLYLINE
  5
111
330
A
100
AcDbEntity
  8
LAYER_1
 62
     7
100
AcDb2dPolyline
 66
     1
 10
0.0
 20
0.0
 30
0.0
 70
     1
  0
VERTEX
  5
112
330
111
100
AcDbEntity
  8
LAYER_1
 62
     7
100
AcDbVertex
100
AcDb2dVertex
 10
100.450716
 20
115.253602
 30
0.0
  0
VERTEX
  5
113
330
111
100
AcDbEntity
  8
LAYER_1
 62
     7
100
AcDbVertex
100
AcDb2dVertex
 10
100.450716
 20
115.415522
 30
0.0
  0
VERTEX
  5
114
330
111
100
AcDbEntity
  8
LAYER_1
 62
     7
100
AcDbVertex
100
AcDb2dVertex
 10
100.876013
 20
115.253602
 30
0.0
  0
VERTEX
  5
115
330
111
100
AcDbEntity
  8
LAYER_1
 62
     7
100
AcDbVertex
100
AcDb2dVertex
 10
100.450716
 20
115.091511
 30
0.0
  0
VERTEX
  5
116
330
111
100
AcDbEntity
  8
LAYER_1
 62
     7
100
AcDbVertex
100
AcDb2dVertex
 10
100.450716
 20
115.253602
 30
0.0
  0
SEQEND
  5
117
330
111
100
AcDbEntity
  8
LAYER_1
 62
     7
  0
LINE
  5
110
330
A
100
AcDbEntity
  8
LAYER_1
 62
     7
100
AcDbLine
 10
71.45558699999999
 20
147.063892
 30
0.0
 11
71.45558699999999
 21
120.66912
 31
0.0
  0
POLYLINE
  5
109
330
A
100
AcDbEntity
  8
LAYER_1
 62
     7
100
AcDb2dPolyline
 66
     1
 10
0.0
 20
0.0
 30
0.0
 70
     1
  0
VERTEX
  5
10A
330
109
100
AcDbEntity
  8
LAYER_1
 62
     7
100
AcDbVertex
100
AcDb2dVertex
 10
71.43526099999999
 20
120.770406
 30
0.0
  0
VERTEX
  5
10B
330
109
100
AcDbEntity
  8
LAYER_1
 62
     7
100
AcDbVertex
100
AcDb2dVertex
 10
71.59718000000001
 20
120.770406
 30
0.0
  0
VERTEX
  5
10C
330
109
100
AcDbEntity
  8
LAYER_1
 62
     7
100
AcDbVertex
100
AcDb2dVertex
 10
71.43526099999999
 20
120.345109
 30
0.0
  0
VERTEX
  5
10D
330
109
100
AcDbEntity
  8
LAYER_1
 62
     7
100
AcDbVertex
100
AcDb2dVertex
 10
71.273169
 20
120.770406
 30
0.0
  0
VERTEX
  5
10E
330
109
100
AcDbEntity
  8
LAYER_1
 62
     7
100
AcDbVertex
100
AcDb2dVertex
 10
71.43526099999999
 20
120.770406
 30
0.0
  0
SEQEND
  5
10F
330
109
100
AcDbEntity
  8
LAYER_1
 62
     7
  0
POLYLINE
  5
102
330
A
100
AcDbEntity
  8
LAYER_1
 62
     7
100
AcDb2dPolyline
 66
     1
 10
0.0
 20
0.0
 30
0.0
 70
     1
  0
VERTEX
  5
103
330
102
100
AcDbEntity
  8
LAYER_1
 62
     7
100
AcDbVertex
100
AcDb2dVertex
 10
71.43526099999999
 20
147.003258
 30
0.0
  0
VERTEX
  5
104
330
102
100
AcDbEntity
  8
LAYER_1
 62
     7
100
AcDbVertex
100
AcDb2dVertex
 10
71.273169
 20
147.003258
 30
0.0
  0
VERTEX
  5
105
330
102
100
AcDbEntity
  8
LAYER_1
 62
     7
100
AcDbVertex
100
AcDb2dVertex
 10
71.43526099999999
 20
147.428555
 30
0.0
  0
VERTEX
  5
106
330
102
100
AcDbEntity
  8
LAYER_1
 62
     7
100
AcDbVertex
100
AcDb2dVertex
 10
71.59718000000001
 20
147.003258
 30
0.0
  0
VERTEX
  5
107
330
102
100
AcDbEntity
  8
LAYER_1
 62
     7
100
AcDbVertex
100
AcDb2dVertex
 10
71.43526099999999
 20
147.003258
 30
0.0
  0
SEQEND
  5
108
330
102
100
AcDbEntity
  8
LAYER_1
 62
     7
  0
LINE
  5
101
330
A
100
AcDbEntity
  8
LAYER_1
 62
     7
100
AcDbLine
 10
90.11301800000001
 20
120.243823
 30
0.0
 11
86.97987600000001
 21
120.243823
 31
0.0
  0
LINE
  5
100
330
A
100
AcDbEntity
  8
LAYER_1
 62
     7
100
AcDbLine
 10
90.497835
 20
147.550167
 30
0.0
 11
87.202601
 21
147.550167
 31
0.0
  0
LINE
  5
FF
330
A
100
AcDbEntity
  8
LAYER_1
 62
     7
100
AcDbLine
 10
89.46465100000001
 20
147.165177
 30
0.0
 11
89.46465100000001
 21
120.689446
 31
0.0
  0
POLYLINE
  5
F8
330
A
100
AcDbEntity
  8
LAYER_1
 62
     7
100
AcDb2dPolyline
 66
     1
 10
0.0
 20
0.0
 30
0.0
 70
     1
  0
VERTEX
  5
F9
330
F8
100
AcDbEntity
  8
LAYER_1
 62
     7
100
AcDbVertex
100
AcDb2dVertex
 10
89.46465100000001
 20
120.750252
 30
0.0
  0
VERTEX
  5
FA
330
F8
100
AcDbEntity
  8
LAYER_1
 62
     7
100
AcDbVertex
100
AcDb2dVertex
 10
89.302732
 20
120.750252
 30
0.0
  0
VERTEX
  5
FB
330
F8
100
AcDbEntity
  8
LAYER_1
 62
     7
100
AcDbVertex
100
AcDb2dVertex
 10
89.46465100000001
 20
120.324783
 30
0.0
  0
VERTEX
  5
FC
330
F8
100
AcDbEntity
  8
LAYER_1
 62
     7
100
AcDbVertex
100
AcDb2dVertex
 10
89.626915
 20
120.750252
 30
0.0
  0
VERTEX
  5
FD
330
F8
100
AcDbEntity
  8
LAYER_1
 62
     7
100
AcDbVertex
100
AcDb2dVertex
 10
89.46465100000001
 20
120.750252
 30
0.0
  0
SEQEND
  5
FE
330
F8
100
AcDbEntity
  8
LAYER_1
 62
     7
  0
POLYLINE
  5
F1
330
A
100
AcDbEntity
  8
LAYER_1
 62
     7
100
AcDb2dPolyline
 66
     1
 10
0.0
 20
0.0
 30
0.0
 70
     1
  0
VERTEX
  5
F2
330
F1
100
AcDbEntity
  8
LAYER_1
 62
     7
100
AcDbVertex
100
AcDb2dVertex
 10
89.46465100000001
 20
147.023412
 30
0.0
  0
VERTEX
  5
F3
330
F1
100
AcDbEntity
  8
LAYER_1
 62
     7
100
AcDbVertex
100
AcDb2dVertex
 10
89.626915
 20
147.023412
 30
0.0
  0
VERTEX
  5
F4
330
F1
100
AcDbEntity
  8
LAYER_1
 62
     7
100
AcDbVertex
100
AcDb2dVertex
 10
89.46465100000001
 20
147.469035
 30
0.0
  0
VERTEX
  5
F5
330
F1
100
AcDbEntity
  8
LAYER_1
 62
     7
100
AcDbVertex
100
AcDb2dVertex
 10
89.302732
 20
147.023412
 30
0.0
  0
VERTEX
  5
F6
330
F1
100
AcDbEntity
  8
LAYER_1
 62
     7
100
AcDbVertex
100
AcDb2dVertex
 10
89.46465100000001
 20
147.023412
 30
0.0
  0
SEQEND
  5
F7
330
F1
100
AcDbEntity
  8
LAYER_1
 62
     7
  0
LINE
  5
F0
330
A
100
AcDbEntity
  8
LAYER_1
 62
     7
100
AcDbLine
 10
90.497835
 20
134.038847
 30
0.0
 11
85.70364000000001
 21
134.038847
 31
0.0
  0
POLYLINE
  5
E9
330
A
100
AcDbEntity
  8
LAYER_1
 62
     7
100
AcDb2dPolyline
 66
     1
 10
0.0
 20
0.0
 30
0.0
 70
     1
  0
VERTEX
  5
EA
330
E9
100
AcDbEntity
  8
LAYER_1
 62
     7
100
AcDbVertex
100
AcDb2dVertex
 10
89.404017
 20
133.552572
 30
0.0
  0
VERTEX
  5
EB
330
E9
100
AcDbEntity
  8
LAYER_1
 62
     7
100
AcDbVertex
100
AcDb2dVertex
 10
89.56610899999999
 20
133.552572
 30
0.0
  0
VERTEX
  5
EC
330
E9
100
AcDbEntity
  8
LAYER_1
 62
     7
100
AcDbVertex
100
AcDb2dVertex
 10
89.404017
 20
133.977869
 30
0.0
  0
VERTEX
  5
ED
330
E9
100
AcDbEntity
  8
LAYER_1
 62
     7
100
AcDbVertex
100
AcDb2dVertex
 10
89.24192600000001
 20
133.552572
 30
0.0
  0
VERTEX
  5
EE
330
E9
100
AcDbEntity
  8
LAYER_1
 62
     7
100
AcDbVertex
100
AcDb2dVertex
 10
89.404017
 20
133.552572
 30
0.0
  0
SEQEND
  5
EF
330
E9
100
AcDbEntity
  8
LAYER_1
 62
     7
  0
POLYLINE
  5
E2
330
A
100
AcDbEntity
  8
LAYER_1
 62
     7
100
AcDb2dPolyline
 66
     1
 10
0.0
 20
0.0
 30
0.0
 70
     1
  0
VERTEX
  5
E3
330
E2
100
AcDbEntity
  8
LAYER_1
 62
     7
100
AcDbVertex
100
AcDb2dVertex
 10
89.46465100000001
 20
134.545104
 30
0.0
  0
VERTEX
  5
E4
330
E2
100
AcDbEntity
  8
LAYER_1
 62
     7
100
AcDbVertex
100
AcDb2dVertex
 10
89.302732
 20
134.545104
 30
0.0
  0
VERTEX
  5
E5
330
E2
100
AcDbEntity
  8
LAYER_1
 62
     7
100
AcDbVertex
100
AcDb2dVertex
 10
89.46465100000001
 20
134.119807
 30
0.0
  0
VERTEX
  5
E6
330
E2
100
AcDbEntity
  8
LAYER_1
 62
     7
100
AcDbVertex
100
AcDb2dVertex
 10
89.626915
 20
134.545104
 30
0.0
  0
VERTEX
  5
E7
330
E2
100
AcDbEntity
  8
LAYER_1
 62
     7
100
AcDbVertex
100
AcDb2dVertex
 10
89.46465100000001
 20
134.545104
 30
0.0
  0
SEQEND
  5
E8
330
E2
100
AcDbEntity
  8
LAYER_1
 62
     7
  0
POLYLINE
  5
DB
330
A
100
AcDbEntity
  8
LAYER_1
 62
     7
100
AcDb2dPolyline
 66
     1
 10
0.0
 20
0.0
 30
0.0
 70
     1
  0
VERTEX
  5
DC
330
DB
100
AcDbEntity
  8
LAYER_1
 62
     7
100
AcDbVertex
100
AcDb2dVertex
 10
83.15116899999999
 20
146.9018
 30
0.0
  0
VERTEX
  5
DD
330
DB
100
AcDbEntity
  8
LAYER_1
 62
     7
100
AcDbVertex
100
AcDb2dVertex
 10
81.793974
 20
146.9018
 30
0.0
  0
VERTEX
  5
DE
330
DB
100
AcDbEntity
  8
LAYER_1
 62
     7
100
AcDbVertex
100
AcDb2dVertex
 10
81.793974
 20
144.248215
 30
0.0
  0
VERTEX
  5
DF
330
DB
100
AcDbEntity
  8
LAYER_1
 62
     7
100
AcDbVertex
100
AcDb2dVertex
 10
83.15116899999999
 20
144.248215
 30
0.0
  0
VERTEX
  5
E0
330
DB
100
AcDbEntity
  8
LAYER_1
 62
     7
100
AcDbVertex
100
AcDb2dVertex
 10
83.15116899999999
 20
146.9018
 30
0.0
  0
SEQEND
  5
E1
330
DB
100
AcDbEntity
  8
LAYER_1
 62
     7
  0
POLYLINE
  5
D4
330
A
100
AcDbEntity
  8
LAYER_1
 62
     7
100
AcDb2dPolyline
 66
     1
 10
0.0
 20
0.0
 30
0.0
 70
     1
  0
VERTEX
  5
D5
330
D4
100
AcDbEntity
  8
LAYER_1
 62
     7
100
AcDbVertex
100
AcDb2dVertex
 10
83.090363
 20
123.505123
 30
0.0
  0
VERTEX
  5
D6
330
D4
100
AcDbEntity
  8
LAYER_1
 62
     7
100
AcDbVertex
100
AcDb2dVertex
 10
81.713014
 20
123.505123
 30
0.0
  0
VERTEX
  5
D7
330
D4
100
AcDbEntity
  8
LAYER_1
 62
     7
100
AcDbVertex
100
AcDb2dVertex
 10
81.713014
 20
120.790732
 30
0.0
  0
VERTEX
  5
D8
330
D4
100
AcDbEntity
  8
LAYER_1
 62
     7
100
AcDbVertex
100
AcDb2dVertex
 10
83.090363
 20
120.790732
 30
0.0
  0
VERTEX
  5
D9
330
D4
100
AcDbEntity
  8
LAYER_1
 62
     7
100
AcDbVertex
100
AcDb2dVertex
 10
83.090363
 20
123.505123
 30
0.0
  0
SEQEND
  5
DA
330
D4
100
AcDbEntity
  8
LAYER_1
 62
     7
  0
POLYLINE
  5
CD
330
A
100
AcDbEntity
  8
LAYER_1
 62
     7
100
AcDb2dPolyline
 66
     1
 10
0.0
 20
0.0
 30
0.0
 70
     1
  0
VERTEX
  5
CE
330
CD
100
AcDbEntity
  8
LAYER_1
 62
     7
100
AcDbVertex
100
AcDb2dVertex
 10
99.98476700000001
 20
146.962606
 30
0.0
  0
VERTEX
  5
CF
330
CD
100
AcDbEntity
  8
LAYER_1
 62
     7
100
AcDbVertex
100
AcDb2dVertex
 10
98.62739900000001
 20
146.962606
 30
0.0
  0
VERTEX
  5
D0
330
CD
100
AcDbEntity
  8
LAYER_1
 62
     7
100
AcDbVertex
100
AcDb2dVertex
 10
98.62739900000001
 20
144.248215
 30
0.0
  0
VERTEX
  5
D1
330
CD
100
AcDbEntity
  8
LAYER_1
 62
     7
100
AcDbVertex
100
AcDb2dVertex
 10
99.98476700000001
 20
144.248215
 30
0.0
  0
VERTEX
  5
D2
330
CD
100
AcDbEntity
  8
LAYER_1
 62
     7
100
AcDbVertex
100
AcDb2dVertex
 10
99.98476700000001
 20
146.962606
 30
0.0
  0
SEQEND
  5
D3
330
CD
100
AcDbEntity
  8
LAYER_1
 62
     7
  0
POLYLINE
  5
C6
330
A
100
AcDbEntity
  8
LAYER_1
 62
     7
100
AcDb2dPolyline
 66
     1
 10
0.0
 20
0.0
 30
0.0
 70
     1
  0
VERTEX
  5
C7
330
C6
100
AcDbEntity
  8
LAYER_1
 62
     7
100
AcDbVertex
100
AcDb2dVertex
 10
99.98476700000001
 20
123.565929
 30
0.0
  0
VERTEX
  5
C8
330
C6
100
AcDbEntity
  8
LAYER_1
 62
     7
100
AcDbVertex
100
AcDb2dVertex
 10
98.62739900000001
 20
123.565929
 30
0.0
  0
VERTEX
  5
C9
330
C6
100
AcDbEntity
  8
LAYER_1
 62
     7
100
AcDbVertex
100
AcDb2dVertex
 10
98.62739900000001
 20
120.851538
 30
0.0
  0
VERTEX
  5
CA
330
C6
100
AcDbEntity
  8
LAYER_1
 62
     7
100
AcDbVertex
100
AcDb2dVertex
 10
99.98476700000001
 20
120.851538
 30
0.0
  0
VERTEX
  5
CB
330
C6
100
AcDbEntity
  8
LAYER_1
 62
     7
100
AcDbVertex
100
AcDb2dVertex
 10
99.98476700000001
 20
123.565929
 30
0.0
  0
SEQEND
  5
CC
330
C6
100
AcDbEntity
  8
LAYER_1
 62
     7
  0
SPLINE
  5
C5
330
A
100
AcDbEntity
  8
LAYER_1
 62
     7
100
AcDbSpline
210
0.0
220
0.0
230
1.0
 70
     8
 71
     3
 72
    14
 73
    10
 74
     0
 42
0.0000000001
 43
0.0000000001
 40
0.0
 40
0.0
 40
0.0
 40
0.0
 40
1.0
 40
1.0
 40
1.0
 40
2.0
 40
2.0
 40
2.0
 40
3.0
 40
3.0
 40
3.0
 40
3.0
 10
84.46788465711806
 20
120.2639770507812
 30
0.0
 10
84.46788465711806
 20
120.2639770507812
 30
0.0
 10
84.20450710720484
 20
120.405914984809
 30
0.0
 10
84.20450710720484
 20
120.5881605360243
 30
0.0
 10
84.20450710720484
 20
121.1350694444444
 30
0.0
 10
84.20450710720484
 20
123.7886542426215
 30
0.0
 10
84.20450710720484
 20
123.9913981119791
 30
0.0
 10
84.20450710720484
 20
124.2749294704861
 30
0.0
 10
83.92097574869792
 20
124.3154093424479
 30
0.0
 10
83.92097574869792
 20
124.3154093424479
 30
0.0
  0
SPLINE
  5
C4
330
A
100
AcDbEntity
  8
LAYER_1
 62
     7
100
AcDbSpline
210
0.0
220
0.0
230
1.0
 70
     8
 71
     3
 72
    14
 73
    10
 74
     0
 42
0.0000000001
 43
0.0000000001
 40
0.0
 40
0.0
 40
0.0
 40
0.0
 40
1.0
 40
1.0
 40
1.0
 40
2.0
 40
2.0
 40
2.0
 40
3.0
 40
3.0
 40
3.0
 40
3.0
 10
97.27020399305557
 20
120.2639770507812
 30
0.0
 10
97.27020399305557
 20
120.2639770507812
 30
0.0
 10
97.53375379774306
 20
120.405914984809
 30
0.0
 10
97.53375379774306
 20
120.5881605360243
 30
0.0
 10
97.53375379774306
 20
121.1350694444444
 30
0.0
 10
97.53375379774306
 20
123.7886542426215
 30
0.0
 10
97.53375379774306
 20
123.9913981119791
 30
0.0
 10
97.53375379774306
 20
124.2749294704861
 30
0.0
 10
97.81728515624999
 20
124.3154093424479
 30
0.0
 10
97.81728515624999
 20
124.3154093424479
 30
0.0
  0
SPLINE
  5
C3
330
A
100
AcDbEntity
  8
LAYER_1
 62
     7
100
AcDbSpline
210
0.0
220
0.0
230
1.0
 70
     8
 71
     3
 72
    14
 73
    10
 74
     0
 42
0.0000000001
 43
0.0000000001
 40
0.0
 40
0.0
 40
0.0
 40
0.0
 40
1.0
 40
1.0
 40
1.0
 40
2.0
 40
2.0
 40
2.0
 40
3.0
 40
3.0
 40
3.0
 40
3.0
 10
97.75647922092012
 20
143.4379286024305
 30
0.0
 10
97.75647922092012
 20
143.4379286024305
 30
0.0
 10
97.49310167100695
 20
143.5593682183159
 30
0.0
 10
97.49310167100695
 20
143.7621120876736
 30
0.0
 10
97.49310167100695
 20
144.3090209960937
 30
0.0
 10
97.49310167100695
 20
146.9626057942708
 30
0.0
 10
97.49310167100695
 20
147.1651774088542
 30
0.0
 10
97.49310167100695
 20
147.4487087673611
 30
0.0
 10
97.20957031250001
 20
147.4891886393228
 30
0.0
 10
97.20957031250001
 20
147.4891886393228
 30
0.0
  0
SPLINE
  5
C2
330
A
100
AcDbEntity
  8
LAYER_1
 62
     7
100
AcDbSpline
210
0.0
220
0.0
230
1.0
 70
     8
 71
     3
 72
    14
 73
    10
 74
     0
 42
0.0000000001
 43
0.0000000001
 40
0.0
 40
0.0
 40
0.0
 40
0.0
 40
1.0
 40
1.0
 40
1.0
 40
2.0
 40
2.0
 40
2.0
 40
3.0
 40
3.0
 40
3.0
 40
3.0
 10
83.98178168402777
 20
143.4379286024305
 30
0.0
 10
83.98178168402777
 20
143.4379286024305
 30
0.0
 10
84.24515923394094
 20
143.5593682183159
 30
0.0
 10
84.24515923394094
 20
143.7621120876736
 30
0.0
 10
84.24515923394094
 20
144.3090209960937
 30
0.0
 10
84.24515923394094
 20
146.9626057942708
 30
0.0
 10
84.24515923394094
 20
147.1651774088542
 30
0.0
 10
84.24515923394094
 20
147.4487087673611
 30
0.0
 10
84.52869059244791
 20
147.4891886393228
 30
0.0
 10
84.52869059244791
 20
147.4891886393228
 30
0.0
  0
LINE
  5
C1
330
A
100
AcDbEntity
  8
LAYER_1
 62
     7
100
AcDbLine
 10
89.02574599999999
 20
118.420679
 30
0.0
 11
87.12164200000001
 21
118.420679
 31
0.0
  0
LINE
  5
C0
330
A
100
AcDbEntity
  8
LAYER_1
 62
     7
100
AcDbLine
 10
85.156731
 20
118.420679
 30
0.0
 11
84.083067
 21
118.420679
 31
0.0
  0
POLYLINE
  5
B9
330
A
100
AcDbEntity
  8
LAYER_1
 62
     7
100
AcDb2dPolyline
 66
     1
 10
0.0
 20
0.0
 30
0.0
 70
     1
  0
VERTEX
  5
BA
330
B9
100
AcDbEntity
  8
LAYER_1
 62
     7
100
AcDbVertex
100
AcDb2dVertex
 10
87.405173
 20
118.420679
 30
0.0
  0
VERTEX
  5
BB
330
B9
100
AcDbEntity
  8
LAYER_1
 62
     7
100
AcDbVertex
100
AcDb2dVertex
 10
87.405173
 20
118.258587
 30
0.0
  0
VERTEX
  5
BC
330
B9
100
AcDbEntity
  8
LAYER_1
 62
     7
100
AcDbVertex
100
AcDb2dVertex
 10
86.97987600000001
 20
118.420679
 30
0.0
  0
VERTEX
  5
BD
330
B9
100
AcDbEntity
  8
LAYER_1
 62
     7
100
AcDbVertex
100
AcDb2dVertex
 10
87.405173
 20
118.58277
 30
0.0
  0
VERTEX
  5
BE
330
B9
100
AcDbEntity
  8
LAYER_1
 62
     7
100
AcDbVertex
100
AcDb2dVertex
 10
87.405173
 20
118.420679
 30
0.0
  0
SEQEND
  5
BF
330
B9
100
AcDbEntity
  8
LAYER_1
 62
     7
  0
POLYLINE
  5
B2
330
A
100
AcDbEntity
  8
LAYER_1
 62
     7
100
AcDb2dPolyline
 66
     1
 10
0.0
 20
0.0
 30
0.0
 70
     1
  0
VERTEX
  5
B3
330
B2
100
AcDbEntity
  8
LAYER_1
 62
     7
100
AcDbVertex
100
AcDb2dVertex
 10
84.91350799999999
 20
118.420679
 30
0.0
  0
VERTEX
  5
B4
330
B2
100
AcDbEntity
  8
LAYER_1
 62
     7
100
AcDbVertex
100
AcDb2dVertex
 10
84.91350799999999
 20
118.58277
 30
0.0
  0
VERTEX
  5
B5
330
B2
100
AcDbEntity
  8
LAYER_1
 62
     7
100
AcDbVertex
100
AcDb2dVertex
 10
85.338977
 20
118.420679
 30
0.0
  0
VERTEX
  5
B6
330
B2
100
AcDbEntity
  8
LAYER_1
 62
     7
100
AcDbVertex
100
AcDb2dVertex
 10
84.91350799999999
 20
118.258587
 30
0.0
  0
VERTEX
  5
B7
330
B2
100
AcDbEntity
  8
LAYER_1
 62
     7
100
AcDbVertex
100
AcDb2dVertex
 10
84.91350799999999
 20
118.420679
 30
0.0
  0
SEQEND
  5
B8
330
B2
100
AcDbEntity
  8
LAYER_1
 62
     7
  0
LINE
  5
B1
330
A
100
AcDbEntity
  8
LAYER_1
 62
     7
100
AcDbLine
 10
97.857765
 20
149.494751
 30
0.0
 11
98.749183
 21
149.494751
 31
0.0
  0
LINE
  5
B0
330
A
100
AcDbEntity
  8
LAYER_1
 62
     7
100
AcDbLine
 10
99.29609200000001
 20
149.676997
 30
0.0
 11
99.29609200000001
 21
143.883552
 31
0.0
  0
LINE
  5
AF
330
A
100
AcDbEntity
  8
LAYER_1
 62
     7
100
AcDbLine
 10
100.916493
 20
149.676997
 30
0.0
 11
100.916493
 21
147.225983
 31
0.0
  0
LINE
  5
AE
330
A
100
AcDbEntity
  8
LAYER_1
 62
     7
100
AcDbLine
 10
101.422922
 20
149.494751
 30
0.0
 11
104.036027
 21
149.494751
 31
0.0
  0
POLYLINE
  5
A7
330
A
100
AcDbEntity
  8
LAYER_1
 62
     7
100
AcDb2dPolyline
 66
     1
 10
0.0
 20
0.0
 30
0.0
 70
     1
  0
VERTEX
  5
A8
330
A7
100
AcDbEntity
  8
LAYER_1
 62
     7
100
AcDbVertex
100
AcDb2dVertex
 10
101.503882
 20
149.494751
 30
0.0
  0
VERTEX
  5
A9
330
A7
100
AcDbEntity
  8
LAYER_1
 62
     7
100
AcDbVertex
100
AcDb2dVertex
 10
101.503882
 20
149.332659
 30
0.0
  0
VERTEX
  5
AA
330
A7
100
AcDbEntity
  8
LAYER_1
 62
     7
100
AcDbVertex
100
AcDb2dVertex
 10
101.078585
 20
149.494751
 30
0.0
  0
VERTEX
  5
AB
330
A7
100
AcDbEntity
  8
LAYER_1
 62
     7
100
AcDbVertex
100
AcDb2dVertex
 10
101.503882
 20
149.656843
 30
0.0
  0
VERTEX
  5
AC
330
A7
100
AcDbEntity
  8
LAYER_1
 62
     7
100
AcDbVertex
100
AcDb2dVertex
 10
101.503882
 20
149.494751
 30
0.0
  0
SEQEND
  5
AD
330
A7
100
AcDbEntity
  8
LAYER_1
 62
     7
  0
POLYLINE
  5
A0
330
A
100
AcDbEntity
  8
LAYER_1
 62
     7
100
AcDb2dPolyline
 66
     1
 10
0.0
 20
0.0
 30
0.0
 70
     1
  0
VERTEX
  5
A1
330
A0
100
AcDbEntity
  8
LAYER_1
 62
     7
100
AcDbVertex
100
AcDb2dVertex
 10
98.647725
 20
149.494751
 30
0.0
  0
VERTEX
  5
A2
330
A0
100
AcDbEntity
  8
LAYER_1
 62
     7
100
AcDbVertex
100
AcDb2dVertex
 10
98.647725
 20
149.656843
 30
0.0
  0
VERTEX
  5
A3
330
A0
100
AcDbEntity
  8
LAYER_1
 62
     7
100
AcDbVertex
100
AcDb2dVertex
 10
99.07319499999999
 20
149.494751
 30
0.0
  0
VERTEX
  5
A4
330
A0
100
AcDbEntity
  8
LAYER_1
 62
     7
100
AcDbVertex
100
AcDb2dVertex
 10
98.647725
 20
149.332659
 30
0.0
  0
VERTEX
  5
A5
330
A0
100
AcDbEntity
  8
LAYER_1
 62
     7
100
AcDbVertex
100
AcDb2dVertex
 10
98.647725
 20
149.494751
 30
0.0
  0
SEQEND
  5
A6
330
A0
100
AcDbEntity
  8
LAYER_1
 62
     7
  0
LINE
  5
9F
330
A
100
AcDbEntity
  8
LAYER_1
 62
     7
100
AcDbLine
 10
99.64043000000001
 20
133.998195
 30
0.0
 11
98.58709199999999
 21
133.998195
 31
0.0
  0
SPLINE
  5
9E
330
A
100
AcDbEntity
  8
LAYER_1
 62
     7
100
AcDbSpline
210
0.0
220
0.0
230
1.0
 70
     9
 71
     3
 72
    20
 73
    16
 74
     0
 42
0.0000000001
 43
0.0000000001
 40
0.0
 40
0.0
 40
0.0
 40
0.0
 40
1.0
 40
1.0
 40
1.0
 40
2.0
 40
2.0
 40
2.0
 40
3.0
 40
3.0
 40
3.0
 40
4.0
 40
4.0
 40
4.0
 40
5.0
 40
5.0
 40
5.0
 40
5.0
 10
97.97937689887152
 20
132.6814792209201
 30
0.0
 10
98.70853135850694
 20
132.6814792209201
 30
0.0
 10
99.29609239366321
 20
133.2690402560763
 30
0.0
 10
99.29609239366321
 20
133.9981947157118
 30
0.0
 10
99.29609239366321
 20
134.7275214301215
 30
0.0
 10
98.70853135850694
 20
135.3149102105034
 30
0.0
 10
97.97937689887152
 20
135.3149102105034
 30
0.0
 10
97.2500501844618
 20
135.3149102105034
 30
0.0
 10
96.64233534071181
 20
134.7275214301215
 30
0.0
 10
96.64233534071181
 20
133.9981947157118
 30
0.0
 10
96.64233534071181
 20
133.2690402560763
 30
0.0
 10
97.2500501844618
 20
132.6814792209201
 30
0.0
 10
97.97937689887152
 20
132.6814792209201
 30
0.0
 10
97.97937689887152
 20
132.6814792209201
 30
0.0
 10
97.97937689887152
 20
132.6814792209201
 30
0.0
 10
97.97937689887152
 20
132.6814792209201
 30
0.0
  0
LINE
  5
9D
330
A
100
AcDbEntity
  8
LAYER_1
 62
     7
100
AcDbLine
 10
97.979377
 20
135.659248
 30
0.0
 11
97.979377
 21
134.60591
 31
0.0
  0
LINE
  5
9C
330
A
100
AcDbEntity
  8
LAYER_1
 62
     7
100
AcDbLine
 10
96.297998
 20
133.998195
 30
0.0
 11
97.35133600000001
 21
133.998195
 31
0.0
  0
LINE
  5
9B
330
A
100
AcDbEntity
  8
LAYER_1
 62
     7
100
AcDbLine
 10
97.979377
 20
132.337142
 30
0.0
 11
97.979377
 21
133.39048
 31
0.0
  0
LINE
  5
9A
330
A
100
AcDbEntity
  8
LAYER_1
 62
     7
100
AcDbLine
 10
101.200197
 20
147.509687
 30
0.0
 11
104.157639
 21
147.509687
 31
0.0
  0
LINE
  5
99
330
A
100
AcDbEntity
  8
LAYER_1
 62
     7
100
AcDbLine
 10
102.618026
 20
149.008648
 30
0.0
 11
102.618026
 21
147.853852
 31
0.0
  0
LINE
  5
98
330
A
100
AcDbEntity
  8
LAYER_1
 62
     7
100
AcDbLine
 10
98.283062
 20
145.585084
 30
0.0
 11
103.52977
 21
145.585084
 31
0.0
  0
POLYLINE
  5
91
330
A
100
AcDbEntity
  8
LAYER_1
 62
     7
100
AcDb2dPolyline
 66
     1
 10
0.0
 20
0.0
 30
0.0
 70
     1
  0
VERTEX
  5
92
330
91
100
AcDbEntity
  8
LAYER_1
 62
     7
100
AcDbVertex
100
AcDb2dVertex
 10
102.597872
 20
147.975464
 30
0.0
  0
VERTEX
  5
93
330
91
100
AcDbEntity
  8
LAYER_1
 62
     7
100
AcDbVertex
100
AcDb2dVertex
 10
102.759964
 20
147.975464
 30
0.0
  0
VERTEX
  5
94
330
91
100
AcDbEntity
  8
LAYER_1
 62
     7
100
AcDbVertex
100
AcDb2dVertex
 10
102.597872
 20
147.529841
 30
0.0
  0
VERTEX
  5
95
330
91
100
AcDbEntity
  8
LAYER_1
 62
     7
100
AcDbVertex
100
AcDb2dVertex
 10
102.43578
 20
147.975464
 30
0.0
  0
VERTEX
  5
96
330
91
100
AcDbEntity
  8
LAYER_1
 62
     7
100
AcDbVertex
100
AcDb2dVertex
 10
102.597872
 20
147.975464
 30
0.0
  0
SEQEND
  5
97
330
91
100
AcDbEntity
  8
LAYER_1
 62
     7
  0
POLYLINE
  5
8A
330
A
100
AcDbEntity
  8
LAYER_1
 62
     7
100
AcDb2dPolyline
 66
     1
 10
0.0
 20
0.0
 30
0.0
 70
     1
  0
VERTEX
  5
8B
330
8A
100
AcDbEntity
  8
LAYER_1
 62
     7
100
AcDbVertex
100
AcDb2dVertex
 10
102.658678
 20
145.139461
 30
0.0
  0
VERTEX
  5
8C
330
8A
100
AcDbEntity
  8
LAYER_1
 62
     7
100
AcDbVertex
100
AcDb2dVertex
 10
102.840923
 20
145.139461
 30
0.0
  0
VERTEX
  5
8D
330
8A
100
AcDbEntity
  8
LAYER_1
 62
     7
100
AcDbVertex
100
AcDb2dVertex
 10
102.658678
 20
145.564931
 30
0.0
  0
VERTEX
  5
8E
330
8A
100
AcDbEntity
  8
LAYER_1
 62
     7
100
AcDbVertex
100
AcDb2dVertex
 10
102.496586
 20
145.139461
 30
0.0
  0
VERTEX
  5
8F
330
8A
100
AcDbEntity
  8
LAYER_1
 62
     7
100
AcDbVertex
100
AcDb2dVertex
 10
102.658678
 20
145.139461
 30
0.0
  0
SEQEND
  5
90
330
8A
100
AcDbEntity
  8
LAYER_1
 62
     7
  0
LINE
  5
89
330
A
100
AcDbEntity
  8
LAYER_1
 62
     7
100
AcDbLine
 10
102.678832
 20
145.220593
 30
0.0
 11
102.678832
 21
144.126775
 31
0.0
  0
LINE
  5
88
330
A
100
AcDbEntity
  8
LAYER_1
 62
     7
100
AcDbLine
 10
97.99953100000001
 20
122.188407
 30
0.0
 11
104.096833
 21
122.188407
 31
0.0
  0
LINE
  5
87
330
A
100
AcDbEntity
  8
LAYER_1
 62
     7
100
AcDbLine
 10
102.537066
 20
123.302551
 30
0.0
 11
102.537066
 21
122.532745
 31
0.0
  0
LINE
  5
86
330
A
100
AcDbEntity
  8
LAYER_1
 62
     7
100
AcDbLine
 10
100.977299
 20
120.263977
 30
0.0
 11
103.448638
 21
120.263977
 31
0.0
  0
POLYLINE
  5
7F
330
A
100
AcDbEntity
  8
LAYER_1
 62
     7
100
AcDb2dPolyline
 66
     1
 10
0.0
 20
0.0
 30
0.0
 70
     1
  0
VERTEX
  5
80
330
7F
100
AcDbEntity
  8
LAYER_1
 62
     7
100
AcDbVertex
100
AcDb2dVertex
 10
102.537066
 20
122.654357
 30
0.0
  0
VERTEX
  5
81
330
7F
100
AcDbEntity
  8
LAYER_1
 62
     7
100
AcDbVertex
100
AcDb2dVertex
 10
102.699158
 20
122.654357
 30
0.0
  0
VERTEX
  5
82
330
7F
100
AcDbEntity
  8
LAYER_1
 62
     7
100
AcDbVertex
100
AcDb2dVertex
 10
102.537066
 20
122.208733
 30
0.0
  0
VERTEX
  5
83
330
7F
100
AcDbEntity
  8
LAYER_1
 62
     7
100
AcDbVertex
100
AcDb2dVertex
 10
102.374974
 20
122.654357
 30
0.0
  0
VERTEX
  5
84
330
7F
100
AcDbEntity
  8
LAYER_1
 62
     7
100
AcDbVertex
100
AcDb2dVertex
 10
102.537066
 20
122.654357
 30
0.0
  0
SEQEND
  5
85
330
7F
100
AcDbEntity
  8
LAYER_1
 62
     7
  0
POLYLINE
  5
78
330
A
100
AcDbEntity
  8
LAYER_1
 62
     7
100
AcDb2dPolyline
 66
     1
 10
0.0
 20
0.0
 30
0.0
 70
     1
  0
VERTEX
  5
79
330
78
100
AcDbEntity
  8
LAYER_1
 62
     7
100
AcDbVertex
100
AcDb2dVertex
 10
102.597872
 20
119.818354
 30
0.0
  0
VERTEX
  5
7A
330
78
100
AcDbEntity
  8
LAYER_1
 62
     7
100
AcDbVertex
100
AcDb2dVertex
 10
102.759964
 20
119.818354
 30
0.0
  0
VERTEX
  5
7B
330
78
100
AcDbEntity
  8
LAYER_1
 62
     7
100
AcDbVertex
100
AcDb2dVertex
 10
102.597872
 20
120.243823
 30
0.0
  0
VERTEX
  5
7C
330
78
100
AcDbEntity
  8
LAYER_1
 62
     7
100
AcDbVertex
100
AcDb2dVertex
 10
102.43578
 20
119.818354
 30
0.0
  0
VERTEX
  5
7D
330
78
100
AcDbEntity
  8
LAYER_1
 62
     7
100
AcDbVertex
100
AcDb2dVertex
 10
102.597872
 20
119.818354
 30
0.0
  0
SEQEND
  5
7E
330
78
100
AcDbEntity
  8
LAYER_1
 62
     7
  0
LINE
  5
77
330
A
100
AcDbEntity
  8
LAYER_1
 62
     7
100
AcDbLine
 10
102.618026
 20
119.899486
 30
0.0
 11
102.618026
 21
119.109353
 31
0.0
  0
LINE
  5
76
330
A
100
AcDbEntity
  8
LAYER_1
 62
     7
100
AcDbLine
 10
96.41961
 20
119.859006
 30
0.0
 11
96.41961
 21
117.468627
 31
0.0
  0
LINE
  5
75
330
A
100
AcDbEntity
  8
LAYER_1
 62
     7
100
AcDbLine
 10
97.857765
 20
118.420679
 30
0.0
 11
96.601855
 21
118.420679
 31
0.0
  0
POLYLINE
  5
6E
330
A
100
AcDbEntity
  8
LAYER_1
 62
     7
100
AcDb2dPolyline
 66
     1
 10
0.0
 20
0.0
 30
0.0
 70
     1
  0
VERTEX
  5
6F
330
6E
100
AcDbEntity
  8
LAYER_1
 62
     7
100
AcDbVertex
100
AcDb2dVertex
 10
96.90571300000001
 20
118.420679
 30
0.0
  0
VERTEX
  5
70
330
6E
100
AcDbEntity
  8
LAYER_1
 62
     7
100
AcDbVertex
100
AcDb2dVertex
 10
96.90571300000001
 20
118.258587
 30
0.0
  0
VERTEX
  5
71
330
6E
100
AcDbEntity
  8
LAYER_1
 62
     7
100
AcDbVertex
100
AcDb2dVertex
 10
96.480244
 20
118.420679
 30
0.0
  0
VERTEX
  5
72
330
6E
100
AcDbEntity
  8
LAYER_1
 62
     7
100
AcDbVertex
100
AcDb2dVertex
 10
96.90571300000001
 20
118.58277
 30
0.0
  0
VERTEX
  5
73
330
6E
100
AcDbEntity
  8
LAYER_1
 62
     7
100
AcDbVertex
100
AcDb2dVertex
 10
96.90571300000001
 20
118.420679
 30
0.0
  0
SEQEND
  5
74
330
6E
100
AcDbEntity
  8
LAYER_1
 62
     7
  0
LINE
  5
6D
330
A
100
AcDbEntity
  8
LAYER_1
 62
     7
100
AcDbLine
 10
94.69775099999999
 20
118.420679
 30
0.0
 11
92.692189
 21
118.420679
 31
0.0
  0
POLYLINE
  5
66
330
A
100
AcDbEntity
  8
LAYER_1
 62
     7
100
AcDb2dPolyline
 66
     1
 10
0.0
 20
0.0
 30
0.0
 70
     1
  0
VERTEX
  5
67
330
66
100
AcDbEntity
  8
LAYER_1
 62
     7
100
AcDbVertex
100
AcDb2dVertex
 10
94.454527
 20
118.420679
 30
0.0
  0
VERTEX
  5
68
330
66
100
AcDbEntity
  8
LAYER_1
 62
     7
100
AcDbVertex
100
AcDb2dVertex
 10
94.454527
 20
118.58277
 30
0.0
  0
VERTEX
  5
69
330
66
100
AcDbEntity
  8
LAYER_1
 62
     7
100
AcDbVertex
100
AcDb2dVertex
 10
94.90032300000001
 20
118.420679
 30
0.0
  0
VERTEX
  5
6A
330
66
100
AcDbEntity
  8
LAYER_1
 62
     7
100
AcDbVertex
100
AcDb2dVertex
 10
94.454527
 20
118.258587
 30
0.0
  0
VERTEX
  5
6B
330
66
100
AcDbEntity
  8
LAYER_1
 62
     7
100
AcDbVertex
100
AcDb2dVertex
 10
94.454527
 20
118.420679
 30
0.0
  0
SEQEND
  5
6C
330
66
100
AcDbEntity
  8
LAYER_1
 62
     7
  0
LINE
  5
65
330
A
100
AcDbEntity
  8
LAYER_1
 62
     7
100
AcDbLine
 10
79.46439999999999
 20
149.494751
 30
0.0
 11
81.36850499999999
 21
149.494751
 31
0.0
  0
POLYLINE
  5
5E
330
A
100
AcDbEntity
  8
LAYER_1
 62
     7
100
AcDb2dPolyline
 66
     1
 10
0.0
 20
0.0
 30
0.0
 70
     1
  0
VERTEX
  5
5F
330
5E
100
AcDbEntity
  8
LAYER_1
 62
     7
100
AcDbVertex
100
AcDb2dVertex
 10
83.69807800000002
 20
149.494751
 30
0.0
  0
VERTEX
  5
60
330
5E
100
AcDbEntity
  8
LAYER_1
 62
     7
100
AcDbVertex
100
AcDb2dVertex
 10
83.69807800000002
 20
149.332659
 30
0.0
  0
VERTEX
  5
61
330
5E
100
AcDbEntity
  8
LAYER_1
 62
     7
100
AcDbVertex
100
AcDb2dVertex
 10
83.25262700000001
 20
149.494751
 30
0.0
  0
VERTEX
  5
62
330
5E
100
AcDbEntity
  8
LAYER_1
 62
     7
100
AcDbVertex
100
AcDb2dVertex
 10
83.69807800000002
 20
149.656843
 30
0.0
  0
VERTEX
  5
63
330
5E
100
AcDbEntity
  8
LAYER_1
 62
     7
100
AcDbVertex
100
AcDb2dVertex
 10
83.69807800000002
 20
149.494751
 30
0.0
  0
SEQEND
  5
64
330
5E
100
AcDbEntity
  8
LAYER_1
 62
     7
  0
POLYLINE
  5
57
330
A
100
AcDbEntity
  8
LAYER_1
 62
     7
100
AcDb2dPolyline
 66
     1
 10
0.0
 20
0.0
 30
0.0
 70
     1
  0
VERTEX
  5
58
330
57
100
AcDbEntity
  8
LAYER_1
 62
     7
100
AcDbVertex
100
AcDb2dVertex
 10
81.247065
 20
149.494751
 30
0.0
  0
VERTEX
  5
59
330
57
100
AcDbEntity
  8
LAYER_1
 62
     7
100
AcDbVertex
100
AcDb2dVertex
 10
81.247065
 20
149.656843
 30
0.0
  0
VERTEX
  5
5A
330
57
100
AcDbEntity
  8
LAYER_1
 62
     7
100
AcDbVertex
100
AcDb2dVertex
 10
81.69268800000001
 20
149.494751
 30
0.0
  0
VERTEX
  5
5B
330
57
100
AcDbEntity
  8
LAYER_1
 62
     7
100
AcDbVertex
100
AcDb2dVertex
 10
81.247065
 20
149.332659
 30
0.0
  0
VERTEX
  5
5C
330
57
100
AcDbEntity
  8
LAYER_1
 62
     7
100
AcDbVertex
100
AcDb2dVertex
 10
81.247065
 20
149.494751
 30
0.0
  0
SEQEND
  5
5D
330
57
100
AcDbEntity
  8
LAYER_1
 62
     7
  0
LINE
  5
56
330
A
100
AcDbEntity
  8
LAYER_1
 62
     7
100
AcDbLine
 10
101.60534
 20
152.00657
 30
0.0
 11
98.01985700000001
 21
152.00657
 31
0.0
  0
POLYLINE
  5
50
330
A
100
AcDbEntity
  8
LAYER_1
 62
     7
100
AcDb2dPolyline
 66
     1
 10
0.0
 20
0.0
 30
0.0
 70
     1
  0
VERTEX
  5
51
330
50
100
AcDbEntity
  8
LAYER_1
 62
     7
100
AcDbVertex
100
AcDb2dVertex
 10
98.68820500000001
 20
152.188988
 30
0.0
  0
VERTEX
  5
52
330
50
100
AcDbEntity
  8
LAYER_1
 62
     7
100
AcDbVertex
100
AcDb2dVertex
 10
97.857765
 20
152.00657
 30
0.0
  0
VERTEX
  5
53
330
50
100
AcDbEntity
  8
LAYER_1
 62
     7
100
AcDbVertex
100
AcDb2dVertex
 10
98.68820500000001
 20
151.824325
 30
0.0
  0
VERTEX
  5
54
330
50
100
AcDbEntity
  8
LAYER_1
 62
     7
100
AcDbVertex
100
AcDb2dVertex
 10
98.68820500000001
 20
152.188988
 30
0.0
  0
SEQEND
  5
55
330
50
100
AcDbEntity
  8
LAYER_1
 62
     7
  0
LINE
  5
4F
330
A
100
AcDbEntity
  8
LAYER_1
 62
     7
100
AcDbLine
 10
95.30529399999998
 20
151.945936
 30
0.0
 11
90.909524
 21
151.945936
 31
0.0
  0
POLYLINE
  5
49
330
A
100
AcDbEntity
  8
LAYER_1
 62
     7
100
AcDb2dPolyline
 66
     1
 10
0.0
 20
0.0
 30
0.0
 70
     1
  0
VERTEX
  5
4A
330
49
100
AcDbEntity
  8
LAYER_1
 62
     7
100
AcDbVertex
100
AcDb2dVertex
 10
95.001609
 20
151.763519
 30
0.0
  0
VERTEX
  5
4B
330
49
100
AcDbEntity
  8
LAYER_1
 62
     7
100
AcDbVertex
100
AcDb2dVertex
 10
95.69028299999999
 20
151.945936
 30
0.0
  0
VERTEX
  5
4C
330
49
100
AcDbEntity
  8
LAYER_1
 62
     7
100
AcDbVertex
100
AcDb2dVertex
 10
95.001609
 20
152.128182
 30
0.0
  0
VERTEX
  5
4D
330
49
100
AcDbEntity
  8
LAYER_1
 62
     7
100
AcDbVertex
100
AcDb2dVertex
 10
95.001609
 20
151.763519
 30
0.0
  0
SEQEND
  5
4E
330
49
100
AcDbEntity
  8
LAYER_1
 62
     7
  0
MTEXT
  5
48
330
A
100
AcDbEntity
  8
LAYER_1
 62
     7
100
AcDbMText
 10
98.325092
 20
151.730044
 30
0.0
 40
1.837383999999999
 41
0.0
 71
     1
 72
     2
  1
\fGill Sans|b0|i0;4.5 (0.18)
  7
STD
 73
     1
 44
1.0
1001
ACAD
1000
MTEXTBEGIN
1070
    73
1070
     1
1070
    44
1040
1.0
1070
    74
1070
     0
1000
MTEXTEND
  0
MTEXT
  5
47
330
A
100
AcDbEntity
  8
LAYER_1
 62
     7
100
AcDbMText
 10
101.679467
 20
145.994534
 30
0.0
 40
1.837383999999999
 41
0.0
 71
     1
 72
     2
  1
\fGill Sans|b0|i0;7
  7
STD
 11
0.0
 21
1.0
 31
0.0
 73
     1
 44
1.0
1001
ACAD
1000
MTEXTBEGIN
1070
    73
1070
     1
1070
    44
1040
1.0
1070
    74
1070
     0
1000
MTEXTEND
  0
MTEXT
  5
46
330
A
100
AcDbEntity
  8
LAYER_1
 62
     7
100
AcDbMText
 10
132.23867
 20
135.658042
 30
0.0
 40
1.837383999999999
 41
0.0
 71
     1
 72
     2
  1
\fGill Sans|b0|i0;41 (1.61)
  7
STD
 11
0.0
 21
1.0
 31
0.0
 73
     1
 44
1.0
1001
ACAD
1000
MTEXTBEGIN
1070
    73
1070
     1
1070
    44
1040
1.0
1070
    74
1070
     0
1000
MTEXTEND
  0
MTEXT
  5
45
330
A
100
AcDbEntity
  8
LAYER_1
 62
     7
100
AcDbMText
 10
87.28620199999999
 20
138.921408
 30
0.0
 40
1.837383999999999
 41
0.0
 71
     1
 72
     2
  1
\fGill Sans|b0|i0;41
  7
STD
 11
0.0
 21
1.0
 31
0.0
 73
     1
 44
1.0
1001
ACAD
1000
MTEXTBEGIN
1070
    73
1070
     1
1070
    44
1040
1.0
1070
    74
1070
     0
1000
MTEXTEND
  0
MTEXT
  5
44
330
A
100
AcDbEntity
  8
LAYER_1
 62
     7
100
AcDbMText
 10
87.28620199999999
 20
126.115644
 30
0.0
 40
1.837383999999999
 41
0.0
 71
     1
 72
     2
  1
\fGill Sans|b0|i0;41
  7
STD
 11
0.0
 21
1.0
 31
0.0
 73
     1
 44
1.0
1001
ACAD
1000
MTEXTBEGIN
1070
    73
1070
     1
1070
    44
1040
1.0
1070
    74
1070
     0
1000
MTEXTEND
  0
MTEXT
  5
43
330
A
100
AcDbEntity
  8
LAYER_1
 62
     7
100
AcDbMText
 10
121.394543
 20
129.344904
 30
0.0
 40
1.837383999999999
 41
0.0
 71
     1
 72
     2
  1
\fGill Sans|b0|i0;73 (2.87)
  7
STD
 11
0.0
 21
1.0
 31
0.0
 73
     1
 44
1.0
1001
ACAD
1000
MTEXTBEGIN
1070
    73
1070
     1
1070
    44
1040
1.0
1070
    74
1070
     0
1000
MTEXTEND
  0
MTEXT
  5
42
330
A
100
AcDbEntity
  8
LAYER_1
 62
     7
100
AcDbMText
 10
76.24449900000001
 20
128.249708
 30
0.0
 40
1.837383999999999
 41
0.0
 71
     1
 72
     2
  1
\fGill Sans|b0|i0;68 (2.68)
  7
STD
 11
0.0
 21
1.0
 31
0.0
 73
     1
 44
1.0
1001
ACAD
1000
MTEXTBEGIN
1070
    73
1070
     1
1070
    44
1040
1.0
1070
    74
1070
     0
1000
MTEXTEND
  0
MTEXT
  5
41
330
A
100
AcDbEntity
  8
LAYER_1
 62
     7
100
AcDbMText
 10
68.74797099999999
 20
128.514292
 30
0.0
 40
1.837383999999999
 41
0.0
 71
     1
 72
     2
  1
\fGill Sans|b0|i0;82 (3.23)
  7
STD
 11
0.0
 21
1.0
 31
0.0
 73
     1
 44
1.0
1001
ACAD
1000
MTEXTBEGIN
1070
    73
1070
     1
1070
    44
1040
1.0
1070
    74
1070
     0
1000
MTEXTEND
  0
MTEXT
  5
40
330
A
100
AcDbEntity
  8
LAYER_1
 62
     7
100
AcDbMText
 10
127.267339
 20
152.153446
 30
0.0
 40
1.837383999999999
 41
0.0
 71
     1
 72
     2
  1
\fGill Sans|b0|i0;9 (0.35)
  7
STD
 73
     1
 44
1.0
1001
ACAD
1000
MTEXTBEGIN
1070
    73
1070
     1
1070
    44
1040
1.0
1070
    74
1070
     0
1000
MTEXTEND
  0
MTEXT
  5
3F
330
A
100
AcDbEntity
  8
LAYER_1
 62
     7
100
AcDbMText
 10
142.00253
 20
152.260933
 30
0.0
 40
1.837383999999999
 41
0.0
 71
     1
 72
     2
  1
\fGill Sans|b0|i0;7 (0.28)
  7
STD
 73
     1
 44
1.0
1001
ACAD
1000
MTEXTBEGIN
1070
    73
1070
     1
1070
    44
1040
1.0
1070
    74
1070
     0
1000
MTEXTEND
  0
MTEXT
  5
3E
330
A
100
AcDbEntity
  8
LAYER_1
 62
     7
100
AcDbMText
 10
140.257761
 20
117.069972
 30
0.0
 40
1.837383999999999
 41
0.0
 71
     1
 72
     2
  1
\fGill Sans|b0|i0;(0.75)
  7
STD
 73
     1
 44
1.0
1001
ACAD
1000
MTEXTBEGIN
1070
    73
1070
     1
1070
    44
1040
1.0
1070
    74
1070
     0
1000
MTEXTEND
  0
MTEXT
  5
3D
330
A
100
AcDbEntity
  8
LAYER_1
 62
     7
100
AcDbMText
 10
141.943102
 20
119.768687
 30
0.0
 40
1.837383999999999
 41
0.0
 71
     1
 72
     2
  1
\fGill Sans|b0|i0;19
  7
STD
 73
     1
 44
1.0
1001
ACAD
1000
MTEXTBEGIN
1070
    73
1070
     1
1070
    44
1040
1.0
1070
    74
1070
     0
1000
MTEXTEND
  0
MTEXT
  5
3C
330
A
100
AcDbEntity
  8
LAYER_1
 62
     7
100
AcDbMText
 10
82.940157
 20
110.173235
 30
0.0
 40
1.837383999999999
 41
0.0
 71
     1
 72
     2
  1
\fGill Sans|b1|i0;Sensor
  7
STD
 73
     1
 44
1.0
1001
ACAD
1000
MTEXTBEGIN
1070
    73
1070
     1
1070
    44
1040
1.0
1070
    74
1070
     0
1000
MTEXTEND
  0
MTEXT
  5
3B
330
A
100
AcDbEntity
  8
LAYER_1
 62
     7
100
AcDbMText
 10
129.006251
 20
110.173235
 30
0.0
 40
1.837383999999999
 41
0.0
 71
     1
 72
     2
  1
\fGill Sans|b1|i0;Actuator
  7
STD
 73
     1
 44
1.0
1001
ACAD
1000
MTEXTBEGIN
1070
    73
1070
     1
1070
    44
1040
1.0
1070
    74
1070
     0
1000
MTEXTEND
  0
MTEXT
  5
3A
330
A
100
AcDbEntity
  8
LAYER_1
 62
     7
100
AcDbMText
 10
88.44369699999999
 20
116.576117
 30
0.0
 40
1.837383999999999
 41
0.0
 71
     1
 72
     2
  1
\fGill Sans|b0|i0;(0.2)
  7
STD
 73
     1
 44
1.0
1001
ACAD
1000
MTEXTBEGIN
1070
    73
1070
     1
1070
    44
1040
1.0
1070
    74
1070
     0
1000
MTEXTEND
  0
MTEXT
  5
39
330
A
100
AcDbEntity
  8
LAYER_1
 62
     7
100
AcDbMText
 10
90.129038
 20
119.274833
 30
0.0
 40
1.837383999999999
 41
0.0
 71
     1
 72
     2
  1
\fGill Sans|b0|i0;5
  7
STD
 73
     1
 44
1.0
1001
ACAD
1000
MTEXTBEGIN
1070
    73
1070
     1
1070
    44
1040
1.0
1070
    74
1070
     0
1000
MTEXTEND
  0
MTEXT
  5
38
330
A
100
AcDbEntity
  8
LAYER_1
 62
     7
100
AcDbMText
 10
78.052083
 20
152.010302
 30
0.0
 40
1.837383999999999
 41
0.0
 71
     1
 72
     2
  1
\fGill Sans|b0|i0;(0.17)
  7
STD
 73
     1
 44
1.0
1001
ACAD
1000
MTEXTBEGIN
1070
    73
1070
     1
1070
    44
1040
1.0
1070
    74
1070
     0
1000
MTEXTEND
  0
MTEXT
  5
37
330
A
100
AcDbEntity
  8
LAYER_1
 62
     7
100
AcDbMText
 10
79.46698399999999
 20
154.709018
 30
0.0
 40
1.837383999999999
 41
0.0
 71
     1
 72
     2
  1
\fGill Sans|b0|i0;4.2
  7
STD
 73
     1
 44
1.0
1001
ACAD
1000
MTEXTBEGIN
1070
    73
1070
     1
1070
    44
1040
1.0
1070
    74
1070
     0
1000
MTEXTEND
  0
MTEXT
  5
36
330
A
100
AcDbEntity
  8
LAYER_1
 62
     7
100
AcDbMText
 10
89.87013899999999
 20
154.126969
 30
0.0
 40
1.837383999999999
 41
0.0
 71
     1
 72
     2
  1
\fGill Sans|b0|i0;(0.17)
  7
STD
 73
     1
 44
1.0
1001
ACAD
1000
MTEXTBEGIN
1070
    73
1070
     1
1070
    44
1040
1.0
1070
    74
1070
     0
1000
MTEXTEND
  0
MTEXT
  5
35
330
A
100
AcDbEntity
  8
LAYER_1
 62
     7
100
AcDbMText
 10
91.28504000000001
 20
156.825684
 30
0.0
 40
1.837383999999999
 41
0.0
 71
     1
 72
     2
  1
\fGill Sans|b0|i0;4.2
  7
STD
 73
     1
 44
1.0
1001
ACAD
1000
MTEXTBEGIN
1070
    73
1070
     1
1070
    44
1040
1.0
1070
    74
1070
     0
1000
MTEXTEND
  0
MTEXT
  5
34
330
A
100
AcDbEntity
  8
LAYER_1
 62
     7
100
AcDbMText
 10
71.441117
 20
118.081968
 30
0.0
 40
1.837383999999999
 41
0.0
 71
     1
 72
     2
  1
\fGill Sans|b0|i0;4.5 (0.18)
  7
STD
 73
     1
 44
1.0
1001
ACAD
1000
MTEXTBEGIN
1070
    73
1070
     1
1070
    44
1040
1.0
1070
    74
1070
     0
1000
MTEXTEND
  0
MTEXT
  5
33
330
A
100
AcDbEntity
  8
LAYER_1
 62
     7
100
AcDbMText
 10
71.648512
 20
122.464335
 30
0.0
 40
1.574901
 41
0.0
 71
     1
 72
     2
  1
\fGill Sans|b0|i0;7 (0.28)
  7
STD
 73
     1
 44
1.0
1001
ACAD
1000
MTEXTBEGIN
1070
    73
1070
     1
1070
    44
1040
1.0
1070
    74
1070
     0
1000
MTEXTEND
  0
MTEXT
  5
32
330
A
100
AcDbEntity
  8
LAYER_1
 62
     7
100
AcDbMText
 10
81.05069399999999
 20
114.792247
 30
0.0
 40
1.837383999999999
 41
0.0
 71
     1
 72
     2
  1
\fGill Sans|b0|i0;(0.75)
  7
STD
 73
     1
 44
1.0
1001
ACAD
1000
MTEXTBEGIN
1070
    73
1070
     1
1070
    44
1040
1.0
1070
    74
1070
     0
1000
MTEXTEND
  0
MTEXT
  5
31
330
A
100
AcDbEntity
  8
LAYER_1
 62
     7
100
AcDbMText
 10
82.736035
 20
117.490962
 30
0.0
 40
1.837383999999999
 41
0.0
 71
     1
 72
     2
  1
\fGill Sans|b0|i0;19
  7
STD
 73
     1
 44
1.0
1001
ACAD
1000
MTEXTBEGIN
1070
    73
1070
     1
1070
    44
1040
1.0
1070
    74
1070
     0
1000
MTEXTEND
  0
MTEXT
  5
30
330
A
100
AcDbEntity
  8
LAYER_1
 62
     7
100
AcDbMText
 10
94.985417
 20
114.439469
 30
0.0
 40
1.837383999999999
 41
0.0
 71
     1
 72
     2
  1
\fGill Sans|b0|i0;(0.75)
  7
STD
 73
     1
 44
1.0
1001
ACAD
1000
MTEXTBEGIN
1070
    73
1070
     1
1070
    44
1040
1.0
1070
    74
1070
     0
1000
MTEXTEND
  0
MTEXT
  5
2F
330
A
100
AcDbEntity
  8
LAYER_1
 62
     7
100
AcDbMText
 10
96.67075699999999
 20
117.138184
 30
0.0
 40
1.837383999999999
 41
0.0
 71
     1
 72
     2
  1
\fGill Sans|b0|i0;19
  7
STD
 73
     1
 44
1.0
1001
ACAD
1000
MTEXTBEGIN
1070
    73
1070
     1
1070
    44
1040
1.0
1070
    74
1070
     0
1000
MTEXTEND
  0
MTEXT
  5
2E
330
A
100
AcDbEntity
  8
LAYER_1
 62
     7
100
AcDbMText
 10
126.073958
 20
114.439469
 30
0.0
 40
1.837383999999999
 41
0.0
 71
     1
 72
     2
  1
\fGill Sans|b0|i0;(0.75)
  7
STD
 73
     1
 44
1.0
1001
ACAD
1000
MTEXTBEGIN
1070
    73
1070
     1
1070
    44
1040
1.0
1070
    74
1070
     0
1000
MTEXTEND
  0
MTEXT
  5
2D
330
A
100
AcDbEntity
  8
LAYER_1
 62
     7
100
AcDbMText
 10
127.759299
 20
117.138184
 30
0.0
 40
1.837383999999999
 41
0.0
 71
     1
 72
     2
  1
\fGill Sans|b0|i0;19
  7
STD
 73
     1
 44
1.0
1001
ACAD
1000
MTEXTBEGIN
1070
    73
1070
     1
1070
    44
1040
1.0
1070
    74
1070
     0
1000
MTEXTEND
  0
MTEXT
  5
2C
330
A
100
AcDbEntity
  8
LAYER_1
 62
     7
100
AcDbMText
 10
120.782292
 20
152.777697
 30
0.0
 40
1.837383999999999
 41
0.0
 71
     1
 72
     2
  1
\fGill Sans|b0|i0;(0.18)
  7
STD
 73
     1
 44
1.0
1001
ACAD
1000
MTEXTBEGIN
1070
    73
1070
     1
1070
    44
1040
1.0
1070
    74
1070
     0
1000
MTEXTEND
  0
MTEXT
  5
2B
330
A
100
AcDbEntity
  8
LAYER_1
 62
     7
100
AcDbMText
 10
122.197192
 20
155.476413
 30
0.0
 40
1.837383999999999
 41
0.0
 71
     1
 72
     2
  1
\fGill Sans|b0|i0;4.5
  7
STD
 73
     1
 44
1.0
1001
ACAD
1000
MTEXTBEGIN
1070
    73
1070
     1
1070
    44
1040
1.0
1070
    74
1070
     0
1000
MTEXTEND
  0
MTEXT
  5
2A
330
A
100
AcDbEntity
  8
LAYER_1
 62
     7
100
AcDbMText
 10
119.194792
 20
117.106662
 30
0.0
 40
1.837383999999999
 41
0.0
 71
     1
 72
     2
  1
\fGill Sans|b0|i0;(0.18)
  7
STD
 73
     1
 44
1.0
1001
ACAD
1000
MTEXTBEGIN
1070
    73
1070
     1
1070
    44
1040
1.0
1070
    74
1070
     0
1000
MTEXTEND
  0
MTEXT
  5
29
330
A
100
AcDbEntity
  8
LAYER_1
 62
     7
100
AcDbMText
 10
120.609692
 20
119.805377
 30
0.0
 40
1.837383999999999
 41
0.0
 71
     1
 72
     2
  1
\fGill Sans|b0|i0;4.5
  7
STD
 73
     1
 44
1.0
1001
ACAD
1000
MTEXTBEGIN
1070
    73
1070
     1
1070
    44
1040
1.0
1070
    74
1070
     0
1000
MTEXTEND
  0
MTEXT
  5
28
330
A
100
AcDbEntity
  8
LAYER_1
 62
     7
100
AcDbMText
 10
117.473507
 20
129.462554
 30
0.0
 40
1.837383999999999
 41
0.0
 71
     1
 72
     2
  1
\fGill Sans|b0|i0;82 (3.23)
  7
STD
 11
0.0
 21
1.0
 31
0.0
 73
     1
 44
1.0
1001
ACAD
1000
MTEXTBEGIN
1070
    73
1070
     1
1070
    44
1040
1.0
1070
    74
1070
     0
1000
MTEXTEND
  0
MTEXT
  5
27
330
A
100
AcDbEntity
  8
LAYER_1
 62
     7
100
AcDbMText
 10
132.496018
 20
122.377543
 30
0.0
 40
1.837383999999999
 41
0.0
 71
     1
 72
     2
  1
\fGill Sans|b0|i0;41 (1.61)
  7
STD
 11
0.0
 21
1.0
 31
0.0
 73
     1
 44
1.0
1001
ACAD
1000
MTEXTBEGIN
1070
    73
1070
     1
1070
    44
1040
1.0
1070
    74
1070
     0
1000
MTEXTEND
  0
MTEXT
  5
26
330
A
100
AcDbEntity
  8
LAYER_1
 62
     7
100
AcDbMText
 10
129.875793
 20
119.49308
 30
0.0
 40
1.837383999999999
 41
0.0
 71
     1
 72
     2
  1
\fGill Sans|b0|i0;7 (0.28)
  7
STD
 73
     1
 44
1.0
1001
ACAD
1000
MTEXTBEGIN
1070
    73
1070
     1
1070
    44
1040
1.0
1070
    74
1070
     0
1000
MTEXTEND
  0
MTEXT
  5
25
330
A
100
AcDbEntity
  8
LAYER_1
 62
     7
100
AcDbMText
 10
101.785863
 20
125.978989
 30
0.0
 40
1.837383999999999
 41
0.0
 71
     1
 72
     2
  1
\fGill Sans|b0|i0;7 (0.28)
  7
STD
 73
     1
 44
1.0
1001
ACAD
1000
MTEXTBEGIN
1070
    73
1070
     1
1070
    44
1040
1.0
1070
    74
1070
     0
1000
MTEXTEND
  0
MTEXT
  5
24
330
A
100
AcDbEntity
  8
LAYER_1
 62
     7
100
AcDbMText
 10
71.913095
 20
147.383055
 30
0.0
 40
1.574901
 41
0.0
 71
     1
 72
     2
  1
\fGill Sans|b0|i0;7 (0.28)
  7
STD
 73
     1
 44
1.0
1001
ACAD
1000
MTEXTBEGIN
1070
    73
1070
     1
1070
    44
1040
1.0
1070
    74
1070
     0
1000
MTEXTEND
  0
MTEXT
  5
23
330
A
100
AcDbEntity
  8
LAYER_1
 62
     7
100
AcDbMText
 10
104.468042
 20
98.57618999999999
 30
0.0
 40
3.149802
 41
0.0
 71
     1
 72
     2
  1
\fAbadi MT Condensed Light|b0|i0;mm (in)
  7
STD
 73
     1
 44
1.0
1001
ACAD
1000
MTEXTBEGIN
1070
    73
1070
     1
1070
    44
1040
1.0
1070
    74
1070
     0
1000
MTEXTEND
  0
MTEXT
  5
22
330
A
100
AcDbEntity
  8
LAYER_1
 62
     7
100
AcDbMText
 10
103.849992
 20
103.691468
 30
0.0
 40
3.149802
 41
0.0
 71
     1
 72
     2
  1
\fAbadi MT Condensed Light|b0|i0;Sipha S2
  7
STD
 73
     1
 44
1.0
1001
ACAD
1000
MTEXTBEGIN
1070
    73
1070
     1
1070
    44
1040
1.0
1070
    74
1070
     0
1000
MTEXTEND
  0
ENDSEC
  0
SECTION
  2
OBJECTS
  0
DICTIONARY
  5
19
330
0
100
AcDbDictionary
281
     1
  3
ACAD_COLOR
350
24B
  3
ACAD_GROUP
350
1A
  3
ACAD_LAYOUT
350
24E
  3
ACAD_MATERIAL
350
24A
  3
ACAD_MLINESTYLE
350
1B
  3
ACAD_PLOTSETTINGS
350
24F
  3
ACAD_PLOTSTYLENAME
350
248
  3
ACAD_TABLESTYLE
350
24C
  3
ACDBHEADERROUNDTRIPXREC
350
313
  3
AcDbVariableDictionary
350
30E
  3
AcmDictionary
350
2AF
  3
AMG
350
255
  3
AMGSNAPSETTINGS
350
303
  3
ASE_INDEX_DICTIONARY
350
30B
  0
DICTIONARY
  5
24B
102
{ACAD_REACTORS
330
19
102
}
330
19
100
AcDbDictionary
281
     1
  0
DICTIONARY
  5
1A
102
{ACAD_REACTORS
330
19
102
}
330
19
100
AcDbDictionary
281
     1
  0
DICTIONARY
  5
24E
102
{ACAD_REACTORS
330
19
102
}
330
19
100
AcDbDictionary
281
     1
  3
Layout1
350
251
  3
Model
350
250
  0
DICTIONARY
  5
24A
102
{ACAD_REACTORS
330
19
102
}
330
19
100
AcDbDictionary
281
     1
  0
DICTIONARY
  5
1B
102
{ACAD_REACTORS
330
19
102
}
330
19
100
AcDbDictionary
281
     1
  3
STANDARD
350
1C
  0
DICTIONARY
  5
24F
102
{ACAD_REACTORS
330
19
102
}
330
19
100
AcDbDictionary
281
     1
  0
ACDBDICTIONARYWDFLT
  5
248
102
{ACAD_REACTORS
330
19
102
}
330
19
100
AcDbDictionary
281
     1
  3
Normal
350
249
100
AcDbDictionaryWithDefault
340
249
  0
DICTIONARY
  5
24C
102
{ACAD_REACTORS
330
19
102
}
330
19
100
AcDbDictionary
281
     1
  3
Standard
350
24D
  0
DICTIONARY
  5
313
102
{ACAD_REACTORS
330
19
102
}
330
19
100
AcDbDictionary
281
     1
  0
DICTIONARY
  5
30E
102
{ACAD_REACTORS
330
19
102
}
330
19
100
AcDbDictionary
281
     1
  3
CTABLESTYLE
350
30F
  3
DIMASSOC
350
310
  3
PROJECTNAME
350
311
  0
DICTIONARY
  5
2AF
102
{ACAD_REACTORS
330
19
102
}
330
19
100
AcDbDictionary
281
     1
  3
AcmStdDictionary
350
2BA
  3
AMDTSECTSYM_ARROWCOLOR
350
2D9
  0
DICTIONARY
  5
255
102
{ACAD_REACTORS
330
19
102
}
330
19
100
AcDbDictionary
281
     1
  0
DICTIONARY
  5
303
102
{ACAD_REACTORS
330
19
102
}
330
19
100
AcDbDictionary
281
     1
  0
DICTIONARY
  5
30B
102
{ACAD_REACTORS
330
19
102
}
330
19
100
AcDbDictionary
281
     1
  3
ASEBlockHierarchyIndexRecord
350
30D
1001
DCO15
1040
1733132715.388
  0
LAYOUT
  5
251
102
{ACAD_XDICTIONARY
360
316
102
}
102
{ACAD_REACTORS
330
24E
102
}
330
24E
100
AcDbPlotSettings
  1

  2
\\USMKEVPRNT001\USMKEPD0431
  4

  6

 40
0.0
 41
0.0
 42
0.0
 43
0.0
 44
0.0
 45
0.0
 46
0.0
 47
0.0
 48
0.0
 49
0.0
140
0.0
141
0.0
142
1.0
143
1.0
 70
   688
 72
     0
 73
     0
 74
     5
  7

 75
    16
147
1.0
148
0.0
149
0.0
100
AcDbLayout
  1
Layout1
 70
     0
 71
     1
 10
0.0
 20
0.0
 11
12.0
 21
9.0
 12
0.0
 22
0.0
 32
0.0
 14
1.000000000000000E+20
 24
1.000000000000000E+20
 34
1.000000000000000E+20
 15
-1.000000000000000E+20
 25
-1.000000000000000E+20
 35
-1.000000000000000E+20
146
0.0
 13
0.0
 23
0.0
 33
0.0
 16
1.0
 26
0.0
 36
0.0
 17
0.0
 27
1.0
 37
0.0
 76
     0
330
B
  0
LAYOUT
  5
250
102
{ACAD_XDICTIONARY
360
314
102
}
102
{ACAD_REACTORS
330
24E
102
}
330
24E
100
AcDbPlotSettings
  1

  2
\\USMKEVPRNT001\USMKEPD0431
  4

  6

 40
0.0
 41
0.0
 42
0.0
 43
0.0
 44
0.0
 45
0.0
 46
0.0
 47
0.0
 48
0.0
 49
0.0
140
0.0
141
0.0
142
1.0
143
1.0
 70
  1712
 72
     0
 73
     0
 74
     0
  7

 75
     0
147
1.0
148
0.0
149
0.0
100
AcDbLayout
  1
Model
 70
     1
 71
     0
 10
0.0
 20
0.0
 11
12.0
 21
9.0
 12
0.0
 22
0.0
 32
0.0
 14
0.0
 24
0.0
 34
0.0
 15
0.0
 25
0.0
 35
0.0
146
0.0
 13
0.0
 23
0.0
 33
0.0
 16
1.0
 26
0.0
 36
0.0
 17
0.0
 27
1.0
 37
0.0
 76
     0
330
A
  0
MLINESTYLE
  5
1C
102
{ACAD_REACTORS
330
1B
102
}
330
1B
100
AcDbMlineStyle
  2
STANDARD
 70
     0
  3

 62
     0
 51
90.0
 52
90.0
 71
     2
 49
0.5
 62
   256
  6
BYLAYER
 49
-0.5
 62
   256
  6
BYLAYER
  0
ACDBPLACEHOLDER
  5
249
102
{ACAD_REACTORS
330
248
102
}
330
248
  0
TABLESTYLE
  5
24D
102
{ACAD_REACTORS
330
24C
102
}
330
24C
100
AcDbTableStyle
  3
Standard
 70
     0
 71
     0
 40
0.06
 41
0.06
280
     0
281
     0
  7
STANDARD
140
0.18
170
     2
 62
     0
 63
     7
283
     0
274
    -2
284
     1
 64
     0
275
    -2
285
     1
 65
     0
276
    -2
286
     1
 66
     0
277
    -2
287
     1
 67
     0
278
    -2
288
     1
 68
     0
279
    -2
289
     1
 69
     0
  7
STANDARD
140
0.25
170
     5
 62
     0
 63
     7
283
     0
274
    -2
284
     1
 64
     0
275
    -2
285
     1
 65
     0
276
    -2
286
     1
 66
     0
277
    -2
287
     1
 67
     0
278
    -2
288
     1
 68
     0
279
    -2
289
     1
 69
     0
  7
STANDARD
140
0.18
170
     5
 62
     0
 63
     7
283
     0
274
    -2
284
     1
 64
     0
275
    -2
285
     1
 65
     0
276
    -2
286
     1
 66
     0
277
    -2
287
     1
 67
     0
278
    -2
288
     1
 68
     0
279
    -2
289
     1
 69
     0
  0
DICTIONARYVAR
  5
30F
102
{ACAD_REACTORS
330
30E
102
}
330
30E
100
DictionaryVariables
280
     0
  1
STANDARD
  0
DICTIONARYVAR
  5
310
102
{ACAD_REACTORS
330
30E
102
}
330
30E
100
DictionaryVariables
280
     0
  1
1
  0
DICTIONARYVAR
  5
311
102
{ACAD_REACTORS
330
30E
102
}
330
30E
100
DictionaryVariables
280
     0
  1

  0
DICTIONARY
  5
2BA
102
{ACAD_REACTORS
330
2AF
102
}
330
2AF
100
AcDbDictionary
281
     1
  0
XRECORD
  5
2D9
102
{ACAD_REACTORS
330
2AF
102
}
330
2AF
100
AcDbXrecord
280
     1
 90
-1023410169
  0
XRECORD
  5
30D
102
{ACAD_REACTORS
330
30B
102
}
330
30B
100
AcDbXrecord
280
     1
330
160
  0
DICTIONARY
  5
316
330
251
100
AcDbDictionary
280
     1
281
     1
  3
ACAD_XREC_ROUNDTRIP
360
317
  0
DICTIONARY
  5
314
330
250
100
AcDbDictionary
280
     1
281
     1
  3
ACAD_XREC_ROUNDTRIP
360
315
  0
XRECORD
  5
317
102
{ACAD_REACTORS
330
316
102
}
330
316
100
AcDbXrecord
280
     1
102
SHADEPLOT
 70
     0
102
SHADEPLOTRESLEVEL
 70
     2
102
SHADEPLOTCUSTOMDPI
 70
   300
  0
XRECORD
  5
315
102
{ACAD_REACTORS
330
314
102
}
330
314
100
AcDbXrecord
280
     1
102
SHADEPLOT
 70
     0
102
SHADEPLOTRESLEVEL
 70
     2
102
SHADEPLOTCUSTOMDPI
 70
   300
  0
ENDSEC
  0
EOF
