  0
SECTION
  2
HEADER
  9
$ACADVER
  1
AC1015
  9
$ACADMAINTVER
 70
    20
  9
$DWGCODEPAGE
  3
ANSI_1252
  9
$INSBASE
 10
0.0
 20
0.0
 30
0.0
  9
$EXTMIN
 10
87.042405
 20
96.24593671428572
 30
0.0
  9
$EXTMAX
 10
135.3364423809523
 20
170.050373
 30
0.0
  9
$LIMMIN
 10
86.95421000000001
 20
96.85196900000001
  9
$LIMMAX
 10
131.220931
 20
170.462636
  9
$ORTHOMODE
 70
     0
  9
$REGENMODE
 70
     1
  9
$FILLMODE
 70
     1
  9
$QTEXTMODE
 70
     0
  9
$MIRRTEXT
 70
     1
  9
$LTSCALE
 40
1.0
  9
$ATTMODE
 70
     1
  9
$TEXTSIZE
 40
0.0
  9
$TRACEWID
 40
0.05
  9
$TEXTSTYLE
  7
STANDARD
  9
$CLAYER
  8
0
  9
$CELTYPE
  6
CONTINUOUS
  9
$CECOLOR
 62
   256
  9
$CELTSCALE
 40
1.0
  9
$DISPSILH
 70
     0
  9
$DIMSCALE
 40
1.0
  9
$DIMASZ
 40
0.18
  9
$DIMEXO
 40
0.0625
  9
$DIMDLI
 40
0.38
  9
$DIMRND
 40
0.0
  9
$DIMDLE
 40
0.0
  9
$DIMEXE
 40
0.18
  9
$DIMTP
 40
0.0
  9
$DIMTM
 40
0.0
  9
$DIMTXT
 40
0.18
  9
$DIMCEN
 40
0.09
  9
$DIMTSZ
 40
0.0
  9
$DIMTOL
 70
     0
  9
$DIMLIM
 70
     0
  9
$DIMTIH
 70
     1
  9
$DIMTOH
 70
     1
  9
$DIMSE1
 70
     0
  9
$DIMSE2
 70
     0
  9
$DIMTAD
 70
     0
  9
$DIMZIN
 70
     0
  9
$DIMBLK
  1

  9
$DIMASO
 70
     1
  9
$DIMSHO
 70
     1
  9
$DIMPOST
  1

  9
$DIMAPOST
  1

  9
$DIMALT
 70
     0
  9
$DIMALTD
 70
     2
  9
$DIMALTF
 40
25.4
  9
$DIMLFAC
 40
1.0
  9
$DIMTOFL
 70
     0
  9
$DIMTVP
 40
0.0
  9
$DIMTIX
 70
     0
  9
$DIMSOXD
 70
     0
  9
$DIMSAH
 70
     0
  9
$DIMBLK1
  1

  9
$DIMBLK2
  1

  9
$DIMSTYLE
  2
STANDARD
  9
$DIMCLRD
 70
     0
  9
$DIMCLRE
 70
     0
  9
$DIMCLRT
 70
     0
  9
$DIMTFAC
 40
1.0
  9
$DIMGAP
 40
0.09
  9
$DIMJUST
 70
     0
  9
$DIMSD1
 70
     0
  9
$DIMSD2
 70
     0
  9
$DIMTOLJ
 70
     1
  9
$DIMTZIN
 70
     0
  9
$DIMALTZ
 70
     0
  9
$DIMALTTZ
 70
     0
  9
$DIMUPT
 70
     0
  9
$DIMDEC
 70
     4
  9
$DIMTDEC
 70
     4
  9
$DIMALTU
 70
     2
  9
$DIMALTTD
 70
     2
  9
$DIMTXSTY
  7
STANDARD
  9
$DIMAUNIT
 70
     0
  9
$DIMADEC
 70
     0
  9
$DIMALTRND
 40
0.0
  9
$DIMAZIN
 70
     0
  9
$DIMDSEP
 70
    46
  9
$DIMATFIT
 70
     3
  9
$DIMFRAC
 70
     0
  9
$DIMLDRBLK
  1

  9
$DIMLUNIT
 70
     2
  9
$DIMLWD
 70
    -2
  9
$DIMLWE
 70
    -2
  9
$DIMTMOVE
 70
     0
  9
$LUNITS
 70
     2
  9
$LUPREC
 70
     4
  9
$SKETCHINC
 40
0.1
  9
$FILLETRAD
 40
0.0
  9
$AUNITS
 70
     0
  9
$AUPREC
 70
     0
  9
$MENU
  1
acad
  9
$ELEVATION
 40
0.0
  9
$PELEVATION
 40
0.0
  9
$THICKNESS
 40
0.0
  9
$LIMCHECK
 70
     0
  9
$CHAMFERA
 40
0.0
  9
$CHAMFERB
 40
0.0
  9
$CHAMFERC
 40
0.0
  9
$CHAMFERD
 40
0.0
  9
$SKPOLY
 70
     0
  9
$TDCREATE
 40
2305814.042176054
  9
$TDUCREATE
 40
2305814.250509387
  9
$TDUPDATE
 40
2455862.618617801
  9
$TDUUPDATE
 40
2455862.826951134
  9
$TDINDWG
 40
0.0002022106
  9
$TDUSRTIMER
 40
0.0002022106
  9
$USRTIMER
 70
     1
  9
$ANGBASE
 50
0.0
  9
$ANGDIR
 70
     0
  9
$PDMODE
 70
     0
  9
$PDSIZE
 40
0.0
  9
$PLINEWID
 40
0.0
  9
$SPLFRAME
 70
     0
  9
$SPLINETYPE
 70
     6
  9
$SPLINESEGS
 70
     8
  9
$HANDSEED
  5
20D
  9
$SURFTAB1
 70
     6
  9
$SURFTAB2
 70
     6
  9
$SURFTYPE
 70
     6
  9
$SURFU
 70
     6
  9
$SURFV
 70
     6
  9
$UCSBASE
  2

  9
$UCSNAME
  2

  9
$UCSORG
 10
0.0
 20
0.0
 30
0.0
  9
$UCSXDIR
 10
1.0
 20
0.0
 30
0.0
  9
$UCSYDIR
 10
0.0
 20
1.0
 30
0.0
  9
$UCSORTHOREF
  2

  9
$UCSORTHOVIEW
 70
     0
  9
$UCSORGTOP
 10
0.0
 20
0.0
 30
0.0
  9
$UCSORGBOTTOM
 10
0.0
 20
0.0
 30
0.0
  9
$UCSORGLEFT
 10
0.0
 20
0.0
 30
0.0
  9
$UCSORGRIGHT
 10
0.0
 20
0.0
 30
0.0
  9
$UCSORGFRONT
 10
0.0
 20
0.0
 30
0.0
  9
$UCSORGBACK
 10
0.0
 20
0.0
 30
0.0
  9
$PUCSBASE
  2

  9
$PUCSNAME
  2

  9
$PUCSORG
 10
0.0
 20
0.0
 30
0.0
  9
$PUCSXDIR
 10
1.0
 20
0.0
 30
0.0
  9
$PUCSYDIR
 10
0.0
 20
1.0
 30
0.0
  9
$PUCSORTHOREF
  2

  9
$PUCSORTHOVIEW
 70
     0
  9
$PUCSORGTOP
 10
0.0
 20
0.0
 30
0.0
  9
$PUCSORGBOTTOM
 10
0.0
 20
0.0
 30
0.0
  9
$PUCSORGLEFT
 10
0.0
 20
0.0
 30
0.0
  9
$PUCSORGRIGHT
 10
0.0
 20
0.0
 30
0.0
  9
$PUCSORGFRONT
 10
0.0
 20
0.0
 30
0.0
  9
$PUCSORGBACK
 10
0.0
 20
0.0
 30
0.0
  9
$USERI1
 70
     0
  9
$USERI2
 70
     0
  9
$USERI3
 70
     0
  9
$USERI4
 70
     0
  9
$USERI5
 70
     0
  9
$USERR1
 40
0.0
  9
$USERR2
 40
0.0
  9
$USERR3
 40
0.0
  9
$USERR4
 40
0.0
  9
$USERR5
 40
0.0
  9
$WORLDVIEW
 70
     1
  9
$SHADEDGE
 70
     3
  9
$SHADEDIF
 70
    70
  9
$TILEMODE
 70
     1
  9
$MAXACTVP
 70
    16
  9
$PINSBASE
 10
0.0
 20
0.0
 30
0.0
  9
$PLIMCHECK
 70
     0
  9
$PEXTMIN
 10
1.000000000000000E+20
 20
1.000000000000000E+20
 30
1.000000000000000E+20
  9
$PEXTMAX
 10
-1.000000000000000E+20
 20
-1.000000000000000E+20
 30
-1.000000000000000E+20
  9
$PLIMMIN
 10
0.0
 20
0.0
  9
$PLIMMAX
 10
12.0
 20
9.0
  9
$UNITMODE
 70
     0
  9
$VISRETAIN
 70
     0
  9
$PLINEGEN
 70
     1
  9
$PSLTSCALE
 70
     0
  9
$TREEDEPTH
 70
  3020
  9
$CMLSTYLE
  2
STANDARD
  9
$CMLJUST
 70
     0
  9
$CMLSCALE
 40
1.0
  9
$PROXYGRAPHICS
 70
     1
  9
$MEASUREMENT
 70
     0
  9
$CELWEIGHT
370
    -1
  9
$ENDCAPS
280
     0
  9
$JOINSTYLE
280
     0
  9
$LWDISPLAY
290
     0
  9
$INSUNITS
 70
     0
  9
$HYPERLINKBASE
  1

  9
$STYLESHEET
  1

  9
$XEDIT
290
     1
  9
$CEPSNTYPE
380
     0
  9
$PSTYLEMODE
290
     1
  9
$FINGERPRINTGUID
  2
{1FD8C647-72AD-4F4D-A956-E064DABB7C2F}
  9
$VERSIONGUID
  2
{ED544860-564A-493C-9DBC-01C30D6D68B5}
  9
$EXTNAMES
290
     1
  9
$PSVPSCALE
 40
0.0
  9
$OLESTARTUP
290
     0
  0
ENDSEC
  0
SECTION
  2
CLASSES
  0
CLASS
  1
IMAGE
  2
AcDbRasterImage
  3
ISM
 90
    32895
280
     0
281
     1
  0
CLASS
  1
DICTIONARYVAR
  2
AcDbDictionaryVar
  3
ObjectDBX Classes
 90
        0
280
     0
281
     0
  0
CLASS
  1
RASTERVARIABLES
  2
AcDbRasterVariables
  3
ISM
 90
    32768
280
     0
281
     0
  0
CLASS
  1
IMAGEDEF
  2
AcDbRasterImageDef
  3
ISM
 90
    32768
280
     0
281
     0
  0
CLASS
  1
IMAGEDEF_REACTOR
  2
AcDbRasterImageDefReactor
  3
ISM
 90
    32769
280
     0
281
     0
  0
CLASS
  1
IDBUFFER
  2
AcDbIdBuffer
  3
ObjectDBX Classes
 90
    32768
280
     0
281
     0
  0
CLASS
  1
SPATIAL_FILTER
  2
AcDbSpatialFilter
  3
ObjectDBX Classes
 90
    32768
280
     0
281
     0
  0
CLASS
  1
SORTENTSTABLE
  2
AcDbSortentsTable
  3
ObjectDBX Classes
 90
    32768
280
     0
281
     0
  0
CLASS
  1
LAYER_INDEX
  2
AcDbLayerIndex
  3
ObjectDBX Classes
 90
    32768
280
     0
281
     0
  0
CLASS
  1
SPATIAL_INDEX
  2
AcDbSpatialIndex
  3
ObjectDBX Classes
 90
    32768
280
     0
281
     0
  0
CLASS
  1
OBJECT_PTR
  2
CAseDLPNTableRecord
  3
ASE-LPNTableRecord
 90
    32769
280
     0
281
     0
  0
CLASS
  1
LAYOUT
  2
AcDbLayout
  3
ObjectDBX Classes
 90
        0
280
     0
281
     0
  0
CLASS
  1
PLOTSETTINGS
  2
AcDbPlotSettings
  3
ObjectDBX Classes
 90
    32768
280
     0
281
     0
  0
CLASS
  1
ACDBDICTIONARYWDFLT
  2
AcDbDictionaryWithDefault
  3
ObjectDBX Classes
 90
        0
280
     0
281
     0
  0
CLASS
  1
ACDBPLACEHOLDER
  2
AcDbPlaceHolder
  3
ObjectDBX Classes
 90
        0
280
     0
281
     0
  0
CLASS
  1
VBA_PROJECT
  2
AcDbVbaProject
  3
acad
 90
    32768
280
     0
281
     0
  0
CLASS
  1
WIPEOUT
  2
AcDbWipeout
  3
"WipeOut|Product Desc: Object Enabler for WipeOut entity^I^I^I^I^I^I|Company: Autodesk, Inc.^I^I^I^I^I^I|WEB Address: www.autodesk.com"
 90
    32895
280
     0
281
     1
  0
CLASS
  1
WIPEOUTVARIABLES
  2
AcDbWipeoutVariables
  3
"WipeOut|Product Desc:     WipeOut Dbx Application|Company:          Autodesk, Inc.|WEB Address:      www.autodesk.com"
 90
    32768
280
     0
281
     0
  0
CLASS
  1
RTEXT
  2
RText
  3
RText|AutoCAD Express Tool|expresstools@autodesk.com
 90
    32768
280
     0
281
     1
  0
CLASS
  1
ARCALIGNEDTEXT
  2
AcDbArcAlignedText
  3
ATEXT|AutoCAD Express Tool|expresstools@autodesk.com
 90
    32768
280
     0
281
     1
  0
CLASS
  1
TABLESTYLE
  2
AcDbTableStyle
  3
ObjectDBX Classes
 90
     2047
280
     0
281
     0
  0
CLASS
  1
AMGSETTINGSOBJ
  2
AmgSettingsObj
  3
"AcadM|Product Description: AutoCAD Mechanical 2000|Company: Autodesk"
 90
        0
280
     0
281
     0
  0
CLASS
  1
ACME_DOCUMENT
  2
AcMeDbDoc
  3
AcMeServices
 90
        0
280
     0
281
     0
  0
CLASS
  1
ACMESCOPE
  2
AcMeScope
  3
AcMeServices
 90
        0
280
     0
281
     0
  0
CLASS
  1
ACMECOMMANDHISTORY
  2
AcMeCommandHistory
  3
AcMeServices
 90
        0
280
     0
281
     0
  0
CLASS
  1
ACIMSYSVARMAN
  2
AcImSysVarManager
  3
AcMeServices
 90
        0
280
     0
281
     0
  0
CLASS
  1
ACIMINTSYSVAR
  2
AcImIntSysVar
  3
AcMeServices
 90
        0
280
     0
281
     0
  0
CLASS
  1
ACMEDRAWINGMAN
  2
AcMeDrawingMan
  3
AcMeServices
 90
        0
280
     0
281
     0
  0
CLASS
  1
ACMEVIEW
  2
AcMeView
  3
AcMeServices
 90
        0
280
     0
281
     0
  0
CLASS
  1
ACDBENTITYCACHE
  2
AcMeEntityCache
  3
AcMeServices
 90
        0
280
     0
281
     0
  0
CLASS
  1
GSMANAGER
  2
AcMeGSManager
  3
AcMeServices
 90
        0
280
     0
281
     0
  0
CLASS
  1
AMDTINTERNALREACTOR
  2
AmdtInternalReactor
  3
AcMeServices
 90
        0
280
     0
281
     0
  0
CLASS
  1
ACMESTATEMGR
  2
AcMeStateMgr
  3
AcMeServices
 90
        0
280
     0
281
     0
  0
CLASS
  1
ACGREFMASTER
  2
AcGrefMaster
  3
AcAttribServices
 90
        0
280
     0
281
     0
  0
CLASS
  1
AM_DRAWING_MGR
  2
AcDmDwgMgr
  3
AcMechDwgViewMgmt
 90
        0
280
     0
281
     0
  0
CLASS
  1
AM_DWG_DOCUMENT
  2
AcDmDwgDocument
  3
AcMechDwgViewMgmt
 90
        0
280
     0
281
     0
  0
CLASS
  1
AM_DWG_SHEET
  2
AcDmSheet
  3
AcMechDwgViewMgmt
 90
        0
280
     0
281
     0
  0
CLASS
  1
AM_VIEWDIMPARMAP
  2
AcDmViewDimParMap
  3
AcMechDwgViewMgmt
 90
        0
280
     0
281
     0
  0
CLASS
  1
ACIMREALSYSVAR
  2
AcImRealSysVar
  3
AcMeServices
 90
        0
280
     0
281
     0
  0
CLASS
  1
AM_DWGMGR_NAME
  2
AcDmDwgMgrName
  3
AcMechDwgViewMgmt
 90
        0
280
     0
281
     0
  0
CLASS
  1
ACME_DATABASE
  2
AcMeDbDatabase
  3
AcMeServices
 90
        0
280
     0
281
     0
  0
CLASS
  1
ACRFINSADJUSTERMGR
  2
AcRfInsAdjusterMgr
  3
AcMeServices
 90
        0
280
     0
281
     0
  0
CLASS
  1
ACGREFACADMASTER
  2
AcGrefacadMaster
  3
AcGrefServices
 90
        0
280
     0
281
     0
  0
CLASS
  1
AMDTMENUSTATEMGR
  2
AmdtMenuStateMgr
  3
McadcomServices
 90
        0
280
     0
281
     0
  0
CLASS
  1
AMDTMCOMMENUSTATE
  2
AmdtMcomMenuState
  3
McadcomServices
 90
        0
280
     0
281
     0
  0
CLASS
  1
AMIMASTER
  2
AmiMaster
  3
AmiServices
 90
        0
280
     0
281
     0
  0
CLASS
  1
MAPIAMMOUDLE
  2
MApiAmModule
  3
MApiAmServices
 90
        0
280
     0
281
     0
  0
CLASS
  1
ACIMSTRSYSVAR
  2
AcImStrSysVar
  3
AcMeServices
 90
        0
280
     0
281
     0
  0
CLASS
  1
AMDTADMENUSTATE
  2
AmdtAdMenuState
  3
DesignerServices
 90
        0
280
     0
281
     0
  0
CLASS
  1
ADAPPL
  2
AcAdAppl
  3
DesignerServices
 90
        0
280
     0
281
     0
  0
CLASS
  1
DEPMGR
  2
AcAdDepMgr
  3
DesignerServices
 90
        0
280
     0
281
     0
  0
CLASS
  1
PARAMMGR
  2
AcAdParamMgr
  3
DesignerServices
 90
        0
280
     0
281
     0
  0
CLASS
  1
PARAMSCOPE
  2
AcAdParamScope
  3
DesignerServices
 90
        0
280
     0
281
     0
  0
CLASS
  1
NAMEDAPPL
  2
AcAdNamedAppl
  3
DesignerServices
 90
        0
280
     0
281
     0
  0
CLASS
  1
AMDTDMMENUSTATE
  2
AmdtDmMenuState
  3
AcMechDwgViewMgmt
 90
        0
280
     0
281
     0
  0
CLASS
  1
AMDTAMMENUSTATE
  2
AmdtAmMenuState
  3
DesignerAssemblies
 90
        0
280
     0
281
     0
  0
CLASS
  1
ACAMPROJECT
  2
AcAmProject
  3
DesignerAssemblies
 90
        0
280
     0
281
     0
  0
CLASS
  1
ACAMGRCOMPDEF
  2
AcAmGrCompDef
  3
DesignerAssemblies
 90
        0
280
     0
281
     0
  0
CLASS
  1
ACCMCONTEXT
  2
AcCmContext
  3
DesignerAssemblies
 90
        0
280
     0
281
     0
  0
CLASS
  1
ACAMCOMPDEF
  2
AcAmCompDef
  3
DesignerAssemblies
 90
        0
280
     0
281
     0
  0
CLASS
  1
ACAMCOMPDEFMGR
  2
AcAmCompDefMgr
  3
DesignerAssemblies
 90
        0
280
     0
281
     0
  0
CLASS
  1
AMCONTEXTMGR
  2
AcAmContextMgr
  3
DesignerAssemblies
 90
        0
280
     0
281
     0
  0
CLASS
  1
ACAMCONTEXTMODELER
  2
AcAmContextModeler
  3
DesignerAssemblies
 90
        0
280
     0
281
     0
  0
CLASS
  1
ACMDATADICTIONARY
  2
AcmDataDictionary
  3
"AcmSymBB|Product Description: AutoCAD Mechanical 2004 DX|Company: Autodesk"
 90
        0
280
     0
281
     0
  0
CLASS
  1
CATALOGSTATE
  2
AcAmCatalogState
  3
DesignerAssemblies
 90
        0
280
     0
281
     0
  0
CLASS
  1
ACAMGRCOMPDEFSET
  2
AcAmGrCompDefSet
  3
DesignerAssemblies
 90
        0
280
     0
281
     0
  0
CLASS
  1
AMDTBROWSERDBTAB
  2
AmdtBrowserDbTab
  3
McadcomServices
 90
        0
280
     0
281
     0
  0
CLASS
  1
CBROWSERAPPOBJECT
  2
CBrowserAppObject
  3
McadcomServices
 90
        0
280
     0
281
     0
  0
CLASS
  1
DM_PLACEHOLDER
  2
AcDmSelsetPlaceholder
  3
AcMechDwgViewMgmt
 90
        0
280
     0
281
     0
  0
CLASS
  1
ACMSTANDARDANSI
  2
AcmStandardANSI
  3
"Amdt_StdImp|Product Description: AutoCAD Mechanical 2004 DX|Company: Autodesk"
 90
        0
280
     0
281
     0
  0
CLASS
  1
AMGOBJPROPCFG
  2
AmgObjPropCfg
  3
"AmgLay|Product Description: AutoCAD Mechanical 2000|Company: Autodesk"
 90
        1
280
     0
281
     0
  0
CLASS
  1
ACMSURFSTANDARDANSI
  2
AcmSurfTextStdANSI
  3
"Amdt_StdImp|Product Description: AutoCAD Mechanical 2004 DX|Company: Autodesk"
 90
        0
280
     0
281
     0
  0
CLASS
  1
ACMFCFSTANDARDANSI
  2
AcmFCFStdANSI
  3
"Amdt_StdImp|Product Description: AutoCAD Mechanical 2004 DX|Company: Autodesk"
 90
        0
280
     0
281
     0
  0
CLASS
  1
ACMWELDSTANDARDANSI
  2
AcmWeldingStdANSI
  3
"Amdt_StdImp|Product Description: AutoCAD Mechanical 2004 DX|Company: Autodesk"
 90
        0
280
     0
281
     0
  0
CLASS
  1
ACMIDSTANDARDANSI
  2
AcmIdStdANSI
  3
"Amdt_StdImp|Product Description: AutoCAD Mechanical 2004 DX|Company: Autodesk"
 90
        0
280
     0
281
     0
  0
CLASS
  1
ACMDATUMSTANDARDANSI
  2
AcmDatumStdANSI
  3
"Amdt_StdImp|Product Description: AutoCAD Mechanical 2004 DX|Company: Autodesk"
 90
        0
280
     0
281
     0
  0
CLASS
  1
ACMBOMSTANDARDANSI
  2
AcmBOMStdANSI
  3
"Amdt_StdImp|Product Description: AutoCAD Mechanical 2004 DX|Company: Autodesk"
 90
        0
280
     0
281
     0
  0
CLASS
  1
ACMDETAILSTANDARDANSI
  2
AmdtDetailSymStdANSI
  3
"Amdt_StdImp|Product Description: AutoCAD Mechanical 2004 DX|Company: Autodesk"
 90
        0
280
     0
281
     0
  0
CLASS
  1
ACMSECTIONSTANDARDANSI
  2
AmdtSectionSymStdANSI
  3
"Amdt_StdImp|Product Description: AutoCAD Mechanical 2004 DX|Company: Autodesk"
 90
        0
280
     0
281
     0
  0
CLASS
  1
ACMCENTERLINESTANDARDANSI
  2
AmdtCenterLineStdANSI
  3
"Amdt_StdImp|Product Description: AutoCAD Mechanical 2004 DX|Company: Autodesk"
 90
        0
280
     0
281
     0
  0
CLASS
  1
ACMTHREADLINESTANDARDANSI
  2
AmdtThreadLineStdANSI
  3
"Amdt_StdImp|Product Description: AutoCAD Mechanical 2004 DX|Company: Autodesk"
 90
        0
280
     0
281
     0
  0
CLASS
  1
ACMNOTESTANDARDANSI
  2
AmdtNoteStdANSI
  3
"Amdt_StdImp|Product Description: AutoCAD Mechanical 2004 DX|Company: Autodesk"
 90
        0
280
     0
281
     0
  0
CLASS
  1
AMDTNOTETEMPLATEDB
  2
AmdtNoteTemplateDB
  3
AMDT_STDIMP_MODULE_NAME
 90
        0
280
     0
281
     0
  0
CLASS
  1
ACAMGLAYSTD
  2
AcAmgLayStd
  3
"AcAmgLayStd|Product Description: AutoCAD Mechanical 2000|Company: Autodesk"
 90
        0
280
     0
281
     0
  0
CLASS
  1
ACAMGDIMSTD
  2
AcAmgDimStd
  3
"AcAmgDimStd|Product Description: AutoCAD Mechanical 2000|Company: Autodesk"
 90
        0
280
     0
281
     0
  0
CLASS
  1
ACAMGHOLECHARTSTDANSI
  2
AcAmgHoleChartStdANSI
  3
ACMSYMBB_MODULE_NAME
 90
        0
280
     0
281
     0
  0
CLASS
  1
ACAMGTITLESTD
  2
AcAmgTitleStd
  3
"TITLEAPP"
 90
        0
280
     0
281
     0
  0
CLASS
  1
ACAMGFILTERDAT
  2
AcAmgFilterDat
  3
"AcadM|Product Description: AutoCAD Mechanical 2000|Company: Autodesk"
 90
        0
280
     0
281
     0
  0
ENDSEC
  0
SECTION
  2
TABLES
  0
TABLE
  2
VPORT
  5
7
330
0
100
AcDbSymbolTable
 70
     3
  0
VPORT
  5
207
330
7
100
AcDbSymbolTableRecord
100
AcDbViewportTableRecord
  2
*Active
 70
     0
 10
0.0
 20
0.0
 11
1.0
 21
1.0
 12
112.0122274921733
 22
139.3139975301131
 13
0.0
 23
0.0
 14
1.0
 24
1.0
 15
0.0
 25
0.0
 16
0.0
 26
0.0
 36
1.0
 17
0.0
 27
0.0
 37
0.0
 40
75.43820386163673
 41
1.181318681318681
 42
50.0
 43
0.0
 44
0.0
 50
0.0
 51
0.0
 71
     0
 72
   100
 73
     1
 74
     1
 75
     0
 76
     0
 77
     0
 78
     0
281
     0
 65
     0
110
0.0
120
0.0
130
0.0
111
1.0
121
0.0
131
0.0
112
0.0
122
1.0
132
0.0
 79
     0
146
0.0
  0
ENDTAB
  0
TABLE
  2
LTYPE
  5
4
330
0
100
AcDbSymbolTable
 70
    17
  0
LTYPE
  5
11
330
4
100
AcDbSymbolTableRecord
100
AcDbLinetypeTableRecord
  2
BYBLOCK
 70
     0
  3

 72
    65
 73
     0
 40
0.0
  0
LTYPE
  5
12
330
4
100
AcDbSymbolTableRecord
100
AcDbLinetypeTableRecord
  2
BYLAYER
 70
     0
  3

 72
    65
 73
     0
 40
0.0
  0
LTYPE
  5
13
330
4
100
AcDbSymbolTableRecord
100
AcDbLinetypeTableRecord
  2
CONTINUOUS
 70
     0
  3
Solid line
 72
    65
 73
     0
 40
0.0
  0
LTYPE
  5
55
330
4
100
AcDbSymbolTableRecord
100
AcDbLinetypeTableRecord
  2
AI9-LTYPE1
 70
     0
  3
Illustrator Dash Style No.1
 72
    65
 73
     1
 40
0.352778
 49
0.352778
 74
     0
  0
LTYPE
  5
17C
330
4
100
AcDbSymbolTableRecord
100
AcDbLinetypeTableRecord
  2
HIDDEN
 70
     0
  3
Hidden __ __ __ __ __ __ __ __ __ __ __ __ __ _
 72
    65
 73
     2
 40
0.375
 49
0.25
 74
     0
 49
-0.125
 74
     0
  0
LTYPE
  5
17D
330
4
100
AcDbSymbolTableRecord
100
AcDbLinetypeTableRecord
  2
PHANTOM2
 70
     0
  3
Phantom (.5x) ___ _ _ ___ _ _ ___ _ _ ___ _ _
 72
    65
 73
     6
 40
1.25
 49
0.625
 74
     0
 49
-0.125
 74
     0
 49
0.125
 74
     0
 49
-0.125
 74
     0
 49
0.125
 74
     0
 49
-0.125
 74
     0
  0
LTYPE
  5
17E
330
4
100
AcDbSymbolTableRecord
100
AcDbLinetypeTableRecord
  2
CENTER
 70
     0
  3
Center ____ _ ____ _ ____ _ ____ _ ____ _ ____
 72
    65
 73
     4
 40
2.0
 49
1.25
 74
     0
 49
-0.25
 74
     0
 49
0.25
 74
     0
 49
-0.25
 74
     0
  0
LTYPE
  5
1B2
330
4
100
AcDbSymbolTableRecord
100
AcDbLinetypeTableRecord
  2
AM_ISO02W050
 70
     0
  3
__ __ __ __ __ __ __ __ __ __ __ __ __ __ __
 72
    65
 73
     2
 40
7.5
 49
6.0
 74
     0
 49
-1.5
 74
     0
  0
LTYPE
  5
1B3
330
4
100
AcDbSymbolTableRecord
100
AcDbLinetypeTableRecord
  2
AM_ISO08W050
 70
     0
  3
____ . ____ . ____ . ____ . ____ . ____ . ____
 72
    65
 73
     4
 40
18.0
 49
12.0
 74
     0
 49
-1.5
 74
     0
 49
3.0
 74
     0
 49
-1.5
 74
     0
  0
LTYPE
  5
1B4
330
4
100
AcDbSymbolTableRecord
100
AcDbLinetypeTableRecord
  2
AM_ISO09W050
 70
     0
  3
_____ . . _____ . . _____ . . ____ .. ____
 72
    65
 73
     6
 40
22.5
 49
12.0
 74
     0
 49
-1.5
 74
     0
 49
3.0
 74
     0
 49
-1.5
 74
     0
 49
3.0
 74
     0
 49
-1.5
 74
     0
  0
LTYPE
  5
1B5
330
4
100
AcDbSymbolTableRecord
100
AcDbLinetypeTableRecord
  2
Amconstr
 70
     0
  3
_______________________
 72
    65
 73
     2
 40
9999.0
 49
9999.0
 74
     0
 49
0.0
 74
     0
  0
LTYPE
  5
1B6
330
4
100
AcDbSymbolTableRecord
100
AcDbLinetypeTableRecord
  2
AM_ISO08W050x2
 70
     0
  3
__ . __ . __ . __ . __ . __
 72
    65
 73
     4
 40
9.0
 49
6.0
 74
     0
 49
-0.75
 74
     0
 49
1.5
 74
     0
 49
-0.75
 74
     0
  0
LTYPE
  5
1B7
330
4
100
AcDbSymbolTableRecord
100
AcDbLinetypeTableRecord
  2
AM_ISO02W050x2
 70
     0
  3
 _ _ _ _ _ _ _ _ _ _ _ _
 72
    65
 73
     2
 40
3.75
 49
3.0
 74
     0
 49
-0.75
 74
     0
  0
LTYPE
  5
1BA
330
4
100
AcDbSymbolTableRecord
100
AcDbLinetypeTableRecord
  2
Amzigzag
 70
     0
  3
/\/-/\/-/\/-/\/-/\/-/\/
 72
    65
 73
     2
 40
11.0001
 49
0.0001
 74
     4
 75
   136
340
1B9
 46
0.04
 50
0.0
 44
0.0
 45
0.0
 49
-11.0
 74
     0
  0
LTYPE
  5
1BB
330
4
100
AcDbSymbolTableRecord
100
AcDbLinetypeTableRecord
  2
CENTER2
 70
     0
  3
Center (.5x) ___ _ ___ _ ___ _ ___ _ ___ _ ___
 72
    65
 73
     4
 40
1.125
 49
0.75
 74
     0
 49
-0.125
 74
     0
 49
0.125
 74
     0
 49
-0.125
 74
     0
  0
LTYPE
  5
1BC
330
4
100
AcDbSymbolTableRecord
100
AcDbLinetypeTableRecord
  2
HIDDEN2
 70
     0
  3
Hidden (.5x) _ _ _ _ _ _ _ _ _ _ _ _ _ _ _ _ _
 72
    65
 73
     2
 40
0.1875
 49
0.125
 74
     0
 49
-0.0625
 74
     0
  0
LTYPE
  5
1BD
330
4
100
AcDbSymbolTableRecord
100
AcDbLinetypeTableRecord
  2
Amzigzag2
 70
     0
  3
/\/-/\/-/\/-/\/-/\/-/\/
 72
    65
 73
     2
 40
0.4401
 49
0.0001
 74
     4
 75
   136
340
1B9
 46
0.0016
 50
0.0
 44
0.0
 45
0.0
 49
-0.4400000000000001
 74
     0
  0
LTYPE
  5
1CB
330
4
100
AcDbSymbolTableRecord
100
AcDbLinetypeTableRecord
  2
ACANSTGB
 70
     0
  3
__ . . __ . .
 72
    65
 73
     6
 40
0.35433070866
 49
0.15748031496
 74
     0
 49
-0.03937007874
 74
     0
 49
0.03937007874
 74
     0
 49
-0.03937007874
 74
     0
 49
0.03937007874
 74
     0
 49
-0.03937007874
 74
     0
  0
LTYPE
  5
1CC
330
4
100
AcDbSymbolTableRecord
100
AcDbLinetypeTableRecord
  2
ACANSTGL
 70
     0
  3
_ _ _ _ _
 72
    65
 73
     2
 40
0.11811023622
 49
0.07874015748
 74
     0
 49
-0.03937007874
 74
     0
  0
ENDTAB
  0
TABLE
  2
LAYER
  5
2
330
0
100
AcDbSymbolTable
 70
     2
  0
LAYER
  5
14
330
2
100
AcDbSymbolTableRecord
100
AcDbLayerTableRecord
  2
0
 70
     0
 62
     7
  6
CONTINUOUS
370
    -3
390
13E
  0
LAYER
  5
21
330
2
100
AcDbSymbolTableRecord
100
AcDbLayerTableRecord
  2
LAYER_1
 70
     0
 62
     5
  6
CONTINUOUS
370
    -3
390
13E
  0
ENDTAB
  0
TABLE
  2
STYLE
  5
3
330
0
100
AcDbSymbolTable
 70
     8
  0
STYLE
  5
17
330
3
100
AcDbSymbolTableRecord
100
AcDbTextStyleTableRecord
  2
STANDARD
 70
     0
 40
0.0
 41
1.0
 50
0.0
 71
     0
 42
0.0
  3
txt
  4

  0
STYLE
  5
1D
330
3
100
AcDbSymbolTableRecord
100
AcDbTextStyleTableRecord
  2
STD
 70
     0
 40
0.0
 41
1.0
 50
0.0
 71
     0
 42
0.0
  3
txt
  4

  0
STYLE
  5
1E
330
3
100
AcDbSymbolTableRecord
100
AcDbTextStyleTableRecord
  2
TATESTD
 70
     4
 40
0.0
 41
1.0
 50
0.0
 71
     0
 42
0.0
  3
txt
  4

  0
STYLE
  5
1F
330
3
100
AcDbSymbolTableRecord
100
AcDbTextStyleTableRecord
  2
KANJISTD
 70
     0
 40
0.0
 41
1.0
 50
0.0
 71
     0
 42
0.0
  3
txt
  4
extfont
  0
STYLE
  5
20
330
3
100
AcDbSymbolTableRecord
100
AcDbTextStyleTableRecord
  2
KANJITATE
 70
     4
 40
0.0
 41
1.0
 50
0.0
 71
     0
 42
0.0
  3
txt
  4
extfont
  0
STYLE
  5
1B9
330
3
100
AcDbSymbolTableRecord
100
AcDbTextStyleTableRecord
  2

 70
     1
 40
0.0
 41
1.0
 50
0.0
 71
     0
 42
0.2
  3
genltshp.shx
  4

  0
STYLE
  5
1BE
330
3
100
AcDbSymbolTableRecord
100
AcDbTextStyleTableRecord
  2
ACANSTS
 70
     0
 40
1.0
 41
1.0
 50
0.0
 71
     0
 42
0.2
  3
romans.shx
  4

  0
STYLE
  5
1CA
330
3
100
AcDbSymbolTableRecord
100
AcDbTextStyleTableRecord
  2
ACANSGDT
 70
     0
 40
0.0
 41
1.0
 50
0.0
 71
     0
 42
0.2
  3
AMGDT
  4

  0
ENDTAB
  0
TABLE
  2
VIEW
  5
5
330
0
100
AcDbSymbolTable
 70
     0
  0
ENDTAB
  0
TABLE
  2
UCS
  5
6
330
0
100
AcDbSymbolTable
 70
     0
  0
ENDTAB
  0
TABLE
  2
APPID
  5
8
330
0
100
AcDbSymbolTable
 70
    11
  0
APPID
  5
16
330
8
100
AcDbSymbolTableRecord
100
AcDbRegAppTableRecord
  2
ACAD
 70
     0
  0
APPID
  5
14F
330
8
100
AcDbSymbolTableRecord
100
AcDbRegAppTableRecord
  2
MCAD_NO_VIS
 70
     0
  0
APPID
  5
150
330
8
100
AcDbSymbolTableRecord
100
AcDbRegAppTableRecord
  2
ACAD_TEMP_GRAPHIC
 70
     0
  0
APPID
  5
180
330
8
100
AcDbSymbolTableRecord
100
AcDbRegAppTableRecord
  2
AD_DRAW
 70
     0
  0
APPID
  5
183
330
8
100
AcDbSymbolTableRecord
100
AcDbRegAppTableRecord
  2
ACATTRIBSERVICES
 70
     0
  0
APPID
  5
1A3
330
8
100
AcDbSymbolTableRecord
100
AcDbRegAppTableRecord
  2
DESIGNERASSEMBLIES
 70
     0
  0
APPID
  5
1A9
330
8
100
AcDbSymbolTableRecord
100
AcDbRegAppTableRecord
  2
ACADM_DIM_EDIT
 70
     0
  0
APPID
  5
1AA
330
8
100
AcDbSymbolTableRecord
100
AcDbRegAppTableRecord
  2
AMDT_DM_ADJ
 70
     0
  0
APPID
  5
1D8
330
8
100
AcDbSymbolTableRecord
100
AcDbRegAppTableRecord
  2
ACAD_DSTYLE_DIMARC_LENGTH_SYMBOL
 70
     0
  0
APPID
  5
1D9
330
8
100
AcDbSymbolTableRecord
100
AcDbRegAppTableRecord
  2
ACAD_DSTYLE_DIMJOGGED_JOGANGLE_SYMBOL
 70
     0
  0
APPID
  5
201
330
8
100
AcDbSymbolTableRecord
100
AcDbRegAppTableRecord
  2
DCO15
 70
     0
  0
ENDTAB
  0
TABLE
  2
DIMSTYLE
  5
9
330
0
100
AcDbSymbolTable
 70
     7
100
AcDbDimStyleTable
 71
     0
  0
DIMSTYLE
105
18
330
9
100
AcDbSymbolTableRecord
100
AcDbDimStyleTableRecord
  2
STANDARD
 70
     0
340
17
  0
DIMSTYLE
105
1D7
330
9
100
AcDbSymbolTableRecord
100
AcDbDimStyleTableRecord
  2
AM_ANSI
 70
     0
  4
mm
 41
0.1
 42
0.05
 43
0.5
 44
0.1
 47
0.1
 48
0.1
 78
     7
 79
     2
140
0.12
141
0.0
146
0.71
147
0.06
176
   256
177
   256
178
     2
274
     4
284
     7
340
17
371
    -1
372
    -1
1001
ACAD_DSTYLE_DIMARC_LENGTH_SYMBOL
1070
   379
1070
     1
1001
ACAD_DSTYLE_DIMJOGGED_JOGANGLE_SYMBOL
1070
   384
1040
0.7853981633974483
  0
DIMSTYLE
105
1E0
330
9
100
AcDbSymbolTableRecord
100
AcDbDimStyleTableRecord
  2
AM_ANSI$3
 70
     0
  4
mm
 41
0.1
 42
0.05
 43
0.5
 44
0.1
 47
0.1
 48
0.1
 78
     7
 79
     2
140
0.12
141
0.0
146
0.71
147
0.06
176
   256
177
   256
178
     2
274
     4
284
     7
288
     1
289
     0
340
17
371
    -1
372
    -1
1001
ACAD_DSTYLE_DIMARC_LENGTH_SYMBOL
1070
   379
1070
     1
1001
ACAD_DSTYLE_DIMJOGGED_JOGANGLE_SYMBOL
1070
   384
1040
0.7853981633974483
  0
DIMSTYLE
105
1E3
330
9
100
AcDbSymbolTableRecord
100
AcDbDimStyleTableRecord
  2
AM_ANSI$4
 70
     0
  4
mm
 41
0.1
 42
0.05
 43
0.5
 44
0.1
 47
0.1
 48
0.1
 78
     7
 79
     2
140
0.12
141
0.0
146
0.71
147
0.06
176
   256
177
   256
178
     2
274
     4
284
     7
288
     1
289
     0
340
17
371
    -1
372
    -1
1001
ACAD_DSTYLE_DIMARC_LENGTH_SYMBOL
1070
   379
1070
     1
1001
ACAD_DSTYLE_DIMJOGGED_JOGANGLE_SYMBOL
1070
   384
1040
0.7853981633974483
  0
DIMSTYLE
105
1E8
330
9
100
AcDbSymbolTableRecord
100
AcDbDimStyleTableRecord
  2
AM_ANSI$7
 70
     0
  4
mm
 41
0.1
 42
0.05
 43
0.5
 44
0.1
 47
0.1
 48
0.1
 78
     7
 79
     2
140
0.24
141
0.0
146
0.71
147
0.06
176
   256
177
   256
178
     2
274
     4
284
     7
340
17
371
    -1
372
    -1
1001
ACAD_DSTYLE_DIMARC_LENGTH_SYMBOL
1070
   379
1070
     1
1001
ACAD_DSTYLE_DIMJOGGED_JOGANGLE_SYMBOL
1070
   384
1040
0.7853981633974483
  0
DIMSTYLE
105
1EB
330
9
100
AcDbSymbolTableRecord
100
AcDbDimStyleTableRecord
  2
AM_ANSI$SF
 70
     0
  4
mm
 41
0.1
 42
0.05
 43
0.5
 44
0.1
 47
0.1
 48
0.1
 75
     1
 76
     1
 78
     7
 79
     2
140
0.12
141
0.0
146
0.71
147
0.06
176
   256
177
   256
178
     2
274
     4
284
     7
340
17
371
    -1
372
    -1
1001
ACAD_DSTYLE_DIMARC_LENGTH_SYMBOL
1070
   379
1070
     1
1001
ACAD_DSTYLE_DIMJOGGED_JOGANGLE_SYMBOL
1070
   384
1040
0.7853981633974483
  0
DIMSTYLE
105
1F2
330
9
100
AcDbSymbolTableRecord
100
AcDbDimStyleTableRecord
  2
AM_ANSI$SH
 70
     0
  4
mm
 41
0.1
 42
0.05
 43
0.5
 44
0.1
 47
0.1
 48
0.1
 75
     1
 76
     1
 78
     7
 79
     2
140
0.12
141
0.0
146
0.71
147
0.06
173
     1
176
   256
177
   256
178
     2
274
     4
284
     7
340
17
343
1EC
371
    -1
372
    -1
1001
ACAD_DSTYLE_DIMARC_LENGTH_SYMBOL
1070
   379
1070
     1
1001
ACAD_DSTYLE_DIMJOGGED_JOGANGLE_SYMBOL
1070
   384
1040
0.7853981633974483
  0
ENDTAB
  0
TABLE
  2
BLOCK_RECORD
  5
1
330
0
100
AcDbSymbolTable
 70
     4
  0
BLOCK_RECORD
  5
A
330
1
100
AcDbSymbolTableRecord
100
AcDbBlockTableRecord
  2
*MODEL_SPACE
340
145
  0
BLOCK_RECORD
  5
B
330
1
100
AcDbSymbolTableRecord
100
AcDbBlockTableRecord
  2
*PAPER_SPACE
340
146
  0
BLOCK_RECORD
  5
5D
330
1
100
AcDbSymbolTableRecord
100
AcDbBlockTableRecord
  2
AI9-BLK1
340
0
102
{BLKREFS
331
5E
102
}
  0
BLOCK_RECORD
  5
74
330
1
100
AcDbSymbolTableRecord
100
AcDbBlockTableRecord
  2
AI9-BLK2
340
0
102
{BLKREFS
331
75
102
}
  0
BLOCK_RECORD
  5
1EC
330
1
100
AcDbSymbolTableRecord
100
AcDbBlockTableRecord
  2
GENAXEH
340
0
  0
ENDTAB
  0
ENDSEC
  0
SECTION
  2
BLOCKS
  0
BLOCK
  5
D
330
A
100
AcDbEntity
  8
0
100
AcDbBlockBegin
  2
*MODEL_SPACE
 70
     0
 10
0.0
 20
0.0
 30
0.0
  3
*MODEL_SPACE
  1

  0
ENDBLK
  5
E
330
A
100
AcDbEntity
  8
0
100
AcDbBlockEnd
  0
BLOCK
  5
F
330
B
100
AcDbEntity
 67
     1
  8
0
100
AcDbBlockBegin
  2
*PAPER_SPACE
 70
     0
 10
0.0
 20
0.0
 30
0.0
  3
*PAPER_SPACE
  1

  0
ENDBLK
  5
10
330
B
100
AcDbEntity
 67
     1
  8
0
100
AcDbBlockEnd
  0
BLOCK
  5
5F
330
5D
100
AcDbEntity
  8
0
 62
     7
100
AcDbBlockBegin
  2
AI9-BLK1
 70
     0
 10
0.0
 20
0.0
 30
0.0
  3
AI9-BLK1
  1

  0
INSERT
  5
75
330
5D
100
AcDbEntity
  8
LAYER_1
  6
AI9-LTYPE1
 62
     7
100
AcDbBlockReference
  2
AI9-BLK2
 10
0.0
 20
18.81048
 30
0.0
  0
POLYLINE
  5
6F
330
5D
100
AcDbEntity
  8
LAYER_1
  6
AI9-LTYPE1
 62
     7
100
AcDb2dPolyline
 66
     1
 10
0.0
 20
0.0
 30
0.0
  0
VERTEX
  5
70
330
6F
100
AcDbEntity
  8
LAYER_1
  6
AI9-LTYPE1
 62
     7
100
AcDbVertex
100
AcDb2dVertex
 10
-11.337981
 20
-13.631898
 30
0.0
  0
VERTEX
  5
71
330
6F
100
AcDbEntity
  8
LAYER_1
  6
AI9-LTYPE1
 62
     7
100
AcDbVertex
100
AcDb2dVertex
 10
-10.237273
 20
-14.648029
 30
0.0
  0
VERTEX
  5
72
330
6F
100
AcDbEntity
  8
LAYER_1
  6
AI9-LTYPE1
 62
     7
100
AcDbVertex
100
AcDb2dVertex
 10
-7.931299
 20
-14.648029
 30
0.0
  0
SEQEND
  5
73
330
6F
100
AcDbEntity
  8
LAYER_1
  6
AI9-LTYPE1
 62
     7
  0
POLYLINE
  5
6A
330
5D
100
AcDbEntity
  8
LAYER_1
  6
AI9-LTYPE1
 62
     7
100
AcDb2dPolyline
 66
     1
 10
0.0
 20
0.0
 30
0.0
  0
VERTEX
  5
6B
330
6A
100
AcDbEntity
  8
LAYER_1
  6
AI9-LTYPE1
 62
     7
100
AcDbVertex
100
AcDb2dVertex
 10
-11.337981
 20
-17.560341
 30
0.0
  0
VERTEX
  5
6C
330
6A
100
AcDbEntity
  8
LAYER_1
  6
AI9-LTYPE1
 62
     7
100
AcDbVertex
100
AcDb2dVertex
 10
-10.237273
 20
-16.544382
 30
0.0
  0
VERTEX
  5
6D
330
6A
100
AcDbEntity
  8
LAYER_1
  6
AI9-LTYPE1
 62
     7
100
AcDbVertex
100
AcDb2dVertex
 10
-7.931299
 20
-16.544382
 30
0.0
  0
SEQEND
  5
6E
330
6A
100
AcDbEntity
  8
LAYER_1
  6
AI9-LTYPE1
 62
     7
  0
POLYLINE
  5
60
330
5D
100
AcDbEntity
  8
LAYER_1
 62
     7
100
AcDb2dPolyline
 66
     1
 10
0.0
 20
0.0
 30
0.0
 70
     1
  0
VERTEX
  5
61
330
60
100
AcDbEntity
  8
LAYER_1
 62
     7
100
AcDbVertex
100
AcDb2dVertex
 10
-11.053761
 20
-22.86062
 30
0.0
  0
VERTEX
  5
62
330
60
100
AcDbEntity
  8
LAYER_1
 62
     7
100
AcDbVertex
100
AcDb2dVertex
 10
-7.320139
 20
-22.86062
 30
0.0
  0
VERTEX
  5
63
330
60
100
AcDbEntity
  8
LAYER_1
 62
     7
100
AcDbVertex
100
AcDb2dVertex
 10
-7.019899
 20
-22.507842
 30
0.0
  0
VERTEX
  5
64
330
60
100
AcDbEntity
  8
LAYER_1
 62
     7
100
AcDbVertex
100
AcDb2dVertex
 10
-7.019899
 20
-8.608432
 30
0.0
  0
VERTEX
  5
65
330
60
100
AcDbEntity
  8
LAYER_1
 62
     7
100
AcDbVertex
100
AcDb2dVertex
 10
-7.290683
 20
-8.255655
 30
0.0
  0
VERTEX
  5
66
330
60
100
AcDbEntity
  8
LAYER_1
 62
     7
100
AcDbVertex
100
AcDb2dVertex
 10
-11.053761
 20
-8.255655
 30
0.0
  0
VERTEX
  5
67
330
60
100
AcDbEntity
  8
LAYER_1
 62
     7
100
AcDbVertex
100
AcDb2dVertex
 10
-11.337981
 20
-8.608432
 30
0.0
  0
VERTEX
  5
68
330
60
100
AcDbEntity
  8
LAYER_1
 62
     7
100
AcDbVertex
100
AcDb2dVertex
 10
-11.337981
 20
-22.507842
 30
0.0
  0
SEQEND
  5
69
330
60
100
AcDbEntity
  8
LAYER_1
 62
     7
  0
ENDBLK
  5
10F
330
5D
100
AcDbEntity
  8
0
100
AcDbBlockEnd
  0
BLOCK
  5
76
330
74
100
AcDbEntity
  8
0
 62
     7
100
AcDbBlockBegin
  2
AI9-BLK2
 70
     0
 10
0.0
 20
0.0
 30
0.0
  3
AI9-BLK2
  1

  0
POLYLINE
  5
94
330
74
100
AcDbEntity
  8
LAYER_1
 62
     7
100
AcDb2dPolyline
 66
     1
 10
0.0
 20
0.0
 30
0.0
 70
     1
  0
VERTEX
  5
95
330
94
100
AcDbEntity
  8
LAYER_1
 62
     7
100
AcDbVertex
100
AcDb2dVertex
 10
-9.062496000000001
 20
-3.287912999999999
 30
0.0
  0
VERTEX
  5
96
330
94
100
AcDbEntity
  8
LAYER_1
 62
     7
100
AcDbVertex
100
AcDb2dVertex
 10
-8.617905999999999
 20
-3.954710999999999
 30
0.0
  0
VERTEX
  5
97
330
94
100
AcDbEntity
  8
LAYER_1
 62
     7
100
AcDbVertex
100
AcDb2dVertex
 10
-8.237050999999999
 20
-3.287912999999999
 30
0.0
  0
VERTEX
  5
98
330
94
100
AcDbEntity
  8
LAYER_1
 62
     7
100
AcDbVertex
100
AcDb2dVertex
 10
-7.856022999999999
 20
-3.923016
 30
0.0
  0
VERTEX
  5
99
330
94
100
AcDbEntity
  8
LAYER_1
 62
     7
100
AcDbVertex
100
AcDb2dVertex
 10
-7.506691
 20
-3.287912999999999
 30
0.0
  0
VERTEX
  5
9A
330
94
100
AcDbEntity
  8
LAYER_1
 62
     7
100
AcDbVertex
100
AcDb2dVertex
 10
-7.062272999999999
 20
-3.923016
 30
0.0
  0
VERTEX
  5
9B
330
94
100
AcDbEntity
  8
LAYER_1
 62
     7
100
AcDbVertex
100
AcDb2dVertex
 10
-6.649550999999999
 20
-3.287912999999999
 30
0.0
  0
VERTEX
  5
9C
330
94
100
AcDbEntity
  8
LAYER_1
 62
     7
100
AcDbVertex
100
AcDb2dVertex
 10
-6.268523
 20
-3.923016
 30
0.0
  0
VERTEX
  5
9D
330
94
100
AcDbEntity
  8
LAYER_1
 62
     7
100
AcDbVertex
100
AcDb2dVertex
 10
-5.887495999999999
 20
-3.287912999999999
 30
0.0
  0
VERTEX
  5
9E
330
94
100
AcDbEntity
  8
LAYER_1
 62
     7
100
AcDbVertex
100
AcDb2dVertex
 10
-5.474772999999999
 20
-3.923016
 30
0.0
  0
VERTEX
  5
9F
330
94
100
AcDbEntity
  8
LAYER_1
 62
     7
100
AcDbVertex
100
AcDb2dVertex
 10
-5.093746
 20
-3.287912999999999
 30
0.0
  0
VERTEX
  5
A0
330
94
100
AcDbEntity
  8
LAYER_1
 62
     7
100
AcDbVertex
100
AcDb2dVertex
 10
-4.681023
 20
-3.923016
 30
0.0
  0
VERTEX
  5
A1
330
94
100
AcDbEntity
  8
LAYER_1
 62
     7
100
AcDbVertex
100
AcDb2dVertex
 10
-4.268301
 20
-3.287912999999999
 30
0.0
  0
VERTEX
  5
A2
330
94
100
AcDbEntity
  8
LAYER_1
 62
     7
100
AcDbVertex
100
AcDb2dVertex
 10
-3.887273
 20
-3.923016
 30
0.0
  0
VERTEX
  5
A3
330
94
100
AcDbEntity
  8
LAYER_1
 62
     7
100
AcDbVertex
100
AcDb2dVertex
 10
-3.506245999999999
 20
-3.287912999999999
 30
0.0
  0
VERTEX
  5
A4
330
94
100
AcDbEntity
  8
LAYER_1
 62
     7
100
AcDbVertex
100
AcDb2dVertex
 10
-3.093522999999999
 20
-3.923016
 30
0.0
  0
VERTEX
  5
A5
330
94
100
AcDbEntity
  8
LAYER_1
 62
     7
100
AcDbVertex
100
AcDb2dVertex
 10
-2.712495999999999
 20
-3.287912999999999
 30
0.0
  0
VERTEX
  5
A6
330
94
100
AcDbEntity
  8
LAYER_1
 62
     7
100
AcDbVertex
100
AcDb2dVertex
 10
-2.299773
 20
-3.923016
 30
0.0
  0
VERTEX
  5
A7
330
94
100
AcDbEntity
  8
LAYER_1
 62
     7
100
AcDbVertex
100
AcDb2dVertex
 10
-1.918745999999999
 20
-3.287912999999999
 30
0.0
  0
VERTEX
  5
A8
330
94
100
AcDbEntity
  8
LAYER_1
 62
     7
100
AcDbVertex
100
AcDb2dVertex
 10
-1.506022999999999
 20
-3.923016
 30
0.0
  0
VERTEX
  5
A9
330
94
100
AcDbEntity
  8
LAYER_1
 62
     7
100
AcDbVertex
100
AcDb2dVertex
 10
-1.093301
 20
-3.287912999999999
 30
0.0
  0
VERTEX
  5
AA
330
94
100
AcDbEntity
  8
LAYER_1
 62
     7
100
AcDbVertex
100
AcDb2dVertex
 10
-0.7122729999999999
 20
-3.923016
 30
0.0
  0
VERTEX
  5
AB
330
94
100
AcDbEntity
  8
LAYER_1
 62
     7
100
AcDbVertex
100
AcDb2dVertex
 10
-0.299551
 20
-3.287912999999999
 30
0.0
  0
VERTEX
  5
AC
330
94
100
AcDbEntity
  8
LAYER_1
 62
     7
100
AcDbVertex
100
AcDb2dVertex
 10
0.081477
 20
-3.923016
 30
0.0
  0
VERTEX
  5
AD
330
94
100
AcDbEntity
  8
LAYER_1
 62
     7
100
AcDbVertex
100
AcDb2dVertex
 10
0.462504
 20
-3.287912999999999
 30
0.0
  0
VERTEX
  5
AE
330
94
100
AcDbEntity
  8
LAYER_1
 62
     7
100
AcDbVertex
100
AcDb2dVertex
 10
0.8752270000000001
 20
-3.923016
 30
0.0
  0
VERTEX
  5
AF
330
94
100
AcDbEntity
  8
LAYER_1
 62
     7
100
AcDbVertex
100
AcDb2dVertex
 10
1.287949
 20
-3.287912999999999
 30
0.0
  0
VERTEX
  5
B0
330
94
100
AcDbEntity
  8
LAYER_1
 62
     7
100
AcDbVertex
100
AcDb2dVertex
 10
1.668976999999999
 20
-3.923016
 30
0.0
  0
VERTEX
  5
B1
330
94
100
AcDbEntity
  8
LAYER_1
 62
     7
100
AcDbVertex
100
AcDb2dVertex
 10
2.050003999999999
 20
-3.287912999999999
 30
0.0
  0
VERTEX
  5
B2
330
94
100
AcDbEntity
  8
LAYER_1
 62
     7
100
AcDbVertex
100
AcDb2dVertex
 10
2.462727
 20
-3.923016
 30
0.0
  0
VERTEX
  5
B3
330
94
100
AcDbEntity
  8
LAYER_1
 62
     7
100
AcDbVertex
100
AcDb2dVertex
 10
2.875449
 20
-3.287912999999999
 30
0.0
  0
VERTEX
  5
B4
330
94
100
AcDbEntity
  8
LAYER_1
 62
     7
100
AcDbVertex
100
AcDb2dVertex
 10
3.256476999999999
 20
-3.923016
 30
0.0
  0
VERTEX
  5
B5
330
94
100
AcDbEntity
  8
LAYER_1
 62
     7
100
AcDbVertex
100
AcDb2dVertex
 10
3.669198999999999
 20
-3.287912999999999
 30
0.0
  0
VERTEX
  5
B6
330
94
100
AcDbEntity
  8
LAYER_1
 62
     7
100
AcDbVertex
100
AcDb2dVertex
 10
4.050226999999999
 20
-3.923016
 30
0.0
  0
VERTEX
  5
B7
330
94
100
AcDbEntity
  8
LAYER_1
 62
     7
100
AcDbVertex
100
AcDb2dVertex
 10
4.462949
 20
-3.287912999999999
 30
0.0
  0
VERTEX
  5
B8
330
94
100
AcDbEntity
  8
LAYER_1
 62
     7
100
AcDbVertex
100
AcDb2dVertex
 10
4.875670999999999
 20
-3.923016
 30
0.0
  0
VERTEX
  5
B9
330
94
100
AcDbEntity
  8
LAYER_1
 62
     7
100
AcDbVertex
100
AcDb2dVertex
 10
5.288394
 20
-3.287912999999999
 30
0.0
  0
VERTEX
  5
BA
330
94
100
AcDbEntity
  8
LAYER_1
 62
     7
100
AcDbVertex
100
AcDb2dVertex
 10
5.669420999999999
 20
-3.923016
 30
0.0
  0
VERTEX
  5
BB
330
94
100
AcDbEntity
  8
LAYER_1
 62
     7
100
AcDbVertex
100
AcDb2dVertex
 10
6.050448999999999
 20
-3.287912999999999
 30
0.0
  0
VERTEX
  5
BC
330
94
100
AcDbEntity
  8
LAYER_1
 62
     7
100
AcDbVertex
100
AcDb2dVertex
 10
6.463170999999999
 20
-3.923016
 30
0.0
  0
VERTEX
  5
BD
330
94
100
AcDbEntity
  8
LAYER_1
 62
     7
100
AcDbVertex
100
AcDb2dVertex
 10
6.780636999999999
 20
-3.287912999999999
 30
0.0
  0
VERTEX
  5
BE
330
94
100
AcDbEntity
  8
LAYER_1
 62
     7
100
AcDbVertex
100
AcDb2dVertex
 10
7.256921000000001
 20
-3.923016
 30
0.0
  0
VERTEX
  5
BF
330
94
100
AcDbEntity
  8
LAYER_1
 62
     7
100
AcDbVertex
100
AcDb2dVertex
 10
7.669643999999999
 20
-3.287912999999999
 30
0.0
  0
VERTEX
  5
C0
330
94
100
AcDbEntity
  8
LAYER_1
 62
     7
100
AcDbVertex
100
AcDb2dVertex
 10
8.050671000000001
 20
-3.923016
 30
0.0
  0
VERTEX
  5
C1
330
94
100
AcDbEntity
  8
LAYER_1
 62
     7
100
AcDbVertex
100
AcDb2dVertex
 10
8.400003999999999
 20
-3.287912999999999
 30
0.0
  0
VERTEX
  5
C2
330
94
100
AcDbEntity
  8
LAYER_1
 62
     7
100
AcDbVertex
100
AcDb2dVertex
 10
8.812727
 20
-3.923016
 30
0.0
  0
VERTEX
  5
C3
330
94
100
AcDbEntity
  8
LAYER_1
 62
     7
100
AcDbVertex
100
AcDb2dVertex
 10
9.225449000000001
 20
-3.287912999999999
 30
0.0
  0
VERTEX
  5
C4
330
94
100
AcDbEntity
  8
LAYER_1
 62
     7
100
AcDbVertex
100
AcDb2dVertex
 10
9.638170999999999
 20
-3.923016
 30
0.0
  0
VERTEX
  5
C5
330
94
100
AcDbEntity
  8
LAYER_1
 62
     7
100
AcDbVertex
100
AcDb2dVertex
 10
10.019199
 20
-3.287912999999999
 30
0.0
  0
VERTEX
  5
C6
330
94
100
AcDbEntity
  8
LAYER_1
 62
     7
100
AcDbVertex
100
AcDb2dVertex
 10
10.400054
 20
-3.923016
 30
0.0
  0
VERTEX
  5
C7
330
94
100
AcDbEntity
  8
LAYER_1
 62
     7
100
AcDbVertex
100
AcDb2dVertex
 10
10.781254
 20
-3.287912999999999
 30
0.0
  0
VERTEX
  5
C8
330
94
100
AcDbEntity
  8
LAYER_1
 62
     7
100
AcDbVertex
100
AcDb2dVertex
 10
11.193804
 20
-3.923016
 30
0.0
  0
VERTEX
  5
C9
330
94
100
AcDbEntity
  8
LAYER_1
 62
     7
100
AcDbVertex
100
AcDb2dVertex
 10
11.575004
 20
-3.287912999999999
 30
0.0
  0
VERTEX
  5
CA
330
94
100
AcDbEntity
  8
LAYER_1
 62
     7
100
AcDbVertex
100
AcDb2dVertex
 10
12.019421
 20
-3.923016
 30
0.0
  0
VERTEX
  5
CB
330
94
100
AcDbEntity
  8
LAYER_1
 62
     7
100
AcDbVertex
100
AcDb2dVertex
 10
12.368754
 20
-3.287912999999999
 30
0.0
  0
VERTEX
  5
CC
330
94
100
AcDbEntity
  8
LAYER_1
 62
     7
100
AcDbVertex
100
AcDb2dVertex
 10
12.781304
 20
-3.923016
 30
0.0
  0
VERTEX
  5
CD
330
94
100
AcDbEntity
  8
LAYER_1
 62
     7
100
AcDbVertex
100
AcDb2dVertex
 10
13.194199
 20
-3.31978
 30
0.0
  0
VERTEX
  5
CE
330
94
100
AcDbEntity
  8
LAYER_1
 62
     7
100
AcDbVertex
100
AcDb2dVertex
 10
13.521139
 20
-3.717172
 30
0.0
  0
VERTEX
  5
CF
330
94
100
AcDbEntity
  8
LAYER_1
 62
     7
100
AcDbVertex
100
AcDb2dVertex
 10
13.666005
 20
-3.374212999999999
 30
0.0
  0
VERTEX
  5
D0
330
94
100
AcDbEntity
  8
LAYER_1
 62
     7
100
AcDbVertex
100
AcDb2dVertex
 10
13.638616
 20
3.347684999999999
 30
0.0
  0
VERTEX
  5
D1
330
94
100
AcDbEntity
  8
LAYER_1
 62
     7
100
AcDbVertex
100
AcDb2dVertex
 10
13.194199
 20
3.950922
 30
0.0
  0
VERTEX
  5
D2
330
94
100
AcDbEntity
  8
LAYER_1
 62
     7
100
AcDbVertex
100
AcDb2dVertex
 10
12.813171
 20
3.379553
 30
0.0
  0
VERTEX
  5
D3
330
94
100
AcDbEntity
  8
LAYER_1
 62
     7
100
AcDbVertex
100
AcDb2dVertex
 10
12.400449
 20
3.950922
 30
0.0
  0
VERTEX
  5
D4
330
94
100
AcDbEntity
  8
LAYER_1
 62
     7
100
AcDbVertex
100
AcDb2dVertex
 10
12.019421
 20
3.347684999999999
 30
0.0
  0
VERTEX
  5
D5
330
94
100
AcDbEntity
  8
LAYER_1
 62
     7
100
AcDbVertex
100
AcDb2dVertex
 10
11.606699
 20
3.950922
 30
0.0
  0
VERTEX
  5
D6
330
94
100
AcDbEntity
  8
LAYER_1
 62
     7
100
AcDbVertex
100
AcDb2dVertex
 10
11.225671
 20
3.347684999999999
 30
0.0
  0
VERTEX
  5
D7
330
94
100
AcDbEntity
  8
LAYER_1
 62
     7
100
AcDbVertex
100
AcDb2dVertex
 10
10.844644
 20
3.950922
 30
0.0
  0
VERTEX
  5
D8
330
94
100
AcDbEntity
  8
LAYER_1
 62
     7
100
AcDbVertex
100
AcDb2dVertex
 10
10.463616
 20
3.347684999999999
 30
0.0
  0
VERTEX
  5
D9
330
94
100
AcDbEntity
  8
LAYER_1
 62
     7
100
AcDbVertex
100
AcDb2dVertex
 10
10.019199
 20
3.950922
 30
0.0
  0
VERTEX
  5
DA
330
94
100
AcDbEntity
  8
LAYER_1
 62
     7
100
AcDbVertex
100
AcDb2dVertex
 10
9.638170999999999
 20
3.347684999999999
 30
0.0
  0
VERTEX
  5
DB
330
94
100
AcDbEntity
  8
LAYER_1
 62
     7
100
AcDbVertex
100
AcDb2dVertex
 10
9.225449000000001
 20
3.950922
 30
0.0
  0
VERTEX
  5
DC
330
94
100
AcDbEntity
  8
LAYER_1
 62
     7
100
AcDbVertex
100
AcDb2dVertex
 10
8.812727
 20
3.347684999999999
 30
0.0
  0
VERTEX
  5
DD
330
94
100
AcDbEntity
  8
LAYER_1
 62
     7
100
AcDbVertex
100
AcDb2dVertex
 10
8.400003999999999
 20
3.950922
 30
0.0
  0
VERTEX
  5
DE
330
94
100
AcDbEntity
  8
LAYER_1
 62
     7
100
AcDbVertex
100
AcDb2dVertex
 10
8.050671000000001
 20
3.379553
 30
0.0
  0
VERTEX
  5
DF
330
94
100
AcDbEntity
  8
LAYER_1
 62
     7
100
AcDbVertex
100
AcDb2dVertex
 10
7.637949
 20
3.950922
 30
0.0
  0
VERTEX
  5
E0
330
94
100
AcDbEntity
  8
LAYER_1
 62
     7
100
AcDbVertex
100
AcDb2dVertex
 10
7.256921000000001
 20
3.379553
 30
0.0
  0
VERTEX
  5
E1
330
94
100
AcDbEntity
  8
LAYER_1
 62
     7
100
AcDbVertex
100
AcDb2dVertex
 10
6.844199
 20
3.950922
 30
0.0
  0
VERTEX
  5
E2
330
94
100
AcDbEntity
  8
LAYER_1
 62
     7
100
AcDbVertex
100
AcDb2dVertex
 10
6.463170999999999
 20
3.379553
 30
0.0
  0
VERTEX
  5
E3
330
94
100
AcDbEntity
  8
LAYER_1
 62
     7
100
AcDbVertex
100
AcDb2dVertex
 10
6.050448999999999
 20
3.950922
 30
0.0
  0
VERTEX
  5
E4
330
94
100
AcDbEntity
  8
LAYER_1
 62
     7
100
AcDbVertex
100
AcDb2dVertex
 10
5.637726999999999
 20
3.379553
 30
0.0
  0
VERTEX
  5
E5
330
94
100
AcDbEntity
  8
LAYER_1
 62
     7
100
AcDbVertex
100
AcDb2dVertex
 10
5.256699
 20
3.950922
 30
0.0
  0
VERTEX
  5
E6
330
94
100
AcDbEntity
  8
LAYER_1
 62
     7
100
AcDbVertex
100
AcDb2dVertex
 10
4.875670999999999
 20
3.379553
 30
0.0
  0
VERTEX
  5
E7
330
94
100
AcDbEntity
  8
LAYER_1
 62
     7
100
AcDbVertex
100
AcDb2dVertex
 10
4.462949
 20
3.950922
 30
0.0
  0
VERTEX
  5
E8
330
94
100
AcDbEntity
  8
LAYER_1
 62
     7
100
AcDbVertex
100
AcDb2dVertex
 10
4.081921
 20
3.379553
 30
0.0
  0
VERTEX
  5
E9
330
94
100
AcDbEntity
  8
LAYER_1
 62
     7
100
AcDbVertex
100
AcDb2dVertex
 10
3.669198999999999
 20
3.950922
 30
0.0
  0
VERTEX
  5
EA
330
94
100
AcDbEntity
  8
LAYER_1
 62
     7
100
AcDbVertex
100
AcDb2dVertex
 10
3.288170999999999
 20
3.379553
 30
0.0
  0
VERTEX
  5
EB
330
94
100
AcDbEntity
  8
LAYER_1
 62
     7
100
AcDbVertex
100
AcDb2dVertex
 10
2.875449
 20
3.950922
 30
0.0
  0
VERTEX
  5
EC
330
94
100
AcDbEntity
  8
LAYER_1
 62
     7
100
AcDbVertex
100
AcDb2dVertex
 10
2.462727
 20
3.379553
 30
0.0
  0
VERTEX
  5
ED
330
94
100
AcDbEntity
  8
LAYER_1
 62
     7
100
AcDbVertex
100
AcDb2dVertex
 10
2.081698999999999
 20
3.950922
 30
0.0
  0
VERTEX
  5
EE
330
94
100
AcDbEntity
  8
LAYER_1
 62
     7
100
AcDbVertex
100
AcDb2dVertex
 10
1.700670999999999
 20
3.379553
 30
0.0
  0
VERTEX
  5
EF
330
94
100
AcDbEntity
  8
LAYER_1
 62
     7
100
AcDbVertex
100
AcDb2dVertex
 10
1.287949
 20
3.950922
 30
0.0
  0
VERTEX
  5
F0
330
94
100
AcDbEntity
  8
LAYER_1
 62
     7
100
AcDbVertex
100
AcDb2dVertex
 10
0.938789
 20
3.379553
 30
0.0
  0
VERTEX
  5
F1
330
94
100
AcDbEntity
  8
LAYER_1
 62
     7
100
AcDbVertex
100
AcDb2dVertex
 10
0.494199
 20
3.950922
 30
0.0
  0
VERTEX
  5
F2
330
94
100
AcDbEntity
  8
LAYER_1
 62
     7
100
AcDbVertex
100
AcDb2dVertex
 10
0.113171
 20
3.379553
 30
0.0
  0
VERTEX
  5
F3
330
94
100
AcDbEntity
  8
LAYER_1
 62
     7
100
AcDbVertex
100
AcDb2dVertex
 10
-0.299551
 20
3.950922
 30
0.0
  0
VERTEX
  5
F4
330
94
100
AcDbEntity
  8
LAYER_1
 62
     7
100
AcDbVertex
100
AcDb2dVertex
 10
-0.680579
 20
3.379553
 30
0.0
  0
VERTEX
  5
F5
330
94
100
AcDbEntity
  8
LAYER_1
 62
     7
100
AcDbVertex
100
AcDb2dVertex
 10
-1.093301
 20
3.950922
 30
0.0
  0
VERTEX
  5
F6
330
94
100
AcDbEntity
  8
LAYER_1
 62
     7
100
AcDbVertex
100
AcDb2dVertex
 10
-1.474329
 20
3.379553
 30
0.0
  0
VERTEX
  5
F7
330
94
100
AcDbEntity
  8
LAYER_1
 62
     7
100
AcDbVertex
100
AcDb2dVertex
 10
-1.887050999999999
 20
3.950922
 30
0.0
  0
VERTEX
  5
F8
330
94
100
AcDbEntity
  8
LAYER_1
 62
     7
100
AcDbVertex
100
AcDb2dVertex
 10
-2.268079
 20
3.379553
 30
0.0
  0
VERTEX
  5
F9
330
94
100
AcDbEntity
  8
LAYER_1
 62
     7
100
AcDbVertex
100
AcDb2dVertex
 10
-2.680800999999999
 20
3.950922
 30
0.0
  0
VERTEX
  5
FA
330
94
100
AcDbEntity
  8
LAYER_1
 62
     7
100
AcDbVertex
100
AcDb2dVertex
 10
-3.029961
 20
3.379553
 30
0.0
  0
VERTEX
  5
FB
330
94
100
AcDbEntity
  8
LAYER_1
 62
     7
100
AcDbVertex
100
AcDb2dVertex
 10
-3.474551
 20
3.950922
 30
0.0
  0
VERTEX
  5
FC
330
94
100
AcDbEntity
  8
LAYER_1
 62
     7
100
AcDbVertex
100
AcDb2dVertex
 10
-3.855579
 20
3.379553
 30
0.0
  0
VERTEX
  5
FD
330
94
100
AcDbEntity
  8
LAYER_1
 62
     7
100
AcDbVertex
100
AcDb2dVertex
 10
-4.268301
 20
3.950922
 30
0.0
  0
VERTEX
  5
FE
330
94
100
AcDbEntity
  8
LAYER_1
 62
     7
100
AcDbVertex
100
AcDb2dVertex
 10
-4.649155999999999
 20
3.379553
 30
0.0
  0
VERTEX
  5
FF
330
94
100
AcDbEntity
  8
LAYER_1
 62
     7
100
AcDbVertex
100
AcDb2dVertex
 10
-5.062051
 20
3.950922
 30
0.0
  0
VERTEX
  5
100
330
94
100
AcDbEntity
  8
LAYER_1
 62
     7
100
AcDbVertex
100
AcDb2dVertex
 10
-5.411210999999999
 20
3.379553
 30
0.0
  0
VERTEX
  5
101
330
94
100
AcDbEntity
  8
LAYER_1
 62
     7
100
AcDbVertex
100
AcDb2dVertex
 10
-5.855801
 20
3.950922
 30
0.0
  0
VERTEX
  5
102
330
94
100
AcDbEntity
  8
LAYER_1
 62
     7
100
AcDbVertex
100
AcDb2dVertex
 10
-6.204960999999999
 20
3.379553
 30
0.0
  0
VERTEX
  5
103
330
94
100
AcDbEntity
  8
LAYER_1
 62
     7
100
AcDbVertex
100
AcDb2dVertex
 10
-6.617855999999999
 20
3.950922
 30
0.0
  0
VERTEX
  5
104
330
94
100
AcDbEntity
  8
LAYER_1
 62
     7
100
AcDbVertex
100
AcDb2dVertex
 10
-6.998711
 20
3.379553
 30
0.0
  0
VERTEX
  5
105
330
94
100
AcDbEntity
  8
LAYER_1
 62
     7
100
AcDbVertex
100
AcDb2dVertex
 10
-7.443300999999999
 20
3.950922
 30
0.0
  0
VERTEX
  5
106
330
94
100
AcDbEntity
  8
LAYER_1
 62
     7
100
AcDbVertex
100
AcDb2dVertex
 10
-7.824155999999999
 20
3.379553
 30
0.0
  0
VERTEX
  5
107
330
94
100
AcDbEntity
  8
LAYER_1
 62
     7
100
AcDbVertex
100
AcDb2dVertex
 10
-8.268746
 20
3.950922
 30
0.0
  0
VERTEX
  5
108
330
94
100
AcDbEntity
  8
LAYER_1
 62
     7
100
AcDbVertex
100
AcDb2dVertex
 10
-8.649772999999999
 20
3.379553
 30
0.0
  0
VERTEX
  5
109
330
94
100
AcDbEntity
  8
LAYER_1
 62
     7
100
AcDbVertex
100
AcDb2dVertex
 10
-9.014780999999999
 20
3.966769
 30
0.0
  0
VERTEX
  5
10A
330
94
100
AcDbEntity
  8
LAYER_1
 62
     7
100
AcDbVertex
100
AcDb2dVertex
 10
-9.443522999999999
 20
3.379553
 30
0.0
  0
VERTEX
  5
10B
330
94
100
AcDbEntity
  8
LAYER_1
 62
     7
100
AcDbVertex
100
AcDb2dVertex
 10
-13.666177
 20
3.379553
 30
0.0
  0
VERTEX
  5
10C
330
94
100
AcDbEntity
  8
LAYER_1
 62
     7
100
AcDbVertex
100
AcDb2dVertex
 10
-13.666177
 20
-3.287912999999999
 30
0.0
  0
SEQEND
  5
10D
330
94
100
AcDbEntity
  8
LAYER_1
 62
     7
  0
LINE
  5
93
330
74
100
AcDbEntity
  8
LAYER_1
 62
     7
100
AcDbLine
 10
13.194199
 20
3.919226999999999
 30
0.0
 11
13.575054
 21
-3.601933
 31
0.0
  0
LINE
  5
92
330
74
100
AcDbEntity
  8
LAYER_1
 62
     7
100
AcDbLine
 10
12.400449
 20
3.919226999999999
 30
0.0
 11
12.781304
 21
-3.954710999999999
 31
0.0
  0
LINE
  5
91
330
74
100
AcDbEntity
  8
LAYER_1
 62
     7
100
AcDbLine
 10
11.606699
 20
3.919226999999999
 30
0.0
 11
11.987554
 21
-3.954710999999999
 31
0.0
  0
LINE
  5
90
330
74
100
AcDbEntity
  8
LAYER_1
 62
     7
100
AcDbLine
 10
10.812949
 20
3.919226999999999
 30
0.0
 11
11.193804
 21
-3.954710999999999
 31
0.0
  0
LINE
  5
8F
330
74
100
AcDbEntity
  8
LAYER_1
 62
     7
100
AcDbLine
 10
10.019199
 20
3.919226999999999
 30
0.0
 11
10.400054
 21
-3.954710999999999
 31
0.0
  0
LINE
  5
8E
330
74
100
AcDbEntity
  8
LAYER_1
 62
     7
100
AcDbLine
 10
9.225449000000001
 20
3.919226999999999
 30
0.0
 11
9.606303999999999
 21
-3.954710999999999
 31
0.0
  0
LINE
  5
8D
330
74
100
AcDbEntity
  8
LAYER_1
 62
     7
100
AcDbLine
 10
8.431699
 20
3.919226999999999
 30
0.0
 11
8.812727
 21
-3.954710999999999
 31
0.0
  0
LINE
  5
8C
330
74
100
AcDbEntity
  8
LAYER_1
 62
     7
100
AcDbLine
 10
7.637949
 20
3.919226999999999
 30
0.0
 11
8.018976999999999
 21
-3.954710999999999
 31
0.0
  0
LINE
  5
8B
330
74
100
AcDbEntity
  8
LAYER_1
 62
     7
100
AcDbLine
 10
6.844199
 20
3.919226999999999
 30
0.0
 11
7.225227
 21
-3.954710999999999
 31
0.0
  0
LINE
  5
8A
330
74
100
AcDbEntity
  8
LAYER_1
 62
     7
100
AcDbLine
 10
6.431477
 20
-3.954710999999999
 30
0.0
 11
6.050448999999999
 21
3.919226999999999
 31
0.0
  0
LINE
  5
89
330
74
100
AcDbEntity
  8
LAYER_1
 62
     7
100
AcDbLine
 10
5.256699
 20
3.919226999999999
 30
0.0
 11
5.637726999999999
 21
-3.954710999999999
 31
0.0
  0
LINE
  5
88
330
74
100
AcDbEntity
  8
LAYER_1
 62
     7
100
AcDbLine
 10
4.462949
 20
3.919226999999999
 30
0.0
 11
4.843976999999999
 21
-3.954710999999999
 31
0.0
  0
LINE
  5
87
330
74
100
AcDbEntity
  8
LAYER_1
 62
     7
100
AcDbLine
 10
3.669198999999999
 20
3.919226999999999
 30
0.0
 11
4.050226999999999
 21
-3.954710999999999
 31
0.0
  0
LINE
  5
86
330
74
100
AcDbEntity
  8
LAYER_1
 62
     7
100
AcDbLine
 10
2.875449
 20
3.919226999999999
 30
0.0
 11
3.256476999999999
 21
-3.954710999999999
 31
0.0
  0
LINE
  5
85
330
74
100
AcDbEntity
  8
LAYER_1
 62
     7
100
AcDbLine
 10
2.081698999999999
 20
3.919226999999999
 30
0.0
 11
2.462727
 21
-3.954710999999999
 31
0.0
  0
LINE
  5
84
330
74
100
AcDbEntity
  8
LAYER_1
 62
     7
100
AcDbLine
 10
1.287949
 20
3.919226999999999
 30
0.0
 11
1.668976999999999
 21
-3.954710999999999
 31
0.0
  0
LINE
  5
83
330
74
100
AcDbEntity
  8
LAYER_1
 62
     7
100
AcDbLine
 10
0.494199
 20
3.919226999999999
 30
0.0
 11
0.8752270000000001
 21
-3.954710999999999
 31
0.0
  0
LINE
  5
82
330
74
100
AcDbEntity
  8
LAYER_1
 62
     7
100
AcDbLine
 10
-0.299551
 20
3.919226999999999
 30
0.0
 11
0.081477
 21
-3.954710999999999
 31
0.0
  0
LINE
  5
81
330
74
100
AcDbEntity
  8
LAYER_1
 62
     7
100
AcDbLine
 10
-1.093301
 20
3.919226999999999
 30
0.0
 11
-0.7122729999999999
 21
-3.954710999999999
 31
0.0
  0
LINE
  5
80
330
74
100
AcDbEntity
  8
LAYER_1
 62
     7
100
AcDbLine
 10
-1.887050999999999
 20
3.919226999999999
 30
0.0
 11
-1.506022999999999
 21
-3.954710999999999
 31
0.0
  0
LINE
  5
7F
330
74
100
AcDbEntity
  8
LAYER_1
 62
     7
100
AcDbLine
 10
-2.680800999999999
 20
3.919226999999999
 30
0.0
 11
-2.299773
 21
-3.954710999999999
 31
0.0
  0
LINE
  5
7E
330
74
100
AcDbEntity
  8
LAYER_1
 62
     7
100
AcDbLine
 10
-3.474551
 20
3.919226999999999
 30
0.0
 11
-3.093522999999999
 21
-3.954710999999999
 31
0.0
  0
LINE
  5
7D
330
74
100
AcDbEntity
  8
LAYER_1
 62
     7
100
AcDbLine
 10
-4.268301
 20
3.919226999999999
 30
0.0
 11
-3.887273
 21
-3.954710999999999
 31
0.0
  0
LINE
  5
7C
330
74
100
AcDbEntity
  8
LAYER_1
 62
     7
100
AcDbLine
 10
-5.062051
 20
3.919226999999999
 30
0.0
 11
-4.681023
 21
-3.954710999999999
 31
0.0
  0
LINE
  5
7B
330
74
100
AcDbEntity
  8
LAYER_1
 62
     7
100
AcDbLine
 10
-5.855801
 20
3.919226999999999
 30
0.0
 11
-5.474772999999999
 21
-3.954710999999999
 31
0.0
  0
LINE
  5
7A
330
74
100
AcDbEntity
  8
LAYER_1
 62
     7
100
AcDbLine
 10
-6.649550999999999
 20
3.919226999999999
 30
0.0
 11
-6.268523
 21
-3.954710999999999
 31
0.0
  0
LINE
  5
79
330
74
100
AcDbEntity
  8
LAYER_1
 62
     7
100
AcDbLine
 10
-7.443300999999999
 20
3.919226999999999
 30
0.0
 11
-7.062272999999999
 21
-3.954710999999999
 31
0.0
  0
LINE
  5
78
330
74
100
AcDbEntity
  8
LAYER_1
 62
     7
100
AcDbLine
 10
-8.237050999999999
 20
3.919226999999999
 30
0.0
 11
-7.856022999999999
 21
-3.954710999999999
 31
0.0
  0
LINE
  5
77
330
74
100
AcDbEntity
  8
LAYER_1
 62
     7
100
AcDbLine
 10
-9.030801
 20
3.919226999999999
 30
0.0
 11
-8.649772999999999
 21
-3.954710999999999
 31
0.0
  0
ENDBLK
  5
10E
330
74
100
AcDbEntity
  8
0
100
AcDbBlockEnd
  0
BLOCK
  5
1EE
330
1EC
100
AcDbEntity
  8
0
100
AcDbBlockBegin
  2
GENAXEH
 70
     0
 10
0.0
 20
0.0
 30
0.0
  3
GENAXEH
  1

  0
LINE
  5
1ED
330
1EC
100
AcDbEntity
  8
0
100
AcDbLine
 10
-1.0
 20
0.0
 30
0.0
 11
1.0
 21
0.0
 31
0.0
  0
ENDBLK
  5
1EF
330
1EC
100
AcDbEntity
  8
0
100
AcDbBlockEnd
  0
ENDSEC
  0
SECTION
  2
ENTITIES
  0
LINE
  5
138
330
A
100
AcDbEntity
  8
LAYER_1
 62
     7
100
AcDbLine
 10
97.16237300000001
 20
136.047682
 30
0.0
 11
100.700658
 21
136.047682
 31
0.0
  0
LINE
  5
137
330
A
100
AcDbEntity
  8
LAYER_1
 62
     7
100
AcDbLine
 10
96.682126
 20
136.283843
 30
0.0
 11
96.682126
 21
131.478107
 31
0.0
  0
LINE
  5
136
330
A
100
AcDbEntity
  8
LAYER_1
 62
     7
100
AcDbLine
 10
101.140769
 20
136.283843
 30
0.0
 11
101.140769
 21
131.478107
 31
0.0
  0
POLYLINE
  5
130
330
A
100
AcDbEntity
  8
LAYER_1
 62
     7
100
AcDb2dPolyline
 66
     1
 10
0.0
 20
0.0
 30
0.0
 70
     1
  0
VERTEX
  5
131
330
130
100
AcDbEntity
  8
LAYER_1
 62
     7
100
AcDbVertex
100
AcDb2dVertex
 10
97.262625
 20
136.047854
 30
0.0
  0
VERTEX
  5
132
330
130
100
AcDbEntity
  8
LAYER_1
 62
     7
100
AcDbVertex
100
AcDb2dVertex
 10
97.262625
 20
135.842699
 30
0.0
  0
VERTEX
  5
133
330
130
100
AcDbEntity
  8
LAYER_1
 62
     7
100
AcDbVertex
100
AcDb2dVertex
 10
96.721573
 20
136.047854
 30
0.0
  0
VERTEX
  5
134
330
130
100
AcDbEntity
  8
LAYER_1
 62
     7
100
AcDbVertex
100
AcDb2dVertex
 10
97.262625
 20
136.253182
 30
0.0
  0
SEQEND
  5
135
330
130
100
AcDbEntity
  8
LAYER_1
 62
     7
  0
POLYLINE
  5
12A
330
A
100
AcDbEntity
  8
LAYER_1
 62
     7
100
AcDb2dPolyline
 66
     1
 10
0.0
 20
0.0
 30
0.0
 70
     1
  0
VERTEX
  5
12B
330
12A
100
AcDbEntity
  8
LAYER_1
 62
     7
100
AcDbVertex
100
AcDb2dVertex
 10
100.573362
 20
136.047854
 30
0.0
  0
VERTEX
  5
12C
330
12A
100
AcDbEntity
  8
LAYER_1
 62
     7
100
AcDbVertex
100
AcDb2dVertex
 10
100.573362
 20
136.253182
 30
0.0
  0
VERTEX
  5
12D
330
12A
100
AcDbEntity
  8
LAYER_1
 62
     7
100
AcDbVertex
100
AcDb2dVertex
 10
101.114586
 20
136.047854
 30
0.0
  0
VERTEX
  5
12E
330
12A
100
AcDbEntity
  8
LAYER_1
 62
     7
100
AcDbVertex
100
AcDb2dVertex
 10
100.573362
 20
135.842699
 30
0.0
  0
SEQEND
  5
12F
330
12A
100
AcDbEntity
  8
LAYER_1
 62
     7
  0
MTEXT
  5
129
330
A
100
AcDbEntity
  8
LAYER_1
 62
     7
100
AcDbMText
 10
94.94493699999999
 20
138.734627
 30
0.0
 40
1.837383999999999
 41
0.0
 71
     1
 72
     2
  1
\fGill Sans|b0|i0;10 (0.39)
  7
STD
 73
     1
 44
1.0
1001
ACAD
1000
MTEXTBEGIN
1070
    73
1070
     1
1070
    44
1040
1.0
1070
    74
1070
     0
1000
MTEXTEND
  0
LINE
  5
128
330
A
100
AcDbEntity
  8
LAYER_1
 62
     7
100
AcDbLine
 10
105.276261
 20
136.047682
 30
0.0
 11
119.045102
 21
136.047682
 31
0.0
  0
LINE
  5
127
330
A
100
AcDbEntity
  8
LAYER_1
 62
     7
100
AcDbLine
 10
104.796015
 20
136.283843
 30
0.0
 11
104.796015
 21
126.495121
 31
0.0
  0
LINE
  5
126
330
A
100
AcDbEntity
  8
LAYER_1
 62
     7
100
AcDbLine
 10
119.485213
 20
136.283843
 30
0.0
 11
119.485213
 21
126.495121
 31
0.0
  0
POLYLINE
  5
120
330
A
100
AcDbEntity
  8
LAYER_1
 62
     7
100
AcDb2dPolyline
 66
     1
 10
0.0
 20
0.0
 30
0.0
 70
     1
  0
VERTEX
  5
121
330
120
100
AcDbEntity
  8
LAYER_1
 62
     7
100
AcDbVertex
100
AcDb2dVertex
 10
105.376514
 20
136.047854
 30
0.0
  0
VERTEX
  5
122
330
120
100
AcDbEntity
  8
LAYER_1
 62
     7
100
AcDbVertex
100
AcDb2dVertex
 10
105.376514
 20
135.842699
 30
0.0
  0
VERTEX
  5
123
330
120
100
AcDbEntity
  8
LAYER_1
 62
     7
100
AcDbVertex
100
AcDb2dVertex
 10
104.835461
 20
136.047854
 30
0.0
  0
VERTEX
  5
124
330
120
100
AcDbEntity
  8
LAYER_1
 62
     7
100
AcDbVertex
100
AcDb2dVertex
 10
105.376514
 20
136.253182
 30
0.0
  0
SEQEND
  5
125
330
120
100
AcDbEntity
  8
LAYER_1
 62
     7
  0
LINE
  5
11F
330
A
100
AcDbEntity
  8
LAYER_1
 62
     7
100
AcDbLine
 10
113.6537
 20
121.856645
 30
0.0
 11
119.949095
 21
116.300395
 31
0.0
  0
POLYLINE
  5
119
330
A
100
AcDbEntity
  8
LAYER_1
 62
     7
100
AcDb2dPolyline
 66
     1
 10
0.0
 20
0.0
 30
0.0
 70
     1
  0
VERTEX
  5
11A
330
119
100
AcDbEntity
  8
LAYER_1
 62
     7
100
AcDbVertex
100
AcDb2dVertex
 10
113.729148
 20
121.790154
 30
0.0
  0
VERTEX
  5
11B
330
119
100
AcDbEntity
  8
LAYER_1
 62
     7
100
AcDbVertex
100
AcDb2dVertex
 10
113.725358
 20
121.37192
 30
0.0
  0
VERTEX
  5
11C
330
119
100
AcDbEntity
  8
LAYER_1
 62
     7
100
AcDbVertex
100
AcDb2dVertex
 10
112.574352
 20
122.810419
 30
0.0
  0
VERTEX
  5
11D
330
119
100
AcDbEntity
  8
LAYER_1
 62
     7
100
AcDbVertex
100
AcDb2dVertex
 10
114.085715
 20
121.811514
 30
0.0
  0
SEQEND
  5
11E
330
119
100
AcDbEntity
  8
LAYER_1
 62
     7
  0
POLYLINE
  5
113
330
A
100
AcDbEntity
  8
LAYER_1
 62
     7
100
AcDb2dPolyline
 66
     1
 10
0.0
 20
0.0
 30
0.0
 70
     1
  0
VERTEX
  5
114
330
113
100
AcDbEntity
  8
LAYER_1
 62
     7
100
AcDbVertex
100
AcDb2dVertex
 10
118.917806
 20
136.047854
 30
0.0
  0
VERTEX
  5
115
330
113
100
AcDbEntity
  8
LAYER_1
 62
     7
100
AcDbVertex
100
AcDb2dVertex
 10
118.917806
 20
136.253182
 30
0.0
  0
VERTEX
  5
116
330
113
100
AcDbEntity
  8
LAYER_1
 62
     7
100
AcDbVertex
100
AcDb2dVertex
 10
119.45903
 20
136.047854
 30
0.0
  0
VERTEX
  5
117
330
113
100
AcDbEntity
  8
LAYER_1
 62
     7
100
AcDbVertex
100
AcDb2dVertex
 10
118.917806
 20
135.842699
 30
0.0
  0
SEQEND
  5
118
330
113
100
AcDbEntity
  8
LAYER_1
 62
     7
  0
MTEXT
  5
112
330
A
100
AcDbEntity
  8
LAYER_1
 62
     7
100
AcDbMText
 10
107.953617
 20
138.558238
 30
0.0
 40
1.837383999999999
 41
0.0
 71
     1
 72
     2
  1
\fGill Sans|b0|i0;\M+100D8 30 (1.18)
  7
STD
 73
     1
 44
1.0
1001
ACAD
1000
MTEXTBEGIN
1070
    73
1070
     1
1070
    44
1040
1.0
1070
    74
1070
     0
1000
MTEXTEND
  0
MTEXT
  5
111
330
A
100
AcDbEntity
  8
LAYER_1
 62
     7
100
AcDbMText
 10
104.010706
 20
151.955353
 30
0.0
 40
1.837383999999999
 41
0.0
 71
     1
 72
     2
  1
\fGill Sans|b1|i0;Sensor
  7
STD
 73
     1
 44
1.0
1001
ACAD
1000
MTEXTBEGIN
1070
    73
1070
     1
1070
    44
1040
1.0
1070
    74
1070
     0
1000
MTEXTEND
  0
MTEXT
  5
110
330
A
100
AcDbEntity
  8
LAYER_1
 62
     7
100
AcDbMText
 10
102.725513
 20
113.992123
 30
0.0
 40
1.837383999999999
 41
0.0
 71
     1
 72
     2
  1
\fGill Sans|b1|i0;Actuator
  7
STD
 73
     1
 44
1.0
1001
ACAD
1000
MTEXTBEGIN
1070
    73
1070
     1
1070
    44
1040
1.0
1070
    74
1070
     0
1000
MTEXTEND
  0
INSERT
  5
5E
330
A
100
AcDbEntity
  8
LAYER_1
 62
     7
100
AcDbBlockReference
  2
AI9-BLK1
 10
108.161357
 20
139.548071
 30
0.0
  0
POLYLINE
  5
57
330
A
100
AcDbEntity
  8
LAYER_1
  6
AI9-LTYPE1
 62
     7
100
AcDb2dPolyline
 66
     1
 10
0.0
 20
0.0
 30
0.0
  0
VERTEX
  5
58
330
57
100
AcDbEntity
  8
LAYER_1
  6
AI9-LTYPE1
 62
     7
100
AcDbVertex
100
AcDb2dVertex
 10
101.105801
 20
126.351978
 30
0.0
  0
VERTEX
  5
59
330
57
100
AcDbEntity
  8
LAYER_1
  6
AI9-LTYPE1
 62
     7
100
AcDbVertex
100
AcDb2dVertex
 10
100.223857
 20
126.351978
 30
0.0
  0
VERTEX
  5
5A
330
57
100
AcDbEntity
  8
LAYER_1
  6
AI9-LTYPE1
 62
     7
100
AcDbVertex
100
AcDb2dVertex
 10
100.223857
 20
121.648216
 30
0.0
  0
VERTEX
  5
5B
330
57
100
AcDbEntity
  8
LAYER_1
  6
AI9-LTYPE1
 62
     7
100
AcDbVertex
100
AcDb2dVertex
 10
101.105801
 20
121.648216
 30
0.0
  0
SEQEND
  5
5C
330
57
100
AcDbEntity
  8
LAYER_1
  6
AI9-LTYPE1
 62
     7
  0
LINE
  5
56
330
A
100
AcDbEntity
  8
LAYER_1
  6
AI9-LTYPE1
 62
     7
100
AcDbLine
 10
97.930801
 20
123.000589
 30
0.0
 11
97.930801
 21
124.940866
 31
0.0
  0
CIRCLE
  5
54
330
A
100
AcDbEntity
  8
LAYER_1
 62
     7
100
AcDbCircle
 10
112.130107
 20
124.029553
 30
0.0
 40
7.317296999999999
  0
CIRCLE
  5
53
330
A
100
AcDbEntity
  8
LAYER_1
 62
     7
100
AcDbCircle
 10
112.071368
 20
123.970814
 30
0.0
 40
1.912458999999999
  0
CIRCLE
  5
52
330
A
100
AcDbEntity
  8
LAYER_1
 62
     7
100
AcDbCircle
 10
112.071368
 20
123.970728
 30
0.0
 40
1.164097999999999
  0
MTEXT
  5
51
330
A
100
AcDbEntity
  8
LAYER_1
 62
     7
100
AcDbMText
 10
120.199898
 20
116.650531
 30
0.0
 40
1.837383999999999
 41
0.0
 71
     1
 72
     2
  1
\fGill Sans|b0|i0;\M+100D8 5.1 (0.2)
  7
STD
 73
     1
 44
1.0
1001
ACAD
1000
MTEXTBEGIN
1070
    73
1070
     1
1070
    44
1040
1.0
1070
    74
1070
     0
1000
MTEXTEND
  0
LINE
  5
50
330
A
100
AcDbEntity
  8
LAYER_1
 62
     7
100
AcDbLine
 10
115.672354
 20
153.311056
 30
0.0
 11
119.145355
 21
150.136228
 31
0.0
  0
POLYLINE
  5
4A
330
A
100
AcDbEntity
  8
LAYER_1
 62
     7
100
AcDb2dPolyline
 66
     1
 10
0.0
 20
0.0
 30
0.0
 70
     1
  0
VERTEX
  5
4B
330
4A
100
AcDbEntity
  8
LAYER_1
 62
     7
100
AcDbVertex
100
AcDb2dVertex
 10
115.747629
 20
153.244737
 30
0.0
  0
VERTEX
  5
4C
330
4A
100
AcDbEntity
  8
LAYER_1
 62
     7
100
AcDbVertex
100
AcDb2dVertex
 10
115.74384
 20
152.826503
 30
0.0
  0
VERTEX
  5
4D
330
4A
100
AcDbEntity
  8
LAYER_1
 62
     7
100
AcDbVertex
100
AcDb2dVertex
 10
114.592833
 20
154.265002
 30
0.0
  0
VERTEX
  5
4E
330
4A
100
AcDbEntity
  8
LAYER_1
 62
     7
100
AcDbVertex
100
AcDb2dVertex
 10
116.104197
 20
153.266097
 30
0.0
  0
SEQEND
  5
4F
330
4A
100
AcDbEntity
  8
LAYER_1
 62
     7
  0
MTEXT
  5
49
330
A
100
AcDbEntity
  8
LAYER_1
 62
     7
100
AcDbMText
 10
119.396157
 20
150.486364
 30
0.0
 40
1.837383999999999
 41
0.0
 71
     1
 72
     2
  1
\fGill Sans|b0|i0;M18
  7
STD
 73
     1
 44
1.0
1001
ACAD
1000
MTEXTBEGIN
1070
    73
1070
     1
1070
    44
1040
1.0
1070
    74
1070
     0
1000
MTEXTEND
  0
LINE
  5
48
330
A
100
AcDbEntity
  8
LAYER_1
 62
     7
100
AcDbLine
 10
94.93098399999999
 20
167.422167
 30
0.0
 11
121.282347
 21
167.422167
 31
0.0
  0
LINE
  5
47
330
A
100
AcDbEntity
  8
LAYER_1
 62
     7
100
AcDbLine
 10
94.45073800000001
 20
167.658328
 30
0.0
 11
94.45073800000001
 21
162.852592
 31
0.0
  0
LINE
  5
46
330
A
100
AcDbEntity
  8
LAYER_1
 62
     7
100
AcDbLine
 10
121.722458
 20
167.658328
 30
0.0
 11
121.722458
 21
162.852592
 31
0.0
  0
POLYLINE
  5
40
330
A
100
AcDbEntity
  8
LAYER_1
 62
     7
100
AcDb2dPolyline
 66
     1
 10
0.0
 20
0.0
 30
0.0
 70
     1
  0
VERTEX
  5
41
330
40
100
AcDbEntity
  8
LAYER_1
 62
     7
100
AcDbVertex
100
AcDb2dVertex
 10
95.031409
 20
167.422339
 30
0.0
  0
VERTEX
  5
42
330
40
100
AcDbEntity
  8
LAYER_1
 62
     7
100
AcDbVertex
100
AcDb2dVertex
 10
95.031409
 20
167.217183
 30
0.0
  0
VERTEX
  5
43
330
40
100
AcDbEntity
  8
LAYER_1
 62
     7
100
AcDbVertex
100
AcDb2dVertex
 10
94.49018399999999
 20
167.422339
 30
0.0
  0
VERTEX
  5
44
330
40
100
AcDbEntity
  8
LAYER_1
 62
     7
100
AcDbVertex
100
AcDb2dVertex
 10
95.031409
 20
167.627667
 30
0.0
  0
SEQEND
  5
45
330
40
100
AcDbEntity
  8
LAYER_1
 62
     7
  0
POLYLINE
  5
3A
330
A
100
AcDbEntity
  8
LAYER_1
 62
     7
100
AcDb2dPolyline
 66
     1
 10
0.0
 20
0.0
 30
0.0
 70
     1
  0
VERTEX
  5
3B
330
3A
100
AcDbEntity
  8
LAYER_1
 62
     7
100
AcDbVertex
100
AcDb2dVertex
 10
121.155051
 20
167.422339
 30
0.0
  0
VERTEX
  5
3C
330
3A
100
AcDbEntity
  8
LAYER_1
 62
     7
100
AcDbVertex
100
AcDb2dVertex
 10
121.155051
 20
167.627667
 30
0.0
  0
VERTEX
  5
3D
330
3A
100
AcDbEntity
  8
LAYER_1
 62
     7
100
AcDbVertex
100
AcDb2dVertex
 10
121.696275
 20
167.422339
 30
0.0
  0
VERTEX
  5
3E
330
3A
100
AcDbEntity
  8
LAYER_1
 62
     7
100
AcDbVertex
100
AcDb2dVertex
 10
121.155051
 20
167.217183
 30
0.0
  0
SEQEND
  5
3F
330
3A
100
AcDbEntity
  8
LAYER_1
 62
     7
  0
MTEXT
  5
39
330
A
100
AcDbEntity
  8
LAYER_1
 62
     7
100
AcDbMText
 10
105.648848
 20
170.050373
 30
0.0
 40
1.837383999999999
 41
0.0
 71
     1
 72
     2
  1
\fGill Sans|b0|i0;60 (2.36)
  7
STD
 73
     1
 44
1.0
1001
ACAD
1000
MTEXTBEGIN
1070
    73
1070
     1
1070
    44
1040
1.0
1070
    74
1070
     0
1000
MTEXTEND
  0
CIRCLE
  5
38
330
A
100
AcDbEntity
  8
LAYER_1
 62
     7
100
AcDbCircle
 10
112.130107
 20
123.985455
 30
0.0
 40
3.991229
  0
LINE
  5
37
330
A
100
AcDbEntity
  8
LAYER_1
 62
     7
100
AcDbLine
 10
116.098857
 20
123.985369
 30
0.0
 11
119.582537
 21
123.985369
 31
0.0
  0
LINE
  5
36
330
A
100
AcDbEntity
  8
LAYER_1
 62
     7
100
AcDbLine
 10
96.82836999999999
 20
123.985369
 30
0.0
 11
101.017607
 21
123.985369
 31
0.0
  0
LINE
  5
35
330
A
100
AcDbEntity
  8
LAYER_1
 62
     7
100
AcDbLine
 10
119.518975
 20
158.085786
 30
0.0
 11
121.856128
 21
158.085786
 31
0.0
  0
LINE
  5
34
330
A
100
AcDbEntity
  8
LAYER_1
 62
     7
100
AcDbLine
 10
94.44591499999999
 20
155.363471
 30
0.0
 11
94.44591499999999
 21
160.85702
 31
0.0
  0
LINE
  5
33
330
A
100
AcDbEntity
  8
LAYER_1
 62
     7
100
AcDbLine
 10
94.44591499999999
 20
160.85702
 30
0.0
 11
94.44591499999999
 21
161.592204
 31
0.0
  0
LINE
  5
32
330
A
100
AcDbEntity
  8
LAYER_1
 62
     7
100
AcDbLine
 10
92.15199799999998
 20
155.726067
 30
0.0
 11
92.151826
 21
161.223923
 31
0.0
  0
LINE
  5
31
330
A
100
AcDbEntity
  8
LAYER_1
 62
     7
100
AcDbLine
 10
94.446259
 20
155.726067
 30
0.0
 11
92.15199799999998
 21
155.726067
 31
0.0
  0
LINE
  5
30
330
A
100
AcDbEntity
  8
LAYER_1
 62
     7
100
AcDbLine
 10
94.446259
 20
158.474909
 30
0.0
 11
92.151826
 21
158.474909
 31
0.0
  0
LINE
  5
2F
330
A
100
AcDbEntity
  8
LAYER_1
 62
     7
100
AcDbLine
 10
92.151826
 20
161.223923
 30
0.0
 11
94.446259
 21
161.223923
 31
0.0
  0
POLYLINE
  5
29
330
A
100
AcDbEntity
  8
LAYER_1
 62
     7
100
AcDb2dPolyline
 66
     1
 10
0.0
 20
0.0
 30
0.0
  0
VERTEX
  5
2A
330
29
100
AcDbEntity
  8
LAYER_1
 62
     7
100
AcDbVertex
100
AcDb2dVertex
 10
92.183521
 20
160.694067
 30
0.0
  0
VERTEX
  5
2B
330
29
100
AcDbEntity
  8
LAYER_1
 62
     7
100
AcDbVertex
100
AcDb2dVertex
 10
87.042405
 20
160.694067
 30
0.0
  0
VERTEX
  5
2C
330
29
100
AcDbEntity
  8
LAYER_1
 62
     7
100
AcDbVertex
100
AcDb2dVertex
 10
87.042405
 20
156.372712
 30
0.0
  0
VERTEX
  5
2D
330
29
100
AcDbEntity
  8
LAYER_1
 62
     7
100
AcDbVertex
100
AcDb2dVertex
 10
92.183521
 20
156.372712
 30
0.0
  0
SEQEND
  5
2E
330
29
100
AcDbEntity
  8
LAYER_1
 62
     7
  0
LINE
  5
28
330
A
100
AcDbEntity
  8
LAYER_1
 62
     7
100
AcDbLine
 10
87.91831999999999
 20
160.694067
 30
0.0
 11
87.91831999999999
 21
156.372712
 31
0.0
  0
LINE
  5
27
330
A
100
AcDbEntity
  8
LAYER_1
 62
     7
100
AcDbLine
 10
88.794236
 20
160.694067
 30
0.0
 11
88.794236
 21
156.372712
 31
0.0
  0
LINE
  5
26
330
A
100
AcDbEntity
  8
LAYER_1
 62
     7
100
AcDbLine
 10
89.67015100000001
 20
160.694067
 30
0.0
 11
89.67015100000001
 21
156.372712
 31
0.0
  0
LINE
  5
25
330
A
100
AcDbEntity
  8
LAYER_1
 62
     7
100
AcDbLine
 10
90.546067
 20
160.694067
 30
0.0
 11
90.546067
 21
156.372712
 31
0.0
  0
LINE
  5
24
330
A
100
AcDbEntity
  8
LAYER_1
 62
     7
100
AcDbLine
 10
91.42198200000001
 20
160.694067
 30
0.0
 11
91.42198200000001
 21
156.372712
 31
0.0
  0
MTEXT
  5
23
330
A
100
AcDbEntity
  8
LAYER_1
 62
     7
100
AcDbMText
 10
100.587486
 20
101.045635
 30
0.0
 40
3.149802
 41
0.0
 71
     1
 72
     2
  1
\fAbadi MT Condensed Light|b0|i0;mm (in)
  7
STD
 73
     1
 44
1.0
1001
ACAD
1000
MTEXTBEGIN
1070
    73
1070
     1
1070
    44
1040
1.0
1070
    74
1070
     0
1000
MTEXTEND
  0
MTEXT
  5
22
330
A
100
AcDbEntity
  8
LAYER_1
 62
     7
100
AcDbMText
 10
99.96943600000001
 20
106.160913
 30
0.0
 40
3.149802
 41
0.0
 71
     1
 72
     2
  1
\fAbadi MT Condensed Light|b0|i0;Sipha S3
  7
STD
 73
     1
 44
1.0
1001
ACAD
1000
MTEXTBEGIN
1070
    73
1070
     1
1070
    44
1040
1.0
1070
    74
1070
     0
1000
MTEXTEND
  0
ENDSEC
  0
SECTION
  2
OBJECTS
  0
DICTIONARY
  5
19
330
0
100
AcDbDictionary
281
     1
  3
ACAD_COLOR
350
140
  3
ACAD_GROUP
350
1A
  3
ACAD_LAYOUT
350
143
  3
ACAD_MATERIAL
350
13F
  3
ACAD_MLINESTYLE
350
1B
  3
ACAD_PLOTSETTINGS
350
144
  3
ACAD_PLOTSTYLENAME
350
13D
  3
ACAD_TABLESTYLE
350
141
  3
ACDBHEADERROUNDTRIPXREC
350
208
  3
AcDbVariableDictionary
350
203
  3
AcmDictionary
350
1A4
  3
AMG
350
14A
  3
AMGSNAPSETTINGS
350
1F8
  3
ASE_INDEX_DICTIONARY
350
200
  0
DICTIONARY
  5
140
102
{ACAD_REACTORS
330
19
102
}
330
19
100
AcDbDictionary
281
     1
  0
DICTIONARY
  5
1A
102
{ACAD_REACTORS
330
19
102
}
330
19
100
AcDbDictionary
281
     1
  0
DICTIONARY
  5
143
102
{ACAD_REACTORS
330
19
102
}
330
19
100
AcDbDictionary
281
     1
  3
Layout1
350
146
  3
Model
350
145
  0
DICTIONARY
  5
13F
102
{ACAD_REACTORS
330
19
102
}
330
19
100
AcDbDictionary
281
     1
  0
DICTIONARY
  5
1B
102
{ACAD_REACTORS
330
19
102
}
330
19
100
AcDbDictionary
281
     1
  3
STANDARD
350
1C
  0
DICTIONARY
  5
144
102
{ACAD_REACTORS
330
19
102
}
330
19
100
AcDbDictionary
281
     1
  0
ACDBDICTIONARYWDFLT
  5
13D
102
{ACAD_REACTORS
330
19
102
}
330
19
100
AcDbDictionary
281
     1
  3
Normal
350
13E
100
AcDbDictionaryWithDefault
340
13E
  0
DICTIONARY
  5
141
102
{ACAD_REACTORS
330
19
102
}
330
19
100
AcDbDictionary
281
     1
  3
Standard
350
142
  0
DICTIONARY
  5
208
102
{ACAD_REACTORS
330
19
102
}
330
19
100
AcDbDictionary
281
     1
  0
DICTIONARY
  5
203
102
{ACAD_REACTORS
330
19
102
}
330
19
100
AcDbDictionary
281
     1
  3
CTABLESTYLE
350
204
  3
DIMASSOC
350
205
  3
PROJECTNAME
350
206
  0
DICTIONARY
  5
1A4
102
{ACAD_REACTORS
330
19
102
}
330
19
100
AcDbDictionary
281
     1
  3
AcmStdDictionary
350
1AF
  3
AMDTSECTSYM_ARROWCOLOR
350
1CE
  0
DICTIONARY
  5
14A
102
{ACAD_REACTORS
330
19
102
}
330
19
100
AcDbDictionary
281
     1
  0
DICTIONARY
  5
1F8
102
{ACAD_REACTORS
330
19
102
}
330
19
100
AcDbDictionary
281
     1
  0
DICTIONARY
  5
200
102
{ACAD_REACTORS
330
19
102
}
330
19
100
AcDbDictionary
281
     1
  3
ASEBlockHierarchyIndexRecord
350
202
1001
DCO15
1040
1733132744.578
  0
LAYOUT
  5
146
102
{ACAD_XDICTIONARY
360
20B
102
}
102
{ACAD_REACTORS
330
143
102
}
330
143
100
AcDbPlotSettings
  1

  2
\\USMKEVPRNT001\USMKEPD0431
  4

  6

 40
0.0
 41
0.0
 42
0.0
 43
0.0
 44
0.0
 45
0.0
 46
0.0
 47
0.0
 48
0.0
 49
0.0
140
0.0
141
0.0
142
1.0
143
1.0
 70
   688
 72
     0
 73
     0
 74
     5
  7

 75
    16
147
1.0
148
0.0
149
0.0
100
AcDbLayout
  1
Layout1
 70
     0
 71
     1
 10
0.0
 20
0.0
 11
12.0
 21
9.0
 12
0.0
 22
0.0
 32
0.0
 14
1.000000000000000E+20
 24
1.000000000000000E+20
 34
1.000000000000000E+20
 15
-1.000000000000000E+20
 25
-1.000000000000000E+20
 35
-1.000000000000000E+20
146
0.0
 13
0.0
 23
0.0
 33
0.0
 16
1.0
 26
0.0
 36
0.0
 17
0.0
 27
1.0
 37
0.0
 76
     0
330
B
  0
LAYOUT
  5
145
102
{ACAD_XDICTIONARY
360
209
102
}
102
{ACAD_REACTORS
330
143
102
}
330
143
100
AcDbPlotSettings
  1

  2
\\USMKEVPRNT001\USMKEPD0431
  4

  6

 40
0.0
 41
0.0
 42
0.0
 43
0.0
 44
0.0
 45
0.0
 46
0.0
 47
0.0
 48
0.0
 49
0.0
140
0.0
141
0.0
142
1.0
143
1.0
 70
  1712
 72
     0
 73
     0
 74
     0
  7

 75
     0
147
1.0
148
0.0
149
0.0
100
AcDbLayout
  1
Model
 70
     1
 71
     0
 10
0.0
 20
0.0
 11
12.0
 21
9.0
 12
0.0
 22
0.0
 32
0.0
 14
0.0
 24
0.0
 34
0.0
 15
0.0
 25
0.0
 35
0.0
146
0.0
 13
0.0
 23
0.0
 33
0.0
 16
1.0
 26
0.0
 36
0.0
 17
0.0
 27
1.0
 37
0.0
 76
     0
330
A
  0
MLINESTYLE
  5
1C
102
{ACAD_REACTORS
330
1B
102
}
330
1B
100
AcDbMlineStyle
  2
STANDARD
 70
     0
  3

 62
     0
 51
90.0
 52
90.0
 71
     2
 49
0.5
 62
   256
  6
BYLAYER
 49
-0.5
 62
   256
  6
BYLAYER
  0
ACDBPLACEHOLDER
  5
13E
102
{ACAD_REACTORS
330
13D
102
}
330
13D
  0
TABLESTYLE
  5
142
102
{ACAD_REACTORS
330
141
102
}
330
141
100
AcDbTableStyle
  3
Standard
 70
     0
 71
     0
 40
0.06
 41
0.06
280
     0
281
     0
  7
STANDARD
140
0.18
170
     2
 62
     0
 63
     7
283
     0
274
    -2
284
     1
 64
     0
275
    -2
285
     1
 65
     0
276
    -2
286
     1
 66
     0
277
    -2
287
     1
 67
     0
278
    -2
288
     1
 68
     0
279
    -2
289
     1
 69
     0
  7
STANDARD
140
0.25
170
     5
 62
     0
 63
     7
283
     0
274
    -2
284
     1
 64
     0
275
    -2
285
     1
 65
     0
276
    -2
286
     1
 66
     0
277
    -2
287
     1
 67
     0
278
    -2
288
     1
 68
     0
279
    -2
289
     1
 69
     0
  7
STANDARD
140
0.18
170
     5
 62
     0
 63
     7
283
     0
274
    -2
284
     1
 64
     0
275
    -2
285
     1
 65
     0
276
    -2
286
     1
 66
     0
277
    -2
287
     1
 67
     0
278
    -2
288
     1
 68
     0
279
    -2
289
     1
 69
     0
  0
DICTIONARYVAR
  5
204
102
{ACAD_REACTORS
330
203
102
}
330
203
100
DictionaryVariables
280
     0
  1
STANDARD
  0
DICTIONARYVAR
  5
205
102
{ACAD_REACTORS
330
203
102
}
330
203
100
DictionaryVariables
280
     0
  1
1
  0
DICTIONARYVAR
  5
206
102
{ACAD_REACTORS
330
203
102
}
330
203
100
DictionaryVariables
280
     0
  1

  0
DICTIONARY
  5
1AF
102
{ACAD_REACTORS
330
1A4
102
}
330
1A4
100
AcDbDictionary
281
     1
  0
XRECORD
  5
1CE
102
{ACAD_REACTORS
330
1A4
102
}
330
1A4
100
AcDbXrecord
280
     1
 90
-1023410169
  0
XRECORD
  5
202
102
{ACAD_REACTORS
330
200
102
}
330
200
100
AcDbXrecord
280
     1
330
5E
330
75
  0
DICTIONARY
  5
20B
330
146
100
AcDbDictionary
280
     1
281
     1
  3
ACAD_XREC_ROUNDTRIP
360
20C
  0
DICTIONARY
  5
209
330
145
100
AcDbDictionary
280
     1
281
     1
  3
ACAD_XREC_ROUNDTRIP
360
20A
  0
XRECORD
  5
20C
102
{ACAD_REACTORS
330
20B
102
}
330
20B
100
AcDbXrecord
280
     1
102
SHADEPLOT
 70
     0
102
SHADEPLOTRESLEVEL
 70
     2
102
SHADEPLOTCUSTOMDPI
 70
   300
  0
XRECORD
  5
20A
102
{ACAD_REACTORS
330
209
102
}
330
209
100
AcDbXrecord
280
     1
102
SHADEPLOT
 70
     0
102
SHADEPLOTRESLEVEL
 70
     2
102
SHADEPLOTCUSTOMDPI
 70
   300
  0
ENDSEC
  0
EOF
