999
DXF file: 440j-a00n.dxf
999
Pro/ENGINEER 2010140 by Parametric Technology Corporation
  0
SECTION
  2
HEADER
  9
$ACADVER
  1
AC1015
  9
$DWGCODEPAGE
  3
ANSI_1252
  9
$EXTMAX
 10
17.0
 20
11.0
 30
0.0
  9
$EXTMIN
 10
0.0
 20
0.0
 30
0.0
  9
$LIMMIN
 10
0.0
 20
0.0
  9
$LIMMAX
 10
17.0
 20
11.0
  9
$VIEWCTR
 10
8.5
 20
5.5
  9
$VIEWSIZE
 40
11.0
  9
$CLAYER
  8
0
  9
$LTSCALE
 40
0.935
  9
$CELTYPE
  6
BYLAYER
  9
$DIMSCALE
 40
1.0
  9
$DIMASZ
 40
0.1875
  9
$DIMEXO
 40
0.10625
  9
$DIMDLI
 40
0.646
  9
$DIMEXE
 40
0.306
  9
$DIMCEN
 40
0.153
  9
$DIMLFAC
 40
1.0
  9
$DIMBLK
  1
_CLOSED
  9
$DIMTXT
 40
0.15625
  9
$DIMTOL
 70
0
  9
$DIMLIM
 70
0
  9
$DIMTFAC
 40
1.0
  9
$PDMODE
 70
3
  9
$PDSIZE
 40
0.3125
  9
$HANDSEED
  5
2B7
  9
$TILEMODE
 70
1
  9
$MEASUREMENT
 70
0
  9
$INSUNITS
 70
1
  0
ENDSEC
  0
SECTION
  2
CLASSES
  0
CLASS
  1
ACDBDICTIONARYWDFLT
  2
AcDbDictionaryWithDefault
  3
AutoCAD 2000
 90
0
280
0
281
0
  0
CLASS
  1
ACDBPLACEHOLDER
  2
AcDbPlaceHolder
  3
AutoCAD 2000
 90
0
280
0
281
0
  0
CLASS
  1
LAYOUT
  2
AcDbLayout
  3
AutoCAD 2000
 90
0
280
0
281
0
  0
ENDSEC
  0
SECTION
  2
TABLES
  0
TABLE
  2
VPORT
  5
8
100
AcDbSymbolTable
 70
2
  0
VPORT
  5
1F4
100
AcDbSymbolTableRecord
100
AcDbViewportTableRecord
  2
*ACTIVE
 70
0
 10
0.0
 20
0.0
 11
1.0
 21
1.0
 12
8.5
 22
5.5
 13
0.0
 23
0.0
 14
1.0
 24
1.0
 15
0.0
 25
0.0
 16
0.0
 26
0.0
 36
1.0
 17
0.0
 27
0.0
 37
0.0
 40
11.0
 41
1.5454545455
 42
50.0
 43
0.0
 44
0.0
 50
0.0
 51
0.0
 71
0
 72
100
 73
1
 74
1
 75
0
 76
0
 77
0
 78
0
  0
ENDTAB
  0
TABLE
  2
LTYPE
  5
5
100
AcDbSymbolTable
 70
6
  0
LTYPE
  5
14
100
AcDbSymbolTableRecord
100
AcDbLinetypeTableRecord
  2
BYBLOCK
 70
0
  3

 72
65
 73
0
 40
0.0
  0
LTYPE
  5
15
100
AcDbSymbolTableRecord
100
AcDbLinetypeTableRecord
  2
BYLAYER
 70
0
  3

 72
65
 73
0
 40
0.0
  0
LTYPE
  5
16
100
AcDbSymbolTableRecord
100
AcDbLinetypeTableRecord
  2
CONTINUOUS
 70
64
  3
Solid line
 72
65
 73
0
 40
0.0
  0
LTYPE
  5
1F5
100
AcDbSymbolTableRecord
100
AcDbLinetypeTableRecord
  2
CENTER
 70
64
  3
____ _ ____ _ ____ _ ____ _ ____ _ ____ _ ____
 72
65
 73
4
 40
0.6
 49
0.375
 74
0
 49
-0.075
 74
0
 49
0.075
 74
0
 49
-0.075
 74
0
  0
LTYPE
  5
1F6
100
AcDbSymbolTableRecord
100
AcDbLinetypeTableRecord
  2
HIDDEN
 70
64
  3
- - - - - - - - - - - - - - - - - - - -
 72
65
 73
2
 40
0.2
 49
0.1
 74
0
 49
-0.1
 74
0
  0
LTYPE
  5
1F7
100
AcDbSymbolTableRecord
100
AcDbLinetypeTableRecord
  2
PHANTOM
 70
64
  3
_____ _ _ _____ _ _ _____ _ _ _____
 72
65
 73
6
 40
0.8
 49
0.45
 74
0
 49
-0.05
 74
0
 49
0.1
 74
0
 49
-0.05
 74
0
 49
0.1
 74
0
 49
-0.05
 74
0
  0
LTYPE
  5
1F8
100
AcDbSymbolTableRecord
100
AcDbLinetypeTableRecord
  2
DOT
 70
64
  3
. . . . . . . . . . . . . . . . . . . .
 72
65
 73
2
 40
0.2
 49
0.1
 74
0
 49
-0.1
 74
0
  0
LTYPE
  5
1F9
100
AcDbSymbolTableRecord
100
AcDbLinetypeTableRecord
  2
DASHED
 70
64
  3
- - - - - - - - - - - - - - - - - - - -
 72
65
 73
2
 40
0.2
 49
0.1
 74
0
 49
-0.1
 74
0
  0
ENDTAB
  0
TABLE
  2
LAYER
  5
2
100
AcDbSymbolTable
 70
36
  0
LAYER
  5
10
100
AcDbSymbolTableRecord
100
AcDbLayerTableRecord
  2
0
 70
0
 62
7
  6
CONTINUOUS
370
-3
390
F
  0
LAYER
  5
1FA
100
AcDbSymbolTableRecord
100
AcDbLayerTableRecord
  2
DEFAULT_1
 70
0
 62
7
  6
CENTER
370
-3
390
F
  0
LAYER
  5
1FB
100
AcDbSymbolTableRecord
100
AcDbLayerTableRecord
  2
DEFAULT_2
 70
0
 62
8
  6
HIDDEN
370
-3
390
F
  0
LAYER
  5
1FC
100
AcDbSymbolTableRecord
100
AcDbLayerTableRecord
  2
DEFAULT_3
 70
0
 62
7
  6
PHANTOM
370
-3
390
F
  0
LAYER
  5
1FD
100
AcDbSymbolTableRecord
100
AcDbLayerTableRecord
  2
CSYS_PART
 70
0
 62
7
  6
CONTINUOUS
370
-3
390
F
  0
LAYER
  5
1FE
100
AcDbSymbolTableRecord
100
AcDbLayerTableRecord
  2
INTFCLR_1
 70
0
 62
7
  6
CONTINUOUS
370
-3
390
F
  0
LAYER
  5
1FF
100
AcDbSymbolTableRecord
100
AcDbLayerTableRecord
  2
INTFCLR_1019
 70
0
 62
7
  6
CONTINUOUS
370
-3
390
F
  0
LAYER
  5
200
100
AcDbSymbolTableRecord
100
AcDbLayerTableRecord
  2
INTFCLR_1055
 70
0
 62
7
  6
CONTINUOUS
370
-3
390
F
  0
LAYER
  5
201
100
AcDbSymbolTableRecord
100
AcDbLayerTableRecord
  2
INTFCLR_107
 70
0
 62
7
  6
CONTINUOUS
370
-3
390
F
  0
LAYER
  5
202
100
AcDbSymbolTableRecord
100
AcDbLayerTableRecord
  2
INTFCLR_1091
 70
0
 62
7
  6
CONTINUOUS
370
-3
390
F
  0
LAYER
  5
203
100
AcDbSymbolTableRecord
100
AcDbLayerTableRecord
  2
INTFCLR_1127
 70
0
 62
7
  6
CONTINUOUS
370
-3
390
F
  0
LAYER
  5
204
100
AcDbSymbolTableRecord
100
AcDbLayerTableRecord
  2
INTFCLR_1163
 70
0
 62
7
  6
CONTINUOUS
370
-3
390
F
  0
LAYER
  5
205
100
AcDbSymbolTableRecord
100
AcDbLayerTableRecord
  2
INTFCLR_1199
 70
0
 62
7
  6
CONTINUOUS
370
-3
390
F
  0
LAYER
  5
206
100
AcDbSymbolTableRecord
100
AcDbLayerTableRecord
  2
INTFCLR_135
 70
0
 62
7
  6
CONTINUOUS
370
-3
390
F
  0
LAYER
  5
207
100
AcDbSymbolTableRecord
100
AcDbLayerTableRecord
  2
INTFCLR_613
 70
0
 62
7
  6
CONTINUOUS
370
-3
390
F
  0
LAYER
  5
208
100
AcDbSymbolTableRecord
100
AcDbLayerTableRecord
  2
INTFCLR_665
 70
0
 62
7
  6
CONTINUOUS
370
-3
390
F
  0
LAYER
  5
209
100
AcDbSymbolTableRecord
100
AcDbLayerTableRecord
  2
INTFCLR_67
 70
0
 62
7
  6
CONTINUOUS
370
-3
390
F
  0
LAYER
  5
20A
100
AcDbSymbolTableRecord
100
AcDbLayerTableRecord
  2
INTFCLR_705
 70
0
 62
7
  6
CONTINUOUS
370
-3
390
F
  0
LAYER
  5
20B
100
AcDbSymbolTableRecord
100
AcDbLayerTableRecord
  2
INTFCLR_733
 70
0
 62
7
  6
CONTINUOUS
370
-3
390
F
  0
LAYER
  5
20C
100
AcDbSymbolTableRecord
100
AcDbLayerTableRecord
  2
INTFCLR_773
 70
0
 62
7
  6
CONTINUOUS
370
-3
390
F
  0
LAYER
  5
20D
100
AcDbSymbolTableRecord
100
AcDbLayerTableRecord
  2
INTFCLR_825
 70
0
 62
7
  6
CONTINUOUS
370
-3
390
F
  0
LAYER
  5
20E
100
AcDbSymbolTableRecord
100
AcDbLayerTableRecord
  2
INTFCLR_875
 70
0
 62
7
  6
CONTINUOUS
370
-3
390
F
  0
LAYER
  5
20F
100
AcDbSymbolTableRecord
100
AcDbLayerTableRecord
  2
INTFCLR_911
 70
0
 62
7
  6
CONTINUOUS
370
-3
390
F
  0
LAYER
  5
210
100
AcDbSymbolTableRecord
100
AcDbLayerTableRecord
  2
INTFCLR_947
 70
0
 62
7
  6
CONTINUOUS
370
-3
390
F
  0
LAYER
  5
211
100
AcDbSymbolTableRecord
100
AcDbLayerTableRecord
  2
INTFCLR_983
 70
0
 62
7
  6
CONTINUOUS
370
-3
390
F
  0
ENDTAB
  0
TABLE
  2
STYLE
  5
3
100
AcDbSymbolTable
 70
1
  0
STYLE
  5
11
100
AcDbSymbolTableRecord
100
AcDbTextStyleTableRecord
  2
STANDARD
 70
0
 40
0.0
 41
0.8
 50
0.0
 71
0
 42
0.2
  3
txt
  4

  0
STYLE
  5
212
100
AcDbSymbolTableRecord
100
AcDbTextStyleTableRecord
  2
TEXTSTYLE_1
 70
0
 40
0.0
 41
0.8
 50
0.0
 71
0
 42
0.2
  3
gdt
  4

  0
ENDTAB
  0
TABLE
  2
VIEW
  5
6
100
AcDbSymbolTable
 70
0
  0
ENDTAB
  0
TABLE
  2
UCS
  5
7
100
AcDbSymbolTable
 70
0
  0
ENDTAB
  0
TABLE
  2
APPID
  5
9
100
AcDbSymbolTable
 70
1
  0
APPID
  5
213
100
AcDbSymbolTableRecord
100
AcDbRegAppTableRecord
  2
ACAD
 70
0
  0
ENDTAB
  0
TABLE
  2
BLOCK_RECORD
  5
1
100
AcDbSymbolTable
 70
0
  0
BLOCK_RECORD
  5
214
100
AcDbSymbolTableRecord
100
AcDbBlockTableRecord
  2
*Model_Space
  0
BLOCK_RECORD
  5
215
100
AcDbSymbolTableRecord
100
AcDbBlockTableRecord
  2
*Paper_Space
  0
ENDTAB
  0
TABLE
  2
DIMSTYLE
  5
A
100
AcDbSymbolTable
 70
1
100
AcDbDimStyleTable
 71
0
  0
DIMSTYLE
105
216
100
AcDbSymbolTableRecord
100
AcDbDimStyleTableRecord
  2
STANDARD
 70
0
  3

  4

 40
1.0
 41
0.1875
 42
0.0625
 43
0.38
 44
0.18
 45
0.0
 46
0.0
 47
0.05
 48
0.05
140
0.15625
141
0.09
142
0.0
143
25.4
144
1.0
145
0.0
146
1.0
147
0.09
 71
0.0
 72
0.0
 73
1
 74
1
 75
0
 76
0
 77
0
 78
4
170
0
171
2
172
0
173
0
174
0
175
0
176
0
177
0
178
0
270
2
271
2
272
2
273
2
274
2
275
0
280
0
281
0
282
0
283
1
284
4
285
0
286
0
287
3
288
0
340
11
  0
ENDTAB
  0
ENDSEC
  0
SECTION
  2
BLOCKS
  0
BLOCK
  5
20
100
AcDbEntity
  8
0
100
AcDbBlockBegin
  2
*Model_Space
 70
0
 10
0.0
 20
0.0
 30
0.0
  3
*Model_Space
  1

  0
ENDBLK
  5
21
100
AcDbEntity
  8
0
100
AcDbBlockEnd
  0
BLOCK
  5
1C
100
AcDbEntity
  8
0
100
AcDbBlockBegin
  2
*Paper_Space
 70
0
 10
0.0
 20
0.0
 30
0.0
  3
*Paper_Space
  1

  0
ENDBLK
  5
1D
100
AcDbEntity
  8
0
100
AcDbBlockEnd
  0
ENDSEC
  0
SECTION
  2
ENTITIES
  0
MTEXT
  5
217
100
AcDbEntity
  8
0
100
AcDbMText
 62
2
  6
CONTINUOUS
  7
STANDARD
 71
3
 72
1
 10
13.3791694744
 20
5.8947328579
 30
0.0
 11
1.0
 21
0.0
 31
0.0
 44
0.9
  1
SCALE  1.000
 40
0.15625
 41
1.5
  0
MTEXT
  5
218
100
AcDbEntity
  8
0
100
AcDbMText
 62
2
  6
CONTINUOUS
  7
STANDARD
 71
3
 72
1
 10
4.1311489218
 20
1.407944094
 30
0.0
 11
1.0
 21
0.0
 31
0.0
 44
0.9
  1
SCALE  1.000
 40
0.15625
 41
1.5
  0
LINE
  5
219
100
AcDbEntity
  8
0
100
AcDbLine
 62
7
  6
CONTINUOUS
 10
0.0
 20
0.0
 11
0.0
 21
11.0
  0
LINE
  5
21A
100
AcDbEntity
  8
0
100
AcDbLine
 62
7
  6
CONTINUOUS
 10
0.0
 20
0.0
 11
17.0
 21
0.0
  0
LINE
  5
21B
100
AcDbEntity
  8
0
100
AcDbLine
 62
7
  6
CONTINUOUS
 10
0.0
 20
11.0
 11
17.0
 21
11.0
  0
LINE
  5
21C
100
AcDbEntity
  8
0
100
AcDbLine
 62
7
  6
CONTINUOUS
 10
17.0
 20
0.0
 11
17.0
 21
11.0
  0
LINE
  5
21D
100
AcDbEntity
  8
0
100
AcDbLine
 62
7
  6
CONTINUOUS
 10
11.1151619692
 20
7.4203718896
 11
11.191718487
 21
7.6176863194
  0
LINE
  5
21E
100
AcDbEntity
  8
0
100
AcDbLine
 62
7
  6
CONTINUOUS
 10
13.8299932545
 20
6.0278578579
 11
13.5713696506
 21
6.0509600284
  0
LINE
  5
21F
100
AcDbEntity
  8
0
100
AcDbLine
 62
7
  6
CONTINUOUS
 10
11.2033280171
 20
7.3357603989
 11
11.2798845349
 21
7.5330748288
  0
LINE
  5
220
100
AcDbEntity
  8
0
100
AcDbLine
 62
7
  6
CONTINUOUS
 10
13.386441326
 20
10.0597211437
 11
13.3029251248
 21
10.0115033302
  0
LINE
  5
221
100
AcDbEntity
  8
0
100
AcDbLine
 62
7
  6
CONTINUOUS
 10
13.4997746372
 20
9.9920055826
 11
13.5832908385
 21
10.040223396
  0
LINE
  5
222
100
AcDbEntity
  8
0
100
AcDbLine
 62
7
  6
CONTINUOUS
 10
13.6479261679
 20
6.2482744581
 11
13.8710197692
 21
6.2283460902
  0
LINE
  5
223
100
AcDbEntity
  8
0
100
AcDbLine
 62
7
  6
CONTINUOUS
 10
11.2033280168
 20
7.3357603991
 11
11.5513150869
 21
7.1348545157
  0
LINE
  5
224
100
AcDbEntity
  8
0
100
AcDbLine
 62
7
  6
CONTINUOUS
 10
12.8597464675
 20
6.3794483954
 11
13.2077335375
 21
6.178542512
  0
LINE
  5
225
100
AcDbEntity
  8
0
100
AcDbLine
 62
7
  6
CONTINUOUS
 10
12.9101935815
 20
6.6741949308
 11
13.1332871818
 21
6.6542665623
  0
LINE
  5
226
100
AcDbEntity
  8
0
100
AcDbLine
 62
7
  6
CONTINUOUS
 10
11.2798845349
 20
7.5330748288
 11
11.6278716044
 21
7.3321689457
  0
LINE
  5
227
100
AcDbEntity
  8
0
100
AcDbLine
 62
7
  6
CONTINUOUS
 10
12.9363029856
 20
6.5767628251
 11
13.284290055
 21
6.375856942
  0
LINE
  5
228
100
AcDbEntity
  8
0
100
AcDbLine
 62
7
  6
CONTINUOUS
 10
11.6278716044
 20
7.3321689457
 11
11.5513150866
 21
7.1348545158
  0
LINE
  5
229
100
AcDbEntity
  8
0
100
AcDbLine
 62
7
  6
CONTINUOUS
 10
13.8710197694
 20
6.2283460904
 11
13.1332871818
 21
6.6542665628
  0
LINE
  5
22A
100
AcDbEntity
  8
0
100
AcDbLine
 62
7
  6
CONTINUOUS
 10
11.4768687315
 20
7.6105785664
 11
12.2146013187
 21
7.1846580941
  0
LINE
  5
22B
100
AcDbEntity
  8
0
100
AcDbLine
 62
7
  6
CONTINUOUS
 10
11.9149511999
 20
7.0072720321
 11
11.9915077181
 21
7.2045864623
  0
LINE
  5
22C
100
AcDbEntity
  8
0
100
AcDbLine
 62
7
  6
CONTINUOUS
 10
12.1735748044
 20
6.9841698619
 11
11.9149511999
 21
7.0072720321
  0
LINE
  5
22D
100
AcDbEntity
  8
0
100
AcDbLine
 62
7
  6
CONTINUOUS
 10
11.9915077181
 20
7.2045864623
 11
12.2146013184
 21
7.1846580938
  0
LINE
  5
22E
100
AcDbEntity
  8
0
100
AcDbLine
 62
7
  6
CONTINUOUS
 10
12.6924549515
 20
7.2837436664
 11
12.6924549515
 21
7.4605453707
  0
LINE
  5
22F
100
AcDbEntity
  8
0
100
AcDbLine
 62
7
  6
CONTINUOUS
 10
11.25377513
 20
7.630506934
 11
11.4768687313
 21
7.6105785661
  0
LINE
  5
230
100
AcDbEntity
  8
0
100
AcDbLine
 62
7
  6
CONTINUOUS
 10
11.4768687313
 20
7.6105785661
 11
13.0543523474
 21
8.52133372
  0
LINE
  5
231
100
AcDbEntity
  8
0
100
AcDbLine
 62
7
  6
CONTINUOUS
 10
13.1378687804
 20
8.4972242531
 11
13.116990621
 21
8.4851703141
  0
LINE
  5
232
100
AcDbEntity
  8
0
100
AcDbLine
 62
7
  6
CONTINUOUS
 10
13.2213849817
 20
8.6418793597
 11
13.2213849817
 21
9.8312726452
  0
LINE
  5
233
100
AcDbEntity
  8
0
100
AcDbLine
 62
7
  6
CONTINUOUS
 10
12.7715804198
 20
6.4640598859
 11
12.8481369377
 21
6.6613743157
  0
LINE
  5
234
100
AcDbEntity
  8
0
100
AcDbLine
 62
7
  6
CONTINUOUS
 10
12.8597464678
 20
6.3794483953
 11
12.9363029856
 21
6.5767628251
  0
LINE
  5
235
100
AcDbEntity
  8
0
100
AcDbLine
 62
7
  6
CONTINUOUS
 10
15.3649846341
 20
9.0115852744
 11
15.2814684329
 21
8.9633674609
  0
LINE
  5
236
100
AcDbEntity
  8
0
100
AcDbLine
 62
7
  6
CONTINUOUS
 10
12.2146013184
 20
7.1846580938
 11
12.6924549515
 21
7.4605453707
  0
LINE
  5
237
100
AcDbEntity
  8
0
100
AcDbLine
 62
7
  6
CONTINUOUS
 10
12.6924549515
 20
7.2837436664
 11
12.1735748044
 21
6.9841698619
  0
LINE
  5
238
100
AcDbEntity
  8
0
100
AcDbLine
 62
7
  6
CONTINUOUS
 10
15.4485033853
 20
7.1391012442
 11
13.0543523474
 21
8.5213337202
  0
LINE
  5
239
100
AcDbEntity
  8
0
100
AcDbLine
 62
7
  6
CONTINUOUS
 10
15.4763418872
 20
7.1471367183
 11
13.1378687804
 21
8.4972242529
  0
LINE
  5
23A
100
AcDbEntity
  8
0
100
AcDbLine
 62
7
  6
CONTINUOUS
 10
13.2213849817
 20
8.6418793597
 11
15.5598580884
 21
7.2917918251
  0
LINE
  5
23B
100
AcDbEntity
  8
0
100
AcDbLine
 62
7
  6
CONTINUOUS
 10
13.284290055
 20
6.375856942
 11
13.2077335372
 21
6.1785425121
  0
LINE
  5
23C
100
AcDbEntity
  8
0
100
AcDbLine
 62
7
  6
CONTINUOUS
 10
15.5598580884
 20
8.4811851099
 11
15.6433742897
 21
8.5294029233
  0
LINE
  5
23D
100
AcDbEntity
  8
0
100
AcDbLine
 62
7
  6
CONTINUOUS
 10
13.5713696506
 20
6.0509600284
 11
13.6479261679
 21
6.2482744581
  0
LINE
  5
23E
100
AcDbEntity
  8
0
100
AcDbLine
 62
7
  6
CONTINUOUS
 10
13.1332871818
 20
6.6542665623
 11
13.6111408149
 21
6.9301538392
  0
LINE
  5
23F
100
AcDbEntity
  8
0
100
AcDbLine
 62
7
  6
CONTINUOUS
 10
13.8710197692
 20
6.2283460902
 11
15.4485033853
 21
7.1391012441
  0
LINE
  5
240
100
AcDbEntity
  8
0
100
AcDbLine
 62
7
  6
CONTINUOUS
 10
15.4763418872
 20
7.1471367185
 11
15.4485033853
 21
7.1310642478
  0
LINE
  5
241
100
AcDbEntity
  8
0
100
AcDbLine
 62
7
  6
CONTINUOUS
 10
15.2814684329
 20
8.9633674609
 11
13.4997746372
 21
9.9920055826
  0
LINE
  5
242
100
AcDbEntity
  8
0
100
AcDbLine
 62
7
  6
CONTINUOUS
 10
13.5832908385
 20
10.040223396
 11
15.3649846341
 21
9.0115852744
  0
LINE
  5
243
100
AcDbEntity
  8
0
100
AcDbLine
 62
7
  6
CONTINUOUS
 10
15.4485033853
 20
7.0346269543
 11
15.4763418872
 21
7.0506994249
  0
LINE
  5
244
100
AcDbEntity
  8
0
100
AcDbLine
 62
7
  6
CONTINUOUS
 10
15.4485033853
 20
6.9622995397
 11
13.8299932545
 21
6.0278578579
  0
LINE
  5
245
100
AcDbEntity
  8
0
100
AcDbLine
 62
7
  6
CONTINUOUS
 10
15.4485033853
 20
7.1391012441
 11
15.4485033853
 21
6.9622995397
  0
LINE
  5
246
100
AcDbEntity
  8
0
100
AcDbLine
 62
7
  6
CONTINUOUS
 10
15.5598580884
 20
8.4811851106
 11
15.5598580884
 21
7.2917918251
  0
LINE
  5
247
100
AcDbEntity
  8
0
100
AcDbLine
 62
7
  6
CONTINUOUS
 10
15.6433742897
 20
7.3400096385
 11
15.6433742897
 21
8.529402924
  0
LINE
  5
248
100
AcDbEntity
  8
0
100
AcDbLine
 62
7
  6
CONTINUOUS
 10
2.438235536
 20
1.571069094
 11
2.438235536
 21
1.9697604478
  0
LINE
  5
249
100
AcDbEntity
  8
0
100
AcDbLine
 62
7
  6
CONTINUOUS
 10
2.4776056147
 20
2.0396986695
 11
2.4776056147
 21
3.313195079
  0
LINE
  5
24A
100
AcDbEntity
  8
0
100
AcDbLine
 62
7
  6
CONTINUOUS
 10
2.7138260872
 20
1.9200305376
 11
2.7138260872
 21
2.1075557234
  0
LINE
  5
24B
100
AcDbEntity
  8
0
100
AcDbLine
 62
7
  6
CONTINUOUS
 10
2.438235536
 20
1.571069094
 11
5.8240623077
 21
1.571069094
  0
LINE
  5
24C
100
AcDbEntity
  8
0
100
AcDbLine
 62
7
  6
CONTINUOUS
 10
3.2059520714
 20
2.1075557234
 11
3.2059520714
 21
1.9200305376
  0
LINE
  5
24D
100
AcDbEntity
  8
0
100
AcDbLine
 62
7
  6
CONTINUOUS
 10
4.7807552207
 20
1.787604527
 11
3.481542623
 21
1.787604527
  0
LINE
  5
24E
100
AcDbEntity
  8
0
100
AcDbLine
 62
7
  6
CONTINUOUS
 10
3.4815426226
 20
1.571069094
 11
3.4815426226
 21
1.9697604479
  0
LINE
  5
24F
100
AcDbEntity
  8
0
100
AcDbLine
 62
7
  6
CONTINUOUS
 10
3.4815426226
 20
1.8565021648
 11
4.780755221
 21
1.8565021648
  0
LINE
  5
250
100
AcDbEntity
  8
0
100
AcDbLine
 62
7
  6
CONTINUOUS
 10
2.7138260868
 20
1.9200305376
 11
3.2059520719
 21
1.9200305376
  0
LINE
  5
251
100
AcDbEntity
  8
0
100
AcDbLine
 62
7
  6
CONTINUOUS
 10
5.0563457718
 20
1.9200305376
 11
5.5484717569
 21
1.9200305376
  0
LINE
  5
252
100
AcDbEntity
  8
0
100
AcDbLine
 62
7
  6
CONTINUOUS
 10
2.7138260872
 20
2.1075557234
 11
3.2059520714
 21
2.1075557234
  0
LINE
  5
253
100
AcDbEntity
  8
0
100
AcDbLine
 62
7
  6
CONTINUOUS
 10
5.0563457722
 20
2.1075557234
 11
5.5484717565
 21
2.1075557234
  0
LINE
  5
254
100
AcDbEntity
  8
0
100
AcDbLine
 62
7
  6
CONTINUOUS
 10
4.780755221
 20
1.571069094
 11
4.780755221
 21
1.9697604478
  0
LINE
  5
255
100
AcDbEntity
  8
0
100
AcDbLine
 62
7
  6
CONTINUOUS
 10
5.0563457722
 20
1.9200305376
 11
5.0563457722
 21
2.1075557234
  0
LINE
  5
256
100
AcDbEntity
  8
0
100
AcDbLine
 62
7
  6
CONTINUOUS
 10
5.3909914415
 20
3.7068958656
 11
2.8713064021
 21
3.7068958656
  0
LINE
  5
257
100
AcDbEntity
  8
0
100
AcDbLine
 62
7
  6
CONTINUOUS
 10
5.5484717565
 20
2.1075557234
 11
5.5484717565
 21
1.9200305376
  0
LINE
  5
258
100
AcDbEntity
  8
0
100
AcDbLine
 62
7
  6
CONTINUOUS
 10
5.7846922289
 20
3.313195079
 11
5.7846922289
 21
2.0396954391
  0
LINE
  5
259
100
AcDbEntity
  8
0
100
AcDbLine
 62
7
  6
CONTINUOUS
 10
5.8240623077
 20
1.571069094
 11
5.8240623077
 21
1.9697604479
  0
LINE
  5
25A
100
AcDbEntity
  8
0
100
AcDbLine
 62
7
  6
CONTINUOUS
 10
2.438235536
 20
5.3330487416
 11
2.438235536
 21
7.98772778
  0
LINE
  5
25B
100
AcDbEntity
  8
0
100
AcDbLine
 62
7
  6
CONTINUOUS
 10
2.4776056147
 20
8.30268841
 11
2.4776056147
 21
7.98772778
  0
LINE
  5
25C
100
AcDbEntity
  8
0
100
AcDbLine
 62
7
  6
CONTINUOUS
 10
2.7138260868
 20
5.0943803232
 11
3.2059520719
 21
5.0943803232
  0
LINE
  5
25D
100
AcDbEntity
  8
0
100
AcDbLine
 62
7
  6
CONTINUOUS
 10
5.0563457718
 20
5.0943803232
 11
5.5484717569
 21
5.0943803232
  0
LINE
  5
25E
100
AcDbEntity
  8
0
100
AcDbLine
 62
7
  6
CONTINUOUS
 10
2.7138260872
 20
5.0943803232
 11
2.7138260872
 21
5.2026480397
  0
LINE
  5
25F
100
AcDbEntity
  8
0
100
AcDbLine
 62
7
  6
CONTINUOUS
 10
2.7138260872
 20
5.2026480397
 11
3.2059520714
 21
5.2026480397
  0
LINE
  5
260
100
AcDbEntity
  8
0
100
AcDbLine
 62
7
  6
CONTINUOUS
 10
5.0563457722
 20
5.2026480397
 11
5.5484717565
 21
5.2026480397
  0
LINE
  5
261
100
AcDbEntity
  8
0
100
AcDbLine
 62
7
  6
CONTINUOUS
 10
2.8713064021
 20
8.1845781737
 11
2.8713064021
 21
8.30268841
  0
LINE
  5
262
100
AcDbEntity
  8
0
100
AcDbLine
 62
7
  6
CONTINUOUS
 10
3.2059520714
 20
5.2026480397
 11
3.2059520714
 21
5.0943803232
  0
LINE
  5
263
100
AcDbEntity
  8
0
100
AcDbLine
 62
7
  6
CONTINUOUS
 10
5.8240623077
 20
5.7568197679
 11
4.7807552207
 21
5.7568197679
  0
LINE
  5
264
100
AcDbEntity
  8
0
100
AcDbLine
 62
7
  6
CONTINUOUS
 10
2.438235536
 20
5.7568197679
 11
3.4815426226
 21
5.7568197679
  0
LINE
  5
265
100
AcDbEntity
  8
0
100
AcDbLine
 62
7
  6
CONTINUOUS
 10
3.4815426226
 20
5.3330487416
 11
3.4815426226
 21
6.4326096698
  0
LINE
  5
266
100
AcDbEntity
  8
0
100
AcDbLine
 62
7
  6
CONTINUOUS
 10
4.780755221
 20
5.3330487416
 11
4.780755221
 21
6.4326096698
  0
LINE
  5
267
100
AcDbEntity
  8
0
100
AcDbLine
 62
7
  6
CONTINUOUS
 10
5.0563457722
 20
5.0943803232
 11
5.0563457722
 21
5.2026480397
  0
LINE
  5
268
100
AcDbEntity
  8
0
100
AcDbLine
 62
7
  6
CONTINUOUS
 10
5.3909914415
 20
8.30268841
 11
5.3909914415
 21
8.1845781737
  0
LINE
  5
269
100
AcDbEntity
  8
0
100
AcDbLine
 62
7
  6
CONTINUOUS
 10
5.5484717565
 20
5.2026480397
 11
5.5484717565
 21
5.0943803232
  0
LINE
  5
26A
100
AcDbEntity
  8
0
100
AcDbLine
 62
7
  6
CONTINUOUS
 10
5.8240623077
 20
7.98772778
 11
2.438235536
 21
7.98772778
  0
LINE
  5
26B
100
AcDbEntity
  8
0
100
AcDbLine
 62
7
  6
CONTINUOUS
 10
5.7846922289
 20
8.0664679375
 11
2.4776056147
 21
8.0664679375
  0
LINE
  5
26C
100
AcDbEntity
  8
0
100
AcDbLine
 62
7
  6
CONTINUOUS
 10
2.4776056147
 20
8.1845781737
 11
5.7846922289
 21
8.1845781737
  0
LINE
  5
26D
100
AcDbEntity
  8
0
100
AcDbLine
 62
7
  6
CONTINUOUS
 10
5.7846922289
 20
7.98772778
 11
5.7846922289
 21
8.30268841
  0
LINE
  5
26E
100
AcDbEntity
  8
0
100
AcDbLine
 62
7
  6
CONTINUOUS
 10
5.8240623077
 20
5.3330487416
 11
5.8240623077
 21
7.98772778
  0
LINE
  5
26F
100
AcDbEntity
  8
0
100
AcDbLine
 62
7
  6
CONTINUOUS
 10
2.4776056147
 20
8.30268841
 11
5.7846922289
 21
8.30268841
  0
LINE
  5
270
100
AcDbEntity
  8
0
100
AcDbLine
 62
7
  6
CONTINUOUS
 10
7.8044123313
 20
1.9200305376
 11
8.4088312806
 21
1.571069094
  0
LINE
  5
271
100
AcDbEntity
  8
0
100
AcDbLine
 62
7
  6
CONTINUOUS
 10
7.9126800478
 20
2.1075557234
 11
8.4668517758
 21
1.7876045268
  0
LINE
  5
272
100
AcDbEntity
  8
0
100
AcDbLine
 62
7
  6
CONTINUOUS
 10
7.9126800478
 20
2.1075557234
 11
7.8044123313
 21
1.9200305376
  0
LINE
  5
273
100
AcDbEntity
  8
0
100
AcDbLine
 62
7
  6
CONTINUOUS
 10
10.6977597881
 20
1.571069094
 11
8.4088312806
 21
1.571069094
  0
LINE
  5
274
100
AcDbEntity
  8
0
100
AcDbLine
 62
7
  6
CONTINUOUS
 10
10.6977597881
 20
1.6202816924
 11
10.7764999456
 21
1.6202816924
  0
LINE
  5
275
100
AcDbEntity
  8
0
100
AcDbLine
 62
7
  6
CONTINUOUS
 10
10.7764999456
 20
1.7383919288
 11
10.6977597881
 21
1.7383919288
  0
LINE
  5
276
100
AcDbEntity
  8
0
100
AcDbLine
 62
7
  6
CONTINUOUS
 10
8.0430807497
 20
1.7822352619
 11
8.1513484655
 21
1.9697604479
  0
LINE
  5
277
100
AcDbEntity
  8
0
100
AcDbLine
 62
7
  6
CONTINUOUS
 10
8.4668517758
 20
1.7876045268
 11
10.6977597881
 21
1.7876045268
  0
LINE
  5
278
100
AcDbEntity
  8
0
100
AcDbLine
 62
7
  6
CONTINUOUS
 10
10.8946101818
 20
3.3131950782
 11
11.012720418
 21
3.3131950782
  0
LINE
  5
279
100
AcDbEntity
  8
0
100
AcDbLine
 62
7
  6
CONTINUOUS
 10
11.012720418
 20
3.7068958656
 11
10.8946101818
 21
3.7068958656
  0
LINE
  5
27A
100
AcDbEntity
  8
0
100
AcDbLine
 62
7
  6
CONTINUOUS
 10
10.6977597881
 20
1.7876045268
 11
10.6977597881
 21
1.571069094
  0
LINE
  5
27B
100
AcDbEntity
  8
0
100
AcDbLine
 62
7
  6
CONTINUOUS
 10
10.8946101818
 20
3.7068958656
 11
10.8946101818
 21
1.8565021648
  0
LINE
  5
27C
100
AcDbEntity
  8
0
100
AcDbLine
 62
7
  6
CONTINUOUS
 10
11.012720418
 20
1.8565021648
 11
11.012720418
 21
3.7068958656
  0
ARC
  5
27D
100
AcDbEntity
  8
0
100
AcDbCircle
 62
7
  6
CONTINUOUS
 10
13.8631498207
 20
9.3338715571
 40
0.1481465461
100
AcDbArc
 50
201.949082443
 51
218.1024852076
  0
ARC
  5
27E
100
AcDbEntity
  8
0
100
AcDbCircle
 62
7
  6
CONTINUOUS
 10
15.2550980533
 20
8.5302479924
 40
0.1481464907
100
AcDbArc
 50
201.9490794331
 51
218.1024882863
  0
ARC
  5
27F
100
AcDbEntity
  8
0
100
AcDbCircle
 62
7
  6
CONTINUOUS
 10
5.3909914415
 20
3.3131950782
 40
0.3937007874
100
AcDbArc
 50
0.0000001203
 51
89.9999999771
  0
ARC
  5
280
100
AcDbEntity
  8
0
100
AcDbCircle
 62
7
  6
CONTINUOUS
 10
2.8713064021
 20
3.3131950782
 40
0.3937007874
100
AcDbArc
 50
90.0000000229
 51
179.9999998797
  0
CIRCLE
  5
281
100
AcDbEntity
  8
0
100
AcDbCircle
 62
7
  6
CONTINUOUS
 10
3.1468969533
 20
2.9194942908
 40
0.0866141732
  0
CIRCLE
  5
282
100
AcDbEntity
  8
0
100
AcDbCircle
 62
7
  6
CONTINUOUS
 10
5.1154008903
 20
2.9194942908
 40
0.0866141732
  0
ARC
  5
283
100
AcDbEntity
  8
0
100
AcDbCircle
 62
7
  6
CONTINUOUS
 10
4.1311489218
 20
6.4326096698
 40
0.6496062992
100
AcDbArc
 50
359.9999999195
 51
180.0000000805
  0
ARC
  5
284
100
AcDbEntity
  8
0
100
AcDbCircle
 62
7
  6
CONTINUOUS
 10
10.7764999456
 20
1.8565021648
 40
0.2362204724
100
AcDbArc
 50
270.0
 51
0.0000001146
  0
ARC
  5
285
100
AcDbEntity
  8
0
100
AcDbCircle
 62
7
  6
CONTINUOUS
 10
10.7764999456
 20
1.8565021648
 40
0.1181102362
100
AcDbArc
 50
270.0
 51
0.0000002292
  0
SPLINE
  5
286
100
AcDbEntity
  8
0
100
AcDbSpline
 62
7
  6
CONTINUOUS
 70
0
 71
3
 72
11
 73
7
 74
0
 42
0.0000001
 43
0.0000001
 44
0.0000000001
 40
0.0
 40
0.0
 40
0.0
 40
0.0
 40
0.2897985083
 40
0.5490483389
 40
0.7822274299
 40
1.0
 40
1.0
 40
1.0
 40
1.0
 10
13.2213849817
 20
9.8312726452
 30
0.0
 10
13.2213849816
 20
9.8512276726
 30
0.0
 10
13.2243985589
 20
9.8891648009
 30
0.0
 10
13.2397791269
 20
9.9412840131
 30
0.0
 10
13.2656328006
 20
9.9835818346
 30
0.0
 10
13.2899388496
 20
10.0040057562
 30
0.0
 10
13.3029253096
 20
10.0115034379
 30
0.0
  0
SPLINE
  5
287
100
AcDbEntity
  8
0
100
AcDbSpline
 62
7
  6
CONTINUOUS
 70
0
 71
3
 72
16
 73
12
 74
0
 42
0.0000001
 43
0.0000001
 44
0.0000000001
 40
0.0
 40
0.0
 40
0.0
 40
0.0
 40
0.1287340326
 40
0.2703735698
 40
0.4175874349
 40
0.5619922444
 40
0.6957238076
 40
0.8130490098
 40
0.9124677319
 40
0.9571204942
 40
1.0
 40
1.0
 40
1.0
 40
1.0
 10
13.7558931213
 20
9.2012235628
 30
0.0
 10
13.7558931213
 20
9.2086255287
 30
0.0
 10
13.7538214355
 20
9.2241890535
 30
0.0
 10
13.746096024
 20
9.2470422161
 30
0.0
 10
13.7341842089
 20
9.2690576807
 30
0.0
 10
13.7190602012
 20
9.2884296548
 30
0.0
 10
13.7019134229
 20
9.3036003263
 30
0.0
 10
13.6840745618
 20
9.313390342
 30
0.0
 10
13.6689299846
 20
9.3163535925
 30
0.0
 10
13.6582011086
 20
9.314785891
 30
0.0
 10
13.6534925625
 20
9.3128333933
 30
0.0
 10
13.651357069
 20
9.3116011941
 30
0.0
  0
SPLINE
  5
288
100
AcDbEntity
  8
0
100
AcDbSpline
 62
7
  6
CONTINUOUS
 70
0
 71
3
 72
16
 73
12
 74
0
 42
0.0000001
 43
0.0000001
 44
0.0000000001
 40
0.0
 40
0.0
 40
0.0
 40
0.0
 40
0.1287340305
 40
0.2703735655
 40
0.4175874324
 40
0.5619922423
 40
0.6957238062
 40
0.8130490092
 40
0.912467732
 40
0.9571204949
 40
1.0
 40
1.0
 40
1.0
 40
1.0
 10
15.1478413986
 20
8.3976000306
 30
0.0
 10
15.1478413986
 20
8.4050019964
 30
0.0
 10
15.1457697137
 20
8.420565521
 30
0.0
 10
15.1380443038
 20
8.4434186842
 30
0.0
 10
15.1261324864
 20
8.4654341475
 30
0.0
 10
15.1110084794
 20
8.4848061223
 30
0.0
 10
15.0938617007
 20
8.4999767935
 30
0.0
 10
15.0760228397
 20
8.5097668098
 30
0.0
 10
15.0608782624
 20
8.5127300597
 30
0.0
 10
15.0501493863
 20
8.5111623589
 30
0.0
 10
15.0454408403
 20
8.5092098606
 30
0.0
 10
15.043305347
 20
8.5079776611
 30
0.0
  0
SPLINE
  5
289
100
AcDbEntity
  8
0
100
AcDbSpline
 62
7
  6
CONTINUOUS
 70
0
 71
3
 72
15
 73
11
 74
0
 42
0.0000001
 43
0.0000001
 44
0.0000000001
 40
0.0
 40
0.0
 40
0.0
 40
0.0
 40
0.1141548063
 40
0.2373269122
 40
0.3669769263
 40
0.5000014202
 40
0.6330256922
 40
0.7626753587
 40
0.8858465546
 40
1.0
 40
1.0
 40
1.0
 40
1.0
 10
15.6433742897
 20
8.529402924
 30
0.0
 10
15.6433742897
 20
8.5514091172
 30
0.0
 10
15.6393436605
 20
8.5972025497
 30
0.0
 10
15.6232752611
 20
8.6662871028
 30
0.0
 10
15.5975343727
 20
8.7362644956
 30
0.0
 10
15.563082906
 20
8.8045031516
 30
0.0
 10
15.5212119355
 20
8.8684580564
 30
0.0
 10
15.4734799964
 20
8.9257384909
 30
0.0
 10
15.4216852924
 20
8.9741957554
 30
0.0
 10
15.3840424371
 20
9.0005824956
 30
0.0
 10
15.3649846342
 20
9.0115852743
 30
0.0
  0
SPLINE
  5
28A
100
AcDbEntity
  8
0
100
AcDbSpline
 62
7
  6
CONTINUOUS
 70
0
 71
3
 72
11
 73
7
 74
0
 42
0.0000001
 43
0.0000001
 44
0.0000000001
 40
0.0
 40
0.0
 40
0.0
 40
0.0
 40
0.2897975226
 40
0.5490469849
 40
0.7822264725
 40
1.0
 40
1.0
 40
1.0
 40
1.0
 10
13.5832908384
 20
10.0402233961
 30
0.0
 10
13.5660096986
 20
10.0502004411
 30
0.0
 10
13.5316492394
 20
10.0665583691
 30
0.0
 10
13.4788237653
 20
10.0792972162
 30
0.0
 10
13.4292672176
 20
10.078055958
 30
0.0
 10
13.3994272809
 20
10.0672185554
 30
0.0
 10
13.3864411184
 20
10.0597210248
 30
0.0
  0
SPLINE
  5
28B
100
AcDbEntity
  8
0
100
AcDbSpline
 62
7
  6
CONTINUOUS
 70
0
 71
3
 72
11
 73
7
 74
0
 42
0.0000001
 43
0.0000001
 44
0.0000000001
 40
0.0
 40
0.0
 40
0.0
 40
0.0
 40
0.2177757514
 40
0.4508996099
 40
0.7103602592
 40
1.0
 40
1.0
 40
1.0
 40
1.0
 10
15.1298860013
 20
8.3579412711
 30
0.0
 10
15.1327445528
 20
8.3595906812
 30
0.0
 10
15.1380977839
 20
8.3640793426
 30
0.0
 10
15.1437921574
 20
8.3733898537
 30
0.0
 10
15.1471734256
 20
8.384861175
 30
0.0
 10
15.1478413986
 20
8.3932106841
 30
0.0
 10
15.1478413986
 20
8.3976000306
 30
0.0
  0
SPLINE
  5
28C
100
AcDbEntity
  8
0
100
AcDbSpline
 62
7
  6
CONTINUOUS
 70
0
 71
3
 72
11
 73
7
 74
0
 42
0.0000001
 43
0.0000001
 44
0.0000000001
 40
0.0
 40
0.0
 40
0.0
 40
0.0
 40
0.237241057
 40
0.5000022162
 40
0.7627625465
 40
1.0
 40
1.0
 40
1.0
 40
1.0
 10
13.2213849817
 20
8.6418793601
 30
0.0
 10
13.2213849816
 20
8.6281880391
 30
0.0
 10
13.2162487547
 20
8.5993142409
 30
0.0
 10
13.1983519516
 20
8.5587405362
 30
0.0
 10
13.1721627568
 20
8.5229546653
 30
0.0
 10
13.1497256498
 20
8.504069779
 30
0.0
 10
13.1378687804
 20
8.4972242531
 30
0.0
  0
SPLINE
  5
28D
100
AcDbEntity
  8
0
100
AcDbSpline
 62
7
  6
CONTINUOUS
 70
0
 71
3
 72
11
 73
7
 74
0
 42
0.0000001
 43
0.0000001
 44
0.0000000001
 40
0.0
 40
0.0
 40
0.0
 40
0.0
 40
0.3455482501
 40
0.4784227518
 40
0.6319670166
 40
1.0
 40
1.0
 40
1.0
 40
1.0
 10
12.8481398205
 20
6.6613806742
 30
0.0
 10
12.8508742012
 20
6.6684219435
 30
0.0
 10
12.8630918577
 20
6.6729467608
 30
0.0
 10
12.8764014664
 20
6.674752916
 30
0.0
 10
12.8908097519
 20
6.6755246057
 30
0.0
 10
12.9021804165
 20
6.6749107256
 30
0.0
 10
12.9101935811
 20
6.6741949306
 30
0.0
  0
SPLINE
  5
28E
100
AcDbEntity
  8
0
100
AcDbSpline
 62
7
  6
CONTINUOUS
 70
0
 71
3
 72
15
 73
11
 74
0
 42
0.0000001
 43
0.0000001
 44
0.0000000001
 40
0.0
 40
0.0
 40
0.0
 40
0.0
 40
0.0555879202
 40
0.1246261579
 40
0.214220505
 40
0.3269134865
 40
0.4629693499
 40
0.6216043316
 40
0.8013834226
 40
1.0
 40
1.0
 40
1.0
 40
1.0
 10
12.7715833856
 20
6.464066453
 30
0.0
 10
12.7707293278
 20
6.4618672929
 30
0.0
 10
12.7703768936
 20
6.4563134963
 30
0.0
 10
12.7737944086
 20
6.4477261441
 30
0.0
 10
12.7804447159
 20
6.4382596324
 30
0.0
 10
12.7903826662
 20
6.4278437582
 30
0.0
 10
12.8034989341
 20
6.4165520469
 30
0.0
 10
12.8196684073
 20
6.40452819
 30
0.0
 10
12.8386782684
 20
6.3919395474
 30
0.0
 10
12.8524463672
 20
6.3836630149
 30
0.0
 10
12.8597464675
 20
6.3794483954
 30
0.0
  0
SPLINE
  5
28F
100
AcDbEntity
  8
0
100
AcDbSpline
 62
7
  6
CONTINUOUS
 70
0
 71
3
 72
11
 73
7
 74
0
 42
0.0000001
 43
0.0000001
 44
0.0000000001
 40
0.0
 40
0.0
 40
0.0
 40
0.0
 40
0.3455482501
 40
0.4784227518
 40
0.6319670166
 40
1.0
 40
1.0
 40
1.0
 40
1.0
 10
11.1917213698
 20
7.6176926779
 30
0.0
 10
11.1944557506
 20
7.6247339472
 30
0.0
 10
11.2066734071
 20
7.6292587645
 30
0.0
 10
11.2199830158
 20
7.6310649197
 30
0.0
 10
11.2343913012
 20
7.6318366094
 30
0.0
 10
11.2457619658
 20
7.6312227293
 30
0.0
 10
11.2537751304
 20
7.6305069343
 30
0.0
  0
SPLINE
  5
290
100
AcDbEntity
  8
0
100
AcDbSpline
 62
7
  6
CONTINUOUS
 70
0
 71
3
 72
15
 73
11
 74
0
 42
0.0000001
 43
0.0000001
 44
0.0000000001
 40
0.0
 40
0.0
 40
0.0
 40
0.0
 40
0.0555879202
 40
0.1246261579
 40
0.214220505
 40
0.3269134865
 40
0.4629693499
 40
0.6216043316
 40
0.8013834226
 40
1.0
 40
1.0
 40
1.0
 40
1.0
 10
11.115164935
 20
7.4203784567
 30
0.0
 10
11.1143108772
 20
7.4181792966
 30
0.0
 10
11.113958443
 20
7.4126255
 30
0.0
 10
11.117375958
 20
7.4040381478
 30
0.0
 10
11.1240262653
 20
7.3945716361
 30
0.0
 10
11.1339642156
 20
7.3841557619
 30
0.0
 10
11.1470804835
 20
7.3728640506
 30
0.0
 10
11.1632499566
 20
7.3608401937
 30
0.0
 10
11.1822598178
 20
7.3482515511
 30
0.0
 10
11.1960279165
 20
7.3399750186
 30
0.0
 10
11.2033280168
 20
7.3357603991
 30
0.0
  0
SPLINE
  5
291
100
AcDbEntity
  8
0
100
AcDbSpline
 62
7
  6
CONTINUOUS
 70
0
 71
3
 72
11
 73
7
 74
0
 42
0.0000001
 43
0.0000001
 44
0.0000000001
 40
0.0
 40
0.0
 40
0.0
 40
0.0
 40
0.2177757602
 40
0.4508996203
 40
0.7103602592
 40
1.0
 40
1.0
 40
1.0
 40
1.0
 10
13.7379377233
 20
9.1615648041
 30
0.0
 10
13.7407962744
 20
9.1632142148
 30
0.0
 10
13.7461495042
 20
9.1677028774
 30
0.0
 10
13.7518438786
 20
9.1770133872
 30
0.0
 10
13.7552251482
 20
9.1884847077
 30
0.0
 10
13.7558931213
 20
9.1968342165
 30
0.0
 10
13.7558931213
 20
9.2012235628
 30
0.0
  0
SPLINE
  5
292
100
AcDbEntity
  8
0
100
AcDbSpline
 62
7
  6
CONTINUOUS
 70
0
 71
3
 72
15
 73
11
 74
0
 42
0.0000001
 43
0.0000001
 44
0.0000000001
 40
0.0
 40
0.0
 40
0.0
 40
0.0
 40
0.1141573477
 40
0.237324141
 40
0.366975522
 40
0.4999995104
 40
0.6330235708
 40
0.7626751593
 40
0.8858422912
 40
1.0
 40
1.0
 40
1.0
 40
1.0
 10
12.6924549517
 20
7.2837436661
 30
0.0
 10
12.7239011958
 20
7.3018990553
 30
0.0
 10
12.7926616457
 20
7.3339188743
 30
0.0
 10
12.9046358645
 20
7.3679501992
 30
0.0
 10
13.0258637436
 20
7.3889004862
 30
0.0
 10
13.1517952262
 20
7.3959675722
 30
0.0
 10
13.2777268077
 20
7.3889010768
 30
0.0
 10
13.3989549831
 20
7.3679513584
 30
0.0
 10
13.5109296619
 20
7.3339205629
 30
0.0
 10
13.5796905153
 20
7.3019010943
 30
0.0
 10
13.6111369899
 20
7.2837458745
 30
0.0
  0
SPLINE
  5
293
100
AcDbEntity
  8
0
100
AcDbSpline
 62
7
  6
CONTINUOUS
 70
0
 71
3
 72
11
 73
7
 74
0
 42
0.0000001
 43
0.0000001
 44
0.0000000001
 40
0.0
 40
0.0
 40
0.0
 40
0.0
 40
0.2792765976
 40
0.5382175992
 40
0.7775205167
 40
1.0
 40
1.0
 40
1.0
 40
1.0
 10
13.6111369899
 20
7.2837458745
 30
0.0
 10
13.6313318284
 20
7.2720866428
 30
0.0
 10
13.6690290825
 20
7.2473709589
 30
0.0
 10
13.7181729042
 20
7.2045956688
 30
0.0
 10
13.7569060489
 20
7.1581767251
 30
0.0
 10
13.7758294019
 20
7.1242270368
 30
0.0
 10
13.7830349308
 20
7.1071049796
 30
0.0
  0
SPLINE
  5
294
100
AcDbEntity
  8
0
100
AcDbSpline
 62
7
  6
CONTINUOUS
 70
0
 71
3
 72
14
 73
10
 74
0
 42
0.0000001
 43
0.0000001
 44
0.0000000001
 40
0.0
 40
0.0
 40
0.0
 40
0.0
 40
0.1209517522
 40
0.2528634959
 40
0.5300978099
 40
0.6653158116
 40
0.7916142465
 40
0.9044668285
 40
1.0
 40
1.0
 40
1.0
 40
1.0
 10
13.2077335375
 20
6.178542512
 30
0.0
 10
13.2212644135
 20
6.1707306338
 30
0.0
 10
13.250080999
 20
6.1553070081
 30
0.0
 10
13.3119763107
 20
6.1259808852
 30
0.0
 10
13.3774112765
 20
6.0999592341
 30
0.0
 10
13.4435502561
 20
6.0782586812
 30
0.0
 10
13.4901659037
 20
6.0653040725
 30
0.0
 10
13.5324066651
 20
6.0560024324
 30
0.0
 10
13.5590780331
 20
6.0520580065
 30
0.0
 10
13.5713696505
 20
6.0509600285
 30
0.0
  0
SPLINE
  5
295
100
AcDbEntity
  8
0
100
AcDbSpline
 62
7
  6
CONTINUOUS
 70
0
 71
3
 72
13
 73
9
 74
0
 42
0.0000001
 43
0.0000001
 44
0.0000000001
 40
0.0
 40
0.0
 40
0.0
 40
0.0
 40
0.289410999
 40
0.548291894
 40
0.667744583
 40
0.7817712368
 40
0.8919048759
 40
1.0
 40
1.0
 40
1.0
 40
1.0
 10
13.611140814
 20
6.9301538392
 30
0.0
 10
13.6396553537
 20
6.9466166181
 30
0.0
 10
13.691361345
 20
6.9821919843
 30
0.0
 10
13.744228981
 20
7.0378249861
 30
0.0
 10
13.7740004108
 20
7.0854746923
 30
0.0
 10
13.7897342922
 20
7.1214301745
 30
0.0
 10
13.7992694358
 20
7.1581740644
 30
0.0
 10
13.8014024284
 20
7.1830518198
 30
0.0
 10
13.8014024294
 20
7.1953495839
 30
0.0
  0
SPLINE
  5
296
100
AcDbEntity
  8
0
100
AcDbSpline
 62
7
  6
CONTINUOUS
 70
0
 71
3
 72
14
 73
10
 74
0
 42
0.0000001
 43
0.0000001
 44
0.0000000001
 40
0.0
 40
0.0
 40
0.0
 40
0.0
 40
0.1209517522
 40
0.2528634959
 40
0.5300978099
 40
0.6653158116
 40
0.7916142465
 40
0.9044668285
 40
1.0
 40
1.0
 40
1.0
 40
1.0
 10
11.5513150869
 20
7.1348545157
 30
0.0
 10
11.5648459629
 20
7.1270426375
 30
0.0
 10
11.5936625484
 20
7.1116190118
 30
0.0
 10
11.6555578601
 20
7.0822928889
 30
0.0
 10
11.7209928259
 20
7.0562712378
 30
0.0
 10
11.7871318055
 20
7.0345706849
 30
0.0
 10
11.8337474531
 20
7.0216160762
 30
0.0
 10
11.8759882145
 20
7.0123144361
 30
0.0
 10
11.9026595825
 20
7.0083700102
 30
0.0
 10
11.9149511999
 20
7.0072720322
 30
0.0
  0
SPLINE
  5
297
100
AcDbEntity
  8
0
100
AcDbSpline
 62
7
  6
CONTINUOUS
 70
0
 71
3
 72
13
 73
9
 74
0
 42
0.0000001
 43
0.0000001
 44
0.0000000001
 40
0.0
 40
0.0
 40
0.0
 40
0.0
 40
0.1142469179
 40
0.2375434738
 40
0.4999988223
 40
0.762455096
 40
0.8857523591
 40
1.0
 40
1.0
 40
1.0
 40
1.0
 10
15.4763418872
 20
7.0506994249
 30
0.0
 10
15.4877756445
 20
7.0573006684
 30
0.0
 10
15.5103631132
 20
7.0731350252
 30
0.0
 10
15.5526511654
 20
7.1127121544
 30
0.0
 10
15.5973167216
 20
7.1737275245
 30
0.0
 10
15.6278243942
 20
7.2429169602
 30
0.0
 10
15.6409550991
 20
7.2993283466
 30
0.0
 10
15.6433742897
 20
7.3268070094
 30
0.0
 10
15.6433742897
 20
7.3400096389
 30
0.0
  0
SPLINE
  5
298
100
AcDbEntity
  8
0
100
AcDbSpline
 62
7
  6
CONTINUOUS
 70
0
 71
3
 72
14
 73
10
 74
0
 42
0.0000001
 43
0.0000001
 44
0.0000000001
 40
0.0
 40
0.0
 40
0.0
 40
0.0
 40
0.0955336115
 40
0.2083864094
 40
0.3346847966
 40
0.4699028925
 40
0.7471372554
 40
0.8790487643
 40
1.0
 40
1.0
 40
1.0
 40
1.0
 10
13.6479261683
 20
6.2482744584
 30
0.0
 10
13.6356344943
 20
6.2493724414
 30
0.0
 10
13.6089630448
 20
6.2533168972
 30
0.0
 10
13.5667222056
 20
6.2626185474
 30
0.0
 10
13.5201065316
 20
6.2755731889
 30
0.0
 10
13.4539675426
 20
6.2972737519
 30
0.0
 10
13.3885325987
 20
6.3232954254
 30
0.0
 10
13.3266373672
 20
6.3526215056
 30
0.0
 10
13.2978208735
 20
6.368045097
 30
0.0
 10
13.2842900553
 20
6.3758569418
 30
0.0
  0
SPLINE
  5
299
100
AcDbEntity
  8
0
100
AcDbSpline
 62
7
  6
CONTINUOUS
 70
0
 71
3
 72
15
 73
11
 74
0
 42
0.0000001
 43
0.0000001
 44
0.0000000001
 40
0.0
 40
0.0
 40
0.0
 40
0.0
 40
0.1986163358
 40
0.3783959427
 40
0.5370307753
 40
0.6730862512
 40
0.7857790301
 40
0.8753735374
 40
0.9444120865
 40
1.0
 40
1.0
 40
1.0
 40
1.0
 10
12.9363029853
 20
6.5767628253
 30
0.0
 10
12.9290029063
 20
6.5809774325
 30
0.0
 10
12.9152348275
 20
6.589253967
 30
0.0
 10
12.8962249859
 20
6.6018425778
 30
0.0
 10
12.8800555383
 20
6.61386641
 30
0.0
 10
12.8669393053
 20
6.6251580674
 30
0.0
 10
12.8570013732
 20
6.6355739008
 30
0.0
 10
12.8503510511
 20
6.6450403866
 30
0.0
 10
12.8469334484
 20
6.6536277029
 30
0.0
 10
12.8472858025
 20
6.6591815033
 30
0.0
 10
12.8481398205
 20
6.6613806742
 30
0.0
  0
SPLINE
  5
29A
100
AcDbEntity
  8
0
100
AcDbSpline
 62
7
  6
CONTINUOUS
 70
0
 71
3
 72
15
 73
11
 74
0
 42
0.0000001
 43
0.0000001
 44
0.0000000001
 40
0.0
 40
0.0
 40
0.0
 40
0.0
 40
0.114157773
 40
0.2373248999
 40
0.3669764928
 40
0.5000005533
 40
0.6330245417
 40
0.7626759183
 40
0.8858427164
 40
1.0
 40
1.0
 40
1.0
 40
1.0
 10
13.6111369902
 20
7.4605475792
 30
0.0
 10
13.579690498
 20
7.4787028092
 30
0.0
 10
13.510929626
 20
7.5107222838
 30
0.0
 10
13.3989549251
 20
7.5447530764
 30
0.0
 10
13.2777267487
 20
7.5657027892
 30
0.0
 10
13.1517951652
 20
7.5727692765
 30
0.0
 10
13.0258636843
 20
7.5657021834
 30
0.0
 10
12.9046358059
 20
7.5447518905
 30
0.0
 10
12.7926616093
 20
7.510720562
 30
0.0
 10
12.7239011777
 20
7.4787007493
 30
0.0
 10
12.6924549512
 20
7.4605453703
 30
0.0
  0
SPLINE
  5
29B
100
AcDbEntity
  8
0
100
AcDbSpline
 62
7
  6
CONTINUOUS
 70
0
 71
3
 72
15
 73
11
 74
0
 42
0.0000001
 43
0.0000001
 44
0.0000000001
 40
0.0
 40
0.0
 40
0.0
 40
0.0
 40
0.114153924
 40
0.2373253386
 40
0.3669749131
 40
0.4999992565
 40
0.6330236791
 40
0.7626737852
 40
0.8858456723
 40
1.0
 40
1.0
 40
1.0
 40
1.0
 10
15.281468433
 20
8.9633674609
 30
0.0
 10
15.3005263158
 20
8.952364636
 30
0.0
 10
15.3381692511
 20
8.9259777743
 30
0.0
 10
15.3899640534
 20
8.8775204452
 30
0.0
 10
15.4376959535
 20
8.8202399253
 30
0.0
 10
15.4795668876
 20
8.7562850213
 30
0.0
 10
15.5140183369
 20
8.6880463334
 30
0.0
 10
15.5397591318
 20
8.6180689496
 30
0.0
 10
15.5558275245
 20
8.5489845139
 30
0.0
 10
15.5598580884
 20
8.5031912115
 30
0.0
 10
15.5598580884
 20
8.4811851106
 30
0.0
  0
SPLINE
  5
29C
100
AcDbEntity
  8
0
100
AcDbSpline
 62
7
  6
CONTINUOUS
 70
0
 71
3
 72
16
 73
12
 74
0
 42
0.0000001
 43
0.0000001
 44
0.0000000001
 40
0.0
 40
0.0
 40
0.0
 40
0.0
 40
0.1287340341
 40
0.2703735707
 40
0.4175874357
 40
0.5619922452
 40
0.6957238081
 40
0.8130490102
 40
0.912467732
 40
0.9571204941
 40
1.0
 40
1.0
 40
1.0
 40
1.0
 10
15.0253499487
 20
8.4683189023
 30
0.0
 10
15.0253499487
 20
8.4609169362
 30
0.0
 10
15.0274216354
 20
8.4453534115
 30
0.0
 10
15.0351470461
 20
8.4225002485
 30
0.0
 10
15.0470588614
 20
8.4004847841
 30
0.0
 10
15.0621828691
 20
8.38111281
 30
0.0
 10
15.0793296475
 20
8.3659421386
 30
0.0
 10
15.0971685085
 20
8.3561521229
 30
0.0
 10
15.1123130857
 20
8.3531888725
 30
0.0
 10
15.1230419617
 20
8.3547565741
 30
0.0
 10
15.1277505078
 20
8.3567090719
 30
0.0
 10
15.1298860013
 20
8.3579412711
 30
0.0
  0
SPLINE
  5
29D
100
AcDbEntity
  8
0
100
AcDbSpline
 62
7
  6
CONTINUOUS
 70
0
 71
3
 72
13
 73
9
 74
0
 42
0.0000001
 43
0.0000001
 44
0.0000000001
 40
0.0
 40
0.0
 40
0.0
 40
0.0
 40
0.1080948947
 40
0.2182283419
 40
0.3322548659
 40
0.4517075221
 40
0.710588647
 40
1.0
 40
1.0
 40
1.0
 40
1.0
 10
13.8014024294
 20
7.1953495839
 30
0.0
 10
13.8014024304
 20
7.207647482
 30
0.0
 10
13.7992694002
 20
7.2325255154
 30
0.0
 10
13.7897340469
 20
7.2692698002
 30
0.0
 10
13.7739998357
 20
7.3052256545
 30
0.0
 10
13.7442277596
 20
7.3528758325
 30
0.0
 10
13.6913590265
 20
7.4085092676
 30
0.0
 10
13.6396520549
 20
7.4440847713
 30
0.0
 10
13.6111369902
 20
7.4605475792
 30
0.0
  0
SPLINE
  5
29E
100
AcDbEntity
  8
0
100
AcDbSpline
 62
7
  6
CONTINUOUS
 70
0
 71
3
 72
14
 73
10
 74
0
 42
0.0000001
 43
0.0000001
 44
0.0000000001
 40
0.0
 40
0.0
 40
0.0
 40
0.0
 40
0.0955336115
 40
0.2083864094
 40
0.3346847966
 40
0.4699028925
 40
0.7471372554
 40
0.8790487643
 40
1.0
 40
1.0
 40
1.0
 40
1.0
 10
11.9915077177
 20
7.2045864621
 30
0.0
 10
11.9792160437
 20
7.2056844451
 30
0.0
 10
11.9525445942
 20
7.2096289009
 30
0.0
 10
11.9103037549
 20
7.2189305511
 30
0.0
 10
11.8636880809
 20
7.2318851926
 30
0.0
 10
11.7975490919
 20
7.2535857556
 30
0.0
 10
11.732114148
 20
7.2796074291
 30
0.0
 10
11.6702189166
 20
7.3089335093
 30
0.0
 10
11.6414024229
 20
7.3243571007
 30
0.0
 10
11.6278716047
 20
7.3321689455
 30
0.0
  0
SPLINE
  5
29F
100
AcDbEntity
  8
0
100
AcDbSpline
 62
7
  6
CONTINUOUS
 70
0
 71
3
 72
15
 73
11
 74
0
 42
0.0000001
 43
0.0000001
 44
0.0000000001
 40
0.0
 40
0.0
 40
0.0
 40
0.0
 40
0.1986163358
 40
0.3783959427
 40
0.5370307753
 40
0.6730862512
 40
0.7857790301
 40
0.8753735374
 40
0.9444120865
 40
1.0
 40
1.0
 40
1.0
 40
1.0
 10
11.2798845346
 20
7.533074829
 30
0.0
 10
11.2725844557
 20
7.5372894362
 30
0.0
 10
11.2588163769
 20
7.5455659707
 30
0.0
 10
11.2398065353
 20
7.5581545815
 30
0.0
 10
11.2236370877
 20
7.5701784137
 30
0.0
 10
11.2105208547
 20
7.5814700711
 30
0.0
 10
11.2005829226
 20
7.5918859045
 30
0.0
 10
11.1939326004
 20
7.6013523903
 30
0.0
 10
11.1905149978
 20
7.6099397066
 30
0.0
 10
11.1908673518
 20
7.615493507
 30
0.0
 10
11.1917213698
 20
7.6176926779
 30
0.0
  0
SPLINE
  5
2A0
100
AcDbEntity
  8
0
100
AcDbSpline
 62
7
  6
CONTINUOUS
 70
0
 71
3
 72
11
 73
7
 74
0
 42
0.0000001
 43
0.0000001
 44
0.0000000001
 40
0.0
 40
0.0
 40
0.0
 40
0.0
 40
0.2177736926
 40
0.4509538255
 40
0.7102032027
 40
1.0
 40
1.0
 40
1.0
 40
1.0
 10
13.3029253096
 20
10.0115034379
 30
0.0
 10
13.3159114628
 20
10.0190009426
 30
0.0
 10
13.345751443
 20
10.0298382187
 30
0.0
 10
13.3953079221
 20
10.0310793196
 30
0.0
 10
13.4481332687
 20
10.0183405047
 30
0.0
 10
13.4824935779
 20
10.0019825811
 30
0.0
 10
13.4997746371
 20
9.9920055826
 30
0.0
  0
SPLINE
  5
2A1
100
AcDbEntity
  8
0
100
AcDbSpline
 62
7
  6
CONTINUOUS
 70
0
 71
3
 72
11
 73
7
 74
0
 42
0.0000001
 43
0.0000001
 44
0.0000000001
 40
0.0
 40
0.0
 40
0.0
 40
0.0
 40
0.217775751
 40
0.4508996065
 40
0.7103602548
 40
1.0
 40
1.0
 40
1.0
 40
1.0
 10
13.651357069
 20
9.3116011941
 30
0.0
 10
13.6484985175
 20
9.3099517839
 30
0.0
 10
13.6431452864
 20
9.3054631225
 30
0.0
 10
13.6374509122
 20
9.2961526118
 30
0.0
 10
13.6340696441
 20
9.2846812903
 30
0.0
 10
13.6334016714
 20
9.276331781
 30
0.0
 10
13.6334016715
 20
9.2719424345
 30
0.0
  0
SPLINE
  5
2A2
100
AcDbEntity
  8
0
100
AcDbSpline
 62
7
  6
CONTINUOUS
 70
0
 71
3
 72
11
 73
7
 74
0
 42
0.0000001
 43
0.0000001
 44
0.0000000001
 40
0.0
 40
0.0
 40
0.0
 40
0.0
 40
0.237241057
 40
0.5000022162
 40
0.7627625465
 40
1.0
 40
1.0
 40
1.0
 40
1.0
 10
15.5598580884
 20
7.2917918255
 30
0.0
 10
15.5598580884
 20
7.2781005045
 30
0.0
 10
15.5547218615
 20
7.2492267063
 30
0.0
 10
15.5368250583
 20
7.2086530016
 30
0.0
 10
15.5106358636
 20
7.1728671306
 30
0.0
 10
15.4881987566
 20
7.1539822444
 30
0.0
 10
15.4763418872
 20
7.1471367185
 30
0.0
  0
SPLINE
  5
2A3
100
AcDbEntity
  8
0
100
AcDbSpline
 62
7
  6
CONTINUOUS
 70
0
 71
3
 72
16
 73
12
 74
0
 42
0.0000001
 43
0.0000001
 44
0.0000000001
 40
0.0
 40
0.0
 40
0.0
 40
0.0
 40
0.1287340319
 40
0.2703735664
 40
0.4175874332
 40
0.5619922431
 40
0.6957238068
 40
0.8130490096
 40
0.912467732
 40
0.9571204948
 40
1.0
 40
1.0
 40
1.0
 40
1.0
 10
13.6334016715
 20
9.2719424345
 30
0.0
 10
13.6334016715
 20
9.2645404685
 30
0.0
 10
13.6354733572
 20
9.248976944
 30
0.0
 10
13.6431987662
 20
9.2261237805
 30
0.0
 10
13.6551105839
 20
9.2041083174
 30
0.0
 10
13.6702345908
 20
9.1847363425
 30
0.0
 10
13.6873813696
 20
9.1695656714
 30
0.0
 10
13.7052202306
 20
9.1597756551
 30
0.0
 10
13.7203648079
 20
9.1568124053
 30
0.0
 10
13.731093684
 20
9.1583801062
 30
0.0
 10
13.73580223
 20
9.1603326045
 30
0.0
 10
13.7379377233
 20
9.1615648041
 30
0.0
  0
SPLINE
  5
2A4
100
AcDbEntity
  8
0
100
AcDbSpline
 62
7
  6
CONTINUOUS
 70
0
 71
3
 72
11
 73
7
 74
0
 42
0.0000001
 43
0.0000001
 44
0.0000000001
 40
0.0
 40
0.0
 40
0.0
 40
0.0
 40
0.2177757598
 40
0.4508996169
 40
0.7103602548
 40
1.0
 40
1.0
 40
1.0
 40
1.0
 10
15.043305347
 20
8.5079776611
 30
0.0
 10
15.0404467958
 20
8.5063282503
 30
0.0
 10
15.0350935661
 20
8.5018395877
 30
0.0
 10
15.029399191
 20
8.4925290783
 30
0.0
 10
15.0260179215
 20
8.4810577575
 30
0.0
 10
15.0253499487
 20
8.4727082487
 30
0.0
 10
15.0253499487
 20
8.4683189023
 30
0.0
  0
SPLINE
  5
2A5
100
AcDbEntity
  8
0
100
AcDbSpline
 62
7
  6
CONTINUOUS
 70
0
 71
3
 72
15
 73
11
 74
0
 42
0.0000001
 43
0.0000001
 44
0.0000000001
 40
0.0
 40
0.0
 40
0.0
 40
0.0
 40
0.161545575
 40
0.3184699557
 40
0.4664749489
 40
0.6019448999
 40
0.72238542
 40
0.8270397734
 40
0.9177750261
 40
1.0
 40
1.0
 40
1.0
 40
1.0
 10
2.7138260868
 20
2.1075557234
 30
0.0
 10
2.6958826961
 20
2.1075557234
 30
0.0
 10
2.6604835691
 20
2.1058380185
 30
0.0
 10
2.6091520825
 20
2.0981699165
 30
0.0
 10
2.5617341479
 20
2.0857135905
 30
0.0
 10
2.5199777199
 20
2.0689260491
 30
0.0
 10
2.485367882
 20
2.0483843188
 30
0.0
 10
2.4591110969
 20
2.0246589771
 30
0.0
 10
2.4422697593
 20
1.9982523854
 30
0.0
 10
2.438235536
 20
1.9788934423
 30
0.0
 10
2.438235536
 20
1.9697604479
 30
0.0
  0
SPLINE
  5
2A6
100
AcDbEntity
  8
0
100
AcDbSpline
 62
7
  6
CONTINUOUS
 70
0
 71
3
 72
15
 73
11
 74
0
 42
0.0000001
 43
0.0000001
 44
0.0000000001
 40
0.0
 40
0.0
 40
0.0
 40
0.0
 40
0.0822253101
 40
0.1729607366
 40
0.2776150916
 40
0.3980557421
 40
0.5335256937
 40
0.6815309025
 40
0.8384550386
 40
1.0
 40
1.0
 40
1.0
 40
1.0
 10
5.8240623077
 20
1.9697604479
 30
0.0
 10
5.8240623077
 20
1.9788934795
 30
0.0
 10
5.8200280193
 20
1.9982524693
 30
0.0
 10
5.8031866661
 20
2.0246591133
 30
0.0
 10
5.776929798
 20
2.0483844219
 30
0.0
 10
5.7423199428
 20
2.0689261399
 30
0.0
 10
5.7005634675
 20
2.0857136725
 30
0.0
 10
5.653145525
 20
2.0981699474
 30
0.0
 10
5.6018141119
 20
2.1058380508
 30
0.0
 10
5.5664150791
 20
2.1075557234
 30
0.0
 10
5.5484717569
 20
2.1075557234
 30
0.0
  0
SPLINE
  5
2A7
100
AcDbEntity
  8
0
100
AcDbSpline
 62
7
  6
CONTINUOUS
 70
0
 71
3
 72
15
 73
11
 74
0
 42
0.0000001
 43
0.0000001
 44
0.0000000001
 40
0.0
 40
0.0
 40
0.0
 40
0.0
 40
0.161545575
 40
0.3184699557
 40
0.4664749489
 40
0.6019448999
 40
0.72238542
 40
0.8270397734
 40
0.9177750261
 40
1.0
 40
1.0
 40
1.0
 40
1.0
 10
5.0563457718
 20
2.1075557234
 30
0.0
 10
5.0384023811
 20
2.1075557234
 30
0.0
 10
5.0030032541
 20
2.1058380185
 30
0.0
 10
4.9516717676
 20
2.0981699165
 30
0.0
 10
4.9042538329
 20
2.0857135905
 30
0.0
 10
4.8624974049
 20
2.0689260491
 30
0.0
 10
4.8278875671
 20
2.0483843188
 30
0.0
 10
4.8016307819
 20
2.0246589771
 30
0.0
 10
4.7847894443
 20
1.9982523854
 30
0.0
 10
4.780755221
 20
1.9788934423
 30
0.0
 10
4.780755221
 20
1.9697604479
 30
0.0
  0
SPLINE
  5
2A8
100
AcDbEntity
  8
0
100
AcDbSpline
 62
7
  6
CONTINUOUS
 70
0
 71
3
 72
15
 73
11
 74
0
 42
0.0000001
 43
0.0000001
 44
0.0000000001
 40
0.0
 40
0.0
 40
0.0
 40
0.0
 40
0.0822253101
 40
0.1729607366
 40
0.2776150916
 40
0.3980557421
 40
0.5335256937
 40
0.6815309025
 40
0.8384550386
 40
1.0
 40
1.0
 40
1.0
 40
1.0
 10
3.4815426226
 20
1.9697604479
 30
0.0
 10
3.4815426226
 20
1.9788934795
 30
0.0
 10
3.4775083343
 20
1.9982524693
 30
0.0
 10
3.4606669811
 20
2.0246591133
 30
0.0
 10
3.434410113
 20
2.0483844219
 30
0.0
 10
3.3998002577
 20
2.0689261399
 30
0.0
 10
3.3580437824
 20
2.0857136725
 30
0.0
 10
3.3106258399
 20
2.0981699474
 30
0.0
 10
3.2592944268
 20
2.1058380508
 30
0.0
 10
3.2238953941
 20
2.1075557234
 30
0.0
 10
3.2059520719
 20
2.1075557234
 30
0.0
  0
SPLINE
  5
2A9
100
AcDbEntity
  8
0
100
AcDbSpline
 62
7
  6
CONTINUOUS
 70
0
 71
3
 72
15
 73
11
 74
0
 42
0.0000001
 43
0.0000001
 44
0.0000000001
 40
0.0
 40
0.0
 40
0.0
 40
0.0
 40
0.0822253101
 40
0.1729607367
 40
0.277615092
 40
0.3980557423
 40
0.5335256937
 40
0.6815309028
 40
0.8384550386
 40
1.0
 40
1.0
 40
1.0
 40
1.0
 10
4.780755221
 20
1.7822352621
 30
0.0
 10
4.780755221
 20
1.7913682937
 30
0.0
 10
4.7847895095
 20
1.8107272834
 30
0.0
 10
4.8016308627
 20
1.8371339275
 30
0.0
 10
4.827887731
 20
1.8608592358
 30
0.0
 10
4.8624975861
 20
1.881400954
 30
0.0
 10
4.9042540614
 20
1.8981884867
 30
0.0
 10
4.9516720039
 20
1.9106447612
 30
0.0
 10
5.0030034169
 20
1.9183128651
 30
0.0
 10
5.0384024496
 20
1.9200305376
 30
0.0
 10
5.0563457718
 20
1.9200305376
 30
0.0
  0
SPLINE
  5
2AA
100
AcDbEntity
  8
0
100
AcDbSpline
 62
7
  6
CONTINUOUS
 70
0
 71
3
 72
15
 73
11
 74
0
 42
0.0000001
 43
0.0000001
 44
0.0000000001
 40
0.0
 40
0.0
 40
0.0
 40
0.0
 40
0.0822253101
 40
0.1729607367
 40
0.277615092
 40
0.3980557423
 40
0.5335256937
 40
0.6815309028
 40
0.8384550386
 40
1.0
 40
1.0
 40
1.0
 40
1.0
 10
2.438235536
 20
1.7822352621
 30
0.0
 10
2.438235536
 20
1.7913682937
 30
0.0
 10
2.4422698244
 20
1.8107272834
 30
0.0
 10
2.4591111777
 20
1.8371339275
 30
0.0
 10
2.485368046
 20
1.8608592358
 30
0.0
 10
2.5199779011
 20
1.881400954
 30
0.0
 10
2.5617343763
 20
1.8981884867
 30
0.0
 10
2.6091523188
 20
1.9106447612
 30
0.0
 10
2.6604837318
 20
1.9183128651
 30
0.0
 10
2.6958827645
 20
1.9200305376
 30
0.0
 10
2.7138260868
 20
1.9200305376
 30
0.0
  0
SPLINE
  5
2AB
100
AcDbEntity
  8
0
100
AcDbSpline
 62
7
  6
CONTINUOUS
 70
0
 71
3
 72
15
 73
11
 74
0
 42
0.0000001
 43
0.0000001
 44
0.0000000001
 40
0.0
 40
0.0
 40
0.0
 40
0.0
 40
0.1615455751
 40
0.3184699555
 40
0.4664749489
 40
0.6019448998
 40
0.7223854196
 40
0.8270397733
 40
0.9177750261
 40
1.0
 40
1.0
 40
1.0
 40
1.0
 10
5.5484717569
 20
1.9200305376
 30
0.0
 10
5.5664151476
 20
1.9200305376
 30
0.0
 10
5.6018142746
 20
1.9183128329
 30
0.0
 10
5.6531457611
 20
1.9106447304
 30
0.0
 10
5.7005636957
 20
1.8981884047
 30
0.0
 10
5.7423201237
 20
1.8814008632
 30
0.0
 10
5.7769299614
 20
1.8608591327
 30
0.0
 10
5.8031867467
 20
1.8371337912
 30
0.0
 10
5.8200280844
 20
1.8107271995
 30
0.0
 10
5.8240623077
 20
1.7913682564
 30
0.0
 10
5.8240623077
 20
1.782235262
 30
0.0
  0
SPLINE
  5
2AC
100
AcDbEntity
  8
0
100
AcDbSpline
 62
7
  6
CONTINUOUS
 70
0
 71
3
 72
15
 73
11
 74
0
 42
0.0000001
 43
0.0000001
 44
0.0000000001
 40
0.0
 40
0.0
 40
0.0
 40
0.0
 40
0.1615455751
 40
0.3184699555
 40
0.4664749489
 40
0.6019448998
 40
0.7223854196
 40
0.8270397733
 40
0.9177750261
 40
1.0
 40
1.0
 40
1.0
 40
1.0
 10
3.2059520719
 20
1.9200305376
 30
0.0
 10
3.2238954625
 20
1.9200305376
 30
0.0
 10
3.2592945895
 20
1.9183128329
 30
0.0
 10
3.310626076
 20
1.9106447304
 30
0.0
 10
3.3580440107
 20
1.8981884047
 30
0.0
 10
3.3998004386
 20
1.8814008632
 30
0.0
 10
3.4344102764
 20
1.8608591327
 30
0.0
 10
3.4606670617
 20
1.8371337912
 30
0.0
 10
3.4775083994
 20
1.8107271995
 30
0.0
 10
3.4815426226
 20
1.7913682564
 30
0.0
 10
3.4815426226
 20
1.782235262
 30
0.0
  0
SPLINE
  5
2AD
100
AcDbEntity
  8
0
100
AcDbSpline
 62
7
  6
CONTINUOUS
 70
0
 71
3
 72
15
 73
11
 74
0
 42
0.0000001
 43
0.0000001
 44
0.0000000001
 40
0.0
 40
0.0
 40
0.0
 40
0.0
 40
0.1160613516
 40
0.2335537899
 40
0.3536447258
 40
0.4770487908
 40
0.6039413638
 40
0.7339739005
 40
0.8663592665
 40
1.0
 40
1.0
 40
1.0
 40
1.0
 10
4.780755221
 20
5.3330487414
 30
0.0
 10
4.780755221
 20
5.3174280679
 30
0.0
 10
4.7843612392
 20
5.2858807862
 30
0.0
 10
4.8003155636
 20
5.2406432499
 30
0.0
 10
4.826137835
 20
5.199055006
 30
0.0
 10
4.8607610096
 20
5.1627305167
 30
0.0
 10
4.9028084646
 20
5.1330071102
 30
0.0
 10
4.9506610428
 20
5.1109718753
 30
0.0
 10
5.002479048
 20
5.0974230934
 30
0.0
 10
5.0383590929
 20
5.0943803232
 30
0.0
 10
5.0563457718
 20
5.0943803232
 30
0.0
  0
SPLINE
  5
2AE
100
AcDbEntity
  8
0
100
AcDbSpline
 62
7
  6
CONTINUOUS
 70
0
 71
3
 72
15
 73
11
 74
0
 42
0.0000001
 43
0.0000001
 44
0.0000000001
 40
0.0
 40
0.0
 40
0.0
 40
0.0
 40
0.1160613516
 40
0.2335537899
 40
0.3536447258
 40
0.4770487908
 40
0.6039413638
 40
0.7339739005
 40
0.8663592665
 40
1.0
 40
1.0
 40
1.0
 40
1.0
 10
2.438235536
 20
5.3330487414
 30
0.0
 10
2.438235536
 20
5.3174280679
 30
0.0
 10
2.4418415541
 20
5.2858807862
 30
0.0
 10
2.4577958785
 20
5.2406432499
 30
0.0
 10
2.48361815
 20
5.199055006
 30
0.0
 10
2.5182413245
 20
5.1627305167
 30
0.0
 10
2.5602887795
 20
5.1330071102
 30
0.0
 10
2.6081413577
 20
5.1109718753
 30
0.0
 10
2.6599593629
 20
5.0974230934
 30
0.0
 10
2.6958394079
 20
5.0943803232
 30
0.0
 10
2.7138260868
 20
5.0943803232
 30
0.0
  0
SPLINE
  5
2AF
100
AcDbEntity
  8
0
100
AcDbSpline
 62
7
  6
CONTINUOUS
 70
0
 71
3
 72
15
 73
11
 74
0
 42
0.0000001
 43
0.0000001
 44
0.0000000001
 40
0.0
 40
0.0
 40
0.0
 40
0.0
 40
0.1336412475
 40
0.2660268289
 40
0.3960592218
 40
0.5229518397
 40
0.6463558295
 40
0.7664468607
 40
0.8839391002
 40
1.0
 40
1.0
 40
1.0
 40
1.0
 10
5.5484717569
 20
5.0943803232
 30
0.0
 10
5.566458505
 20
5.0943803232
 30
0.0
 10
5.6023386438
 20
5.097423149
 30
0.0
 10
5.654156731
 20
5.1109719326
 30
0.0
 10
5.70200929
 20
5.1330072541
 30
0.0
 10
5.7440567017
 20
5.1627306746
 30
0.0
 10
5.7786798602
 20
5.1990551981
 30
0.0
 10
5.8045020355
 20
5.2406434691
 30
0.0
 10
5.8204563535
 20
5.2858809281
 30
0.0
 10
5.8240623077
 20
5.3174281288
 30
0.0
 10
5.8240623077
 20
5.3330487415
 30
0.0
  0
SPLINE
  5
2B0
100
AcDbEntity
  8
0
100
AcDbSpline
 62
7
  6
CONTINUOUS
 70
0
 71
3
 72
15
 73
11
 74
0
 42
0.0000001
 43
0.0000001
 44
0.0000000001
 40
0.0
 40
0.0
 40
0.0
 40
0.0
 40
0.1336412475
 40
0.2660268289
 40
0.3960592218
 40
0.5229518397
 40
0.6463558295
 40
0.7664468607
 40
0.8839391002
 40
1.0
 40
1.0
 40
1.0
 40
1.0
 10
3.2059520719
 20
5.0943803232
 30
0.0
 10
3.22393882
 20
5.0943803232
 30
0.0
 10
3.2598189588
 20
5.097423149
 30
0.0
 10
3.311637046
 20
5.1109719326
 30
0.0
 10
3.3594896049
 20
5.1330072541
 30
0.0
 10
3.4015370166
 20
5.1627306746
 30
0.0
 10
3.4361601752
 20
5.1990551981
 30
0.0
 10
3.4619823504
 20
5.2406434691
 30
0.0
 10
3.4779366685
 20
5.2858809281
 30
0.0
 10
3.4815426226
 20
5.3174281288
 30
0.0
 10
3.4815426226
 20
5.3330487415
 30
0.0
  0
SPLINE
  5
2B1
100
AcDbEntity
  8
0
100
AcDbSpline
 62
7
  6
CONTINUOUS
 70
0
 71
3
 72
15
 73
11
 74
0
 42
0.0000001
 43
0.0000001
 44
0.0000000001
 40
0.0
 40
0.0
 40
0.0
 40
0.0
 40
0.1160613516
 40
0.2335537899
 40
0.3536447258
 40
0.4770487907
 40
0.6039413638
 40
0.7339739004
 40
0.8663592666
 40
1.0
 40
1.0
 40
1.0
 40
1.0
 10
5.8240623077
 20
5.441316458
 30
0.0
 10
5.8240623077
 20
5.4256957845
 30
0.0
 10
5.8204562896
 20
5.3941485028
 30
0.0
 10
5.8045019652
 20
5.3489109665
 30
0.0
 10
5.778679694
 20
5.3073227224
 30
0.0
 10
5.7440565193
 20
5.2709982332
 30
0.0
 10
5.7020090642
 20
5.2412748268
 30
0.0
 10
5.6541564861
 20
5.2192395914
 30
0.0
 10
5.6023384807
 20
5.2056908103
 30
0.0
 10
5.5664584358
 20
5.2026480397
 30
0.0
 10
5.5484717569
 20
5.2026480397
 30
0.0
  0
SPLINE
  5
2B2
100
AcDbEntity
  8
0
100
AcDbSpline
 62
7
  6
CONTINUOUS
 70
0
 71
3
 72
15
 73
11
 74
0
 42
0.0000001
 43
0.0000001
 44
0.0000000001
 40
0.0
 40
0.0
 40
0.0
 40
0.0
 40
0.1336412474
 40
0.2660268289
 40
0.3960592218
 40
0.5229518398
 40
0.6463558296
 40
0.7664468607
 40
0.8839391002
 40
1.0
 40
1.0
 40
1.0
 40
1.0
 10
5.0563457718
 20
5.2026480397
 30
0.0
 10
5.0383590237
 20
5.2026480397
 30
0.0
 10
5.0024788849
 20
5.2056908659
 30
0.0
 10
4.9506607975
 20
5.2192396487
 30
0.0
 10
4.9028082387
 20
5.2412749707
 30
0.0
 10
4.8607608269
 20
5.270998391
 30
0.0
 10
4.8261376682
 20
5.3073229144
 30
0.0
 10
4.8003154932
 20
5.3489111856
 30
0.0
 10
4.7843611752
 20
5.3941486445
 30
0.0
 10
4.780755221
 20
5.4256958452
 30
0.0
 10
4.780755221
 20
5.4413164579
 30
0.0
  0
SPLINE
  5
2B3
100
AcDbEntity
  8
0
100
AcDbSpline
 62
7
  6
CONTINUOUS
 70
0
 71
3
 72
15
 73
11
 74
0
 42
0.0000001
 43
0.0000001
 44
0.0000000001
 40
0.0
 40
0.0
 40
0.0
 40
0.0
 40
0.1160613516
 40
0.2335537899
 40
0.3536447258
 40
0.4770487907
 40
0.6039413638
 40
0.7339739004
 40
0.8663592666
 40
1.0
 40
1.0
 40
1.0
 40
1.0
 10
3.4815426226
 20
5.441316458
 30
0.0
 10
3.4815426226
 20
5.4256957845
 30
0.0
 10
3.4779366046
 20
5.3941485028
 30
0.0
 10
3.4619822802
 20
5.3489109665
 30
0.0
 10
3.436160009
 20
5.3073227224
 30
0.0
 10
3.4015368343
 20
5.2709982332
 30
0.0
 10
3.3594893792
 20
5.2412748268
 30
0.0
 10
3.3116368011
 20
5.2192395914
 30
0.0
 10
3.2598187957
 20
5.2056908103
 30
0.0
 10
3.2239387508
 20
5.2026480397
 30
0.0
 10
3.2059520719
 20
5.2026480397
 30
0.0
  0
SPLINE
  5
2B4
100
AcDbEntity
  8
0
100
AcDbSpline
 62
7
  6
CONTINUOUS
 70
0
 71
3
 72
15
 73
11
 74
0
 42
0.0000001
 43
0.0000001
 44
0.0000000001
 40
0.0
 40
0.0
 40
0.0
 40
0.0
 40
0.1336412474
 40
0.2660268289
 40
0.3960592218
 40
0.5229518398
 40
0.6463558296
 40
0.7664468607
 40
0.8839391002
 40
1.0
 40
1.0
 40
1.0
 40
1.0
 10
2.7138260868
 20
5.2026480397
 30
0.0
 10
2.6958393386
 20
5.2026480397
 30
0.0
 10
2.6599591999
 20
5.2056908659
 30
0.0
 10
2.6081411125
 20
5.2192396487
 30
0.0
 10
2.5602885537
 20
5.2412749707
 30
0.0
 10
2.5182411419
 20
5.270998391
 30
0.0
 10
2.4836179831
 20
5.3073229144
 30
0.0
 10
2.4577958082
 20
5.3489111856
 30
0.0
 10
2.4418414901
 20
5.3941486445
 30
0.0
 10
2.438235536
 20
5.4256958452
 30
0.0
 10
2.438235536
 20
5.4413164579
 30
0.0
  0
ENDSEC
  0
SECTION
  2
OBJECTS
  0
DICTIONARY
  5
C
100
AcDbDictionary
280
0
281
1
  3
ACAD_GROUP
350
D
  3
ACAD_MLINESTYLE
350
17
  3
ACAD_LAYOUT
350
1A
  3
ACAD_PLOTSETTINGS
350
19
  3
ACAD_PLOTSTYLENAME
350
E
  0
DICTIONARY
  5
D
102
{ACAD_REACTORS
330
C
102
}
100
AcDbDictionary
280
0
281
1
  0
ACDBDICTIONARYWDFLT
  5
E
102
{ACAD_REACTORS
330
C
102
}
100
AcDbDictionary
281
1
  3
Normal
350
F
100
AcDbDictionaryWithDefault
340
F
  0
DICTIONARY
  5
17
102
{ACAD_REACTORS
330
C
102
}
100
AcDbDictionary
280
0
281
1
  3
Standard
350
18
  0
DICTIONARY
  5
19
102
{ACAD_REACTORS
330
C
102
}
100
AcDbDictionary
281
1
  0
DICTIONARY
  5
1A
102
{ACAD_REACTORS
330
C
102
}
100
AcDbDictionary
281
1
  3
Model
350
2B5
  3
Layout1
350
2B6
  0
ACDBPLACEHOLDER
  5
F
102
{ACAD_REACTORS
330
E
102
}
  0
MLINESTYLE
  5
18
102
{ACAD_REACTORS
330
17
102
}
100
AcDbMlineStyle
  2
STANDARD
 70
0
  3

 62
256
 51
90.0
 52
90.0
 71
2
 49
0.5
 62
256
  6
BYLAYER
 49
-0.5
 62
256
  6
BYLAYER
  0
LAYOUT
  5
2B5
102
{ACAD_REACTORS
330
1A
102
}
100
AcDbPlotSettings
  1

  2
none_device
  4
ANSI_B_(17.00_x_11.00_Inches)
  6

 40
0.0
 41
0.0
 42
0.0
 43
0.0
 44
431.8
 45
279.4
 46
0.0
 47
0.0
 48
0.0
 49
0.0
140
0.0
141
0.0
142
1.0
143
1.0
 70
1024
 72
0
 73
0
 74
0
  7

 75
0
147
1.0
148
0.0
149
0.0
100
AcDbLayout
  1
Model
 70
0
 71
0
 10
0.0
 20
0.0
 11
17.0
 21
11.0
 12
0.0
 22
0.0
 32
0.0
 14
0.0
 24
0.0
 34
0.0
 15
0.0
 25
0.0
 35
0.0
146
0.0
 13
0.0
 23
0.0
 33
0.0
 16
1.0
 26
0.0
 36
0.0
 17
0.0
 27
1.0
 37
0.0
 76
0
330
214
345
0
346
0
  0
LAYOUT
  5
2B6
102
{ACAD_REACTORS
330
1A
102
}
100
AcDbPlotSettings
  1

  2
none_device
  4
ANSI_B_(17.00_x_11.00_Inches)
  6

 40
0.0
 41
0.0
 42
0.0
 43
0.0
 44
431.8
 45
279.4
 46
0.0
 47
0.0
 48
0.0
 49
0.0
140
0.0
141
0.0
142
1.0
143
1.0
 70
0
 72
0
 73
0
 74
0
  7

 75
0
147
1.0
148
0.0
149
0.0
100
AcDbLayout
  1
Layout1
 70
0
 71
1
 10
0.0
 20
0.0
 11
17.0
 21
11.0
 12
0.0
 22
0.0
 32
0.0
 14
0.0
 24
0.0
 34
0.0
 15
0.0
 25
0.0
 35
0.0
146
0.0
 13
0.0
 23
0.0
 33
0.0
 16
1.0
 26
0.0
 36
0.0
 17
0.0
 27
1.0
 37
0.0
 76
0
330
215
345
0
346
0
  0
ENDSEC
  0
EOF
