  0
SECTION
  2
HEADER
  9
$ACADVER
  1
AC1015
  9
$ACADMAINTVER
 70
    20
  9
$DWGCODEPAGE
  3
ANSI_1252
  9
$INSBASE
 10
0.0
 20
0.0
 30
0.0
  9
$EXTMIN
 10
0.1042494754821988
 20
0.3013358716206689
 30
0.0
  9
$EXTMAX
 10
16.5642494754822
 20
10.76133587162067
 30
0.0
  9
$LIMMIN
 10
0.0
 20
0.0
  9
$LIMMAX
 10
17.0
 20
11.0
  9
$ORTHOMODE
 70
     0
  9
$REGENMODE
 70
     1
  9
$FILLMODE
 70
     1
  9
$QTEXTMODE
 70
     0
  9
$MIRRTEXT
 70
     1
  9
$LTSCALE
 40
0.25
  9
$ATTMODE
 70
     1
  9
$TEXTSIZE
 40
0.09375
  9
$TRACEWID
 40
0.05
  9
$TEXTSTYLE
  7
ROMANS
  9
$CLAYER
  8
DIM
  9
$CELTYPE
  6
ByLayer
  9
$CECOLOR
 62
   256
  9
$CELTSCALE
 40
1.0
  9
$DISPSILH
 70
     0
  9
$DIMSCALE
 40
1.0
  9
$DIMASZ
 40
0.15
  9
$DIMEXO
 40
0.0625
  9
$DIMDLI
 40
0.38
  9
$DIMRND
 40
0.0
  9
$DIMDLE
 40
0.0
  9
$DIMEXE
 40
0.0625
  9
$DIMTP
 40
0.0
  9
$DIMTM
 40
0.0
  9
$DIMTXT
 40
0.09
  9
$DIMCEN
 40
0.09
  9
$DIMTSZ
 40
0.0
  9
$DIMTOL
 70
     0
  9
$DIMLIM
 70
     0
  9
$DIMTIH
 70
     1
  9
$DIMTOH
 70
     1
  9
$DIMSE1
 70
     0
  9
$DIMSE2
 70
     0
  9
$DIMTAD
 70
     0
  9
$DIMZIN
 70
     0
  9
$DIMBLK
  1

  9
$DIMASO
 70
     0
  9
$DIMSHO
 70
     1
  9
$DIMPOST
  1

  9
$DIMAPOST
  1

  9
$DIMALT
 70
     0
  9
$DIMALTD
 70
     2
  9
$DIMALTF
 40
25.4
  9
$DIMLFAC
 40
1.0
  9
$DIMTOFL
 70
     0
  9
$DIMTVP
 40
0.0
  9
$DIMTIX
 70
     0
  9
$DIMSOXD
 70
     0
  9
$DIMSAH
 70
     0
  9
$DIMBLK1
  1

  9
$DIMBLK2
  1

  9
$DIMSTYLE
  2
Standard
  9
$DIMCLRD
 70
     1
  9
$DIMCLRE
 70
     1
  9
$DIMCLRT
 70
     7
  9
$DIMTFAC
 40
1.0
  9
$DIMGAP
 40
0.09
  9
$DIMJUST
 70
     0
  9
$DIMSD1
 70
     0
  9
$DIMSD2
 70
     0
  9
$DIMTOLJ
 70
     1
  9
$DIMTZIN
 70
     0
  9
$DIMALTZ
 70
     0
  9
$DIMALTTZ
 70
     0
  9
$DIMUPT
 70
     0
  9
$DIMDEC
 70
     4
  9
$DIMTDEC
 70
     4
  9
$DIMALTU
 70
     2
  9
$DIMALTTD
 70
     2
  9
$DIMTXSTY
  7
STANDARD
  9
$DIMAUNIT
 70
     0
  9
$DIMADEC
 70
     0
  9
$DIMALTRND
 40
0.0
  9
$DIMAZIN
 70
     0
  9
$DIMDSEP
 70
    46
  9
$DIMATFIT
 70
     3
  9
$DIMFRAC
 70
     0
  9
$DIMLDRBLK
  1

  9
$DIMLUNIT
 70
     2
  9
$DIMLWD
 70
    -2
  9
$DIMLWE
 70
    -2
  9
$DIMTMOVE
 70
     0
  9
$LUNITS
 70
     2
  9
$LUPREC
 70
     4
  9
$SKETCHINC
 40
0.1
  9
$FILLETRAD
 40
0.0
  9
$AUNITS
 70
     0
  9
$AUPREC
 70
     0
  9
$MENU
  1
acad
  9
$ELEVATION
 40
0.0
  9
$PELEVATION
 40
0.0
  9
$THICKNESS
 40
0.0
  9
$LIMCHECK
 70
     0
  9
$CHAMFERA
 40
0.0
  9
$CHAMFERB
 40
0.0
  9
$CHAMFERC
 40
0.0
  9
$CHAMFERD
 40
0.0
  9
$SKPOLY
 70
     0
  9
$TDCREATE
 40
2449766.541135301
  9
$TDUCREATE
 40
2449766.749468635
  9
$TDUPDATE
 40
2455028.606807558
  9
$TDUUPDATE
 40
2455028.815140892
  9
$TDINDWG
 40
3.2031843056
  9
$TDUSRTIMER
 40
3.2031843056
  9
$USRTIMER
 70
     1
  9
$ANGBASE
 50
0.0
  9
$ANGDIR
 70
     0
  9
$PDMODE
 70
     0
  9
$PDSIZE
 40
0.0
  9
$PLINEWID
 40
0.0
  9
$SPLFRAME
 70
     0
  9
$SPLINETYPE
 70
     6
  9
$SPLINESEGS
 70
     8
  9
$HANDSEED
  5
4F80
  9
$SURFTAB1
 70
     6
  9
$SURFTAB2
 70
     6
  9
$SURFTYPE
 70
     6
  9
$SURFU
 70
     6
  9
$SURFV
 70
     6
  9
$UCSBASE
  2

  9
$UCSNAME
  2

  9
$UCSORG
 10
0.0
 20
0.0
 30
0.0
  9
$UCSXDIR
 10
1.0
 20
0.0
 30
0.0
  9
$UCSYDIR
 10
0.0
 20
1.0
 30
0.0
  9
$UCSORTHOREF
  2

  9
$UCSORTHOVIEW
 70
     0
  9
$UCSORGTOP
 10
0.0
 20
0.0
 30
0.0
  9
$UCSORGBOTTOM
 10
0.0
 20
0.0
 30
0.0
  9
$UCSORGLEFT
 10
0.0
 20
0.0
 30
0.0
  9
$UCSORGRIGHT
 10
0.0
 20
0.0
 30
0.0
  9
$UCSORGFRONT
 10
0.0
 20
0.0
 30
0.0
  9
$UCSORGBACK
 10
0.0
 20
0.0
 30
0.0
  9
$PUCSBASE
  2

  9
$PUCSNAME
  2

  9
$PUCSORG
 10
0.0
 20
0.0
 30
0.0
  9
$PUCSXDIR
 10
1.0
 20
0.0
 30
0.0
  9
$PUCSYDIR
 10
0.0
 20
1.0
 30
0.0
  9
$PUCSORTHOREF
  2

  9
$PUCSORTHOVIEW
 70
     0
  9
$PUCSORGTOP
 10
0.0
 20
0.0
 30
0.0
  9
$PUCSORGBOTTOM
 10
0.0
 20
0.0
 30
0.0
  9
$PUCSORGLEFT
 10
0.0
 20
0.0
 30
0.0
  9
$PUCSORGRIGHT
 10
0.0
 20
0.0
 30
0.0
  9
$PUCSORGFRONT
 10
0.0
 20
0.0
 30
0.0
  9
$PUCSORGBACK
 10
0.0
 20
0.0
 30
0.0
  9
$USERI1
 70
     0
  9
$USERI2
 70
     0
  9
$USERI3
 70
     0
  9
$USERI4
 70
     0
  9
$USERI5
 70
     0
  9
$USERR1
 40
0.0
  9
$USERR2
 40
0.0
  9
$USERR3
 40
0.0
  9
$USERR4
 40
0.0
  9
$USERR5
 40
0.0
  9
$WORLDVIEW
 70
     1
  9
$SHADEDGE
 70
     3
  9
$SHADEDIF
 70
    70
  9
$TILEMODE
 70
     1
  9
$MAXACTVP
 70
    16
  9
$PINSBASE
 10
0.0
 20
0.0
 30
0.0
  9
$PLIMCHECK
 70
     0
  9
$PEXTMIN
 10
1.000000000000000E+20
 20
1.000000000000000E+20
 30
1.000000000000000E+20
  9
$PEXTMAX
 10
-1.000000000000000E+20
 20
-1.000000000000000E+20
 30
-1.000000000000000E+20
  9
$PLIMMIN
 10
0.0
 20
0.0
  9
$PLIMMAX
 10
12.0
 20
9.0
  9
$UNITMODE
 70
     0
  9
$VISRETAIN
 70
     0
  9
$PLINEGEN
 70
     0
  9
$PSLTSCALE
 70
     1
  9
$TREEDEPTH
 70
  3020
  9
$CMLSTYLE
  2
Standard
  9
$CMLJUST
 70
     0
  9
$CMLSCALE
 40
1.0
  9
$PROXYGRAPHICS
 70
     1
  9
$MEASUREMENT
 70
     0
  9
$CELWEIGHT
370
    -1
  9
$ENDCAPS
280
     0
  9
$JOINSTYLE
280
     0
  9
$LWDISPLAY
290
     0
  9
$INSUNITS
 70
     0
  9
$HYPERLINKBASE
  1

  9
$STYLESHEET
  1
standard.ctb
  9
$XEDIT
290
     1
  9
$CEPSNTYPE
380
     0
  9
$PSTYLEMODE
290
     1
  9
$FINGERPRINTGUID
  2
{15A91E55-5219-469D-BD62-5FAE47C117F2}
  9
$VERSIONGUID
  2
{5EC59C1F-8833-4A24-9B39-F743EC68FA11}
  9
$EXTNAMES
290
     1
  9
$PSVPSCALE
 40
0.0
  9
$OLESTARTUP
290
     0
  0
ENDSEC
  0
SECTION
  2
CLASSES
  0
CLASS
  1
ACDBDICTIONARYWDFLT
  2
AcDbDictionaryWithDefault
  3
ObjectDBX Classes
 90
        0
280
     0
281
     0
  0
CLASS
  1
ACDBPLACEHOLDER
  2
AcDbPlaceHolder
  3
ObjectDBX Classes
 90
        0
280
     0
281
     0
  0
CLASS
  1
LAYOUT
  2
AcDbLayout
  3
ObjectDBX Classes
 90
        0
280
     0
281
     0
  0
CLASS
  1
DICTIONARYVAR
  2
AcDbDictionaryVar
  3
ObjectDBX Classes
 90
        0
280
     0
281
     0
  0
CLASS
  1
DIMASSOC
  2
AcDbDimAssoc
  3
"AcDbDimAssoc|Product Desc:     AcDim ARX App For Dimension|Company:          Autodesk, Inc.|WEB Address:      www.autodesk.com"
 90
    32768
280
     0
281
     0
  0
CLASS
  1
TABLESTYLE
  2
AcDbTableStyle
  3
ObjectDBX Classes
 90
     2047
280
     0
281
     0
  0
CLASS
  1
ACME_DOCUMENT
  2
AcMeDbDoc
  3
AcMeServices
 90
        0
280
     0
281
     0
  0
CLASS
  1
AMGSETTINGSOBJ
  2
AmgSettingsObj
  3
"AcadM|Product Description: AutoCAD Mechanical 2000|Company: Autodesk"
 90
        0
280
     0
281
     0
  0
CLASS
  1
ACMESCOPE
  2
AcMeScope
  3
AcMeServices
 90
        0
280
     0
281
     0
  0
CLASS
  1
ACMECOMMANDHISTORY
  2
AcMeCommandHistory
  3
AcMeServices
 90
        0
280
     0
281
     0
  0
CLASS
  1
ACIMSYSVARMAN
  2
AcImSysVarManager
  3
AcMeServices
 90
        0
280
     0
281
     0
  0
CLASS
  1
ACIMINTSYSVAR
  2
AcImIntSysVar
  3
AcMeServices
 90
        0
280
     0
281
     0
  0
CLASS
  1
ACMEDRAWINGMAN
  2
AcMeDrawingMan
  3
AcMeServices
 90
        0
280
     0
281
     0
  0
CLASS
  1
ACMEVIEW
  2
AcMeView
  3
AcMeServices
 90
        0
280
     0
281
     0
  0
CLASS
  1
ACDBENTITYCACHE
  2
AcMeEntityCache
  3
AcMeServices
 90
        0
280
     0
281
     0
  0
CLASS
  1
GSMANAGER
  2
AcMeGSManager
  3
AcMeServices
 90
        0
280
     0
281
     0
  0
CLASS
  1
AMDTINTERNALREACTOR
  2
AmdtInternalReactor
  3
AcMeServices
 90
        0
280
     0
281
     0
  0
CLASS
  1
ACMESTATEMGR
  2
AcMeStateMgr
  3
AcMeServices
 90
        0
280
     0
281
     0
  0
CLASS
  1
ACGREFMASTER
  2
AcGrefMaster
  3
AcAttribServices
 90
        0
280
     0
281
     0
  0
CLASS
  1
AM_DRAWING_MGR
  2
AcDmDwgMgr
  3
AcMechDwgViewMgmt
 90
        0
280
     0
281
     0
  0
CLASS
  1
AM_DWG_DOCUMENT
  2
AcDmDwgDocument
  3
AcMechDwgViewMgmt
 90
        0
280
     0
281
     0
  0
CLASS
  1
AM_DWG_SHEET
  2
AcDmSheet
  3
AcMechDwgViewMgmt
 90
        0
280
     0
281
     0
  0
CLASS
  1
AM_VIEWDIMPARMAP
  2
AcDmViewDimParMap
  3
AcMechDwgViewMgmt
 90
        0
280
     0
281
     0
  0
CLASS
  1
ACIMREALSYSVAR
  2
AcImRealSysVar
  3
AcMeServices
 90
        0
280
     0
281
     0
  0
CLASS
  1
AM_DWGMGR_NAME
  2
AcDmDwgMgrName
  3
AcMechDwgViewMgmt
 90
        0
280
     0
281
     0
  0
CLASS
  1
ACME_DATABASE
  2
AcMeDbDatabase
  3
AcMeServices
 90
        0
280
     0
281
     0
  0
CLASS
  1
ACRFINSADJUSTERMGR
  2
AcRfInsAdjusterMgr
  3
AcMeServices
 90
        0
280
     0
281
     0
  0
CLASS
  1
ACGREFACADMASTER
  2
AcGrefacadMaster
  3
AcGrefServices
 90
        0
280
     0
281
     0
  0
CLASS
  1
AMDTMENUSTATEMGR
  2
AmdtMenuStateMgr
  3
McadcomServices
 90
        0
280
     0
281
     0
  0
CLASS
  1
AMDTMCOMMENUSTATE
  2
AmdtMcomMenuState
  3
McadcomServices
 90
        0
280
     0
281
     0
  0
CLASS
  1
AMIMASTER
  2
AmiMaster
  3
AmiServices
 90
        0
280
     0
281
     0
  0
CLASS
  1
MAPIAMMOUDLE
  2
MApiAmModule
  3
MApiAmServices
 90
        0
280
     0
281
     0
  0
CLASS
  1
ACIMSTRSYSVAR
  2
AcImStrSysVar
  3
AcMeServices
 90
        0
280
     0
281
     0
  0
CLASS
  1
AMDTADMENUSTATE
  2
AmdtAdMenuState
  3
DesignerServices
 90
        0
280
     0
281
     0
  0
CLASS
  1
ADAPPL
  2
AcAdAppl
  3
DesignerServices
 90
        0
280
     0
281
     0
  0
CLASS
  1
DEPMGR
  2
AcAdDepMgr
  3
DesignerServices
 90
        0
280
     0
281
     0
  0
CLASS
  1
PARAMMGR
  2
AcAdParamMgr
  3
DesignerServices
 90
        0
280
     0
281
     0
  0
CLASS
  1
PARAMSCOPE
  2
AcAdParamScope
  3
DesignerServices
 90
        0
280
     0
281
     0
  0
CLASS
  1
NAMEDAPPL
  2
AcAdNamedAppl
  3
DesignerServices
 90
        0
280
     0
281
     0
  0
CLASS
  1
AMDTDMMENUSTATE
  2
AmdtDmMenuState
  3
AcMechDwgViewMgmt
 90
        0
280
     0
281
     0
  0
CLASS
  1
AMDTAMMENUSTATE
  2
AmdtAmMenuState
  3
DesignerAssemblies
 90
        0
280
     0
281
     0
  0
CLASS
  1
ACAMPROJECT
  2
AcAmProject
  3
DesignerAssemblies
 90
        0
280
     0
281
     0
  0
CLASS
  1
ACAMGRCOMPDEF
  2
AcAmGrCompDef
  3
DesignerAssemblies
 90
        0
280
     0
281
     0
  0
CLASS
  1
ACCMCONTEXT
  2
AcCmContext
  3
DesignerAssemblies
 90
        0
280
     0
281
     0
  0
CLASS
  1
ACAMCOMPDEF
  2
AcAmCompDef
  3
DesignerAssemblies
 90
        0
280
     0
281
     0
  0
CLASS
  1
ACAMCOMPDEFMGR
  2
AcAmCompDefMgr
  3
DesignerAssemblies
 90
        0
280
     0
281
     0
  0
CLASS
  1
AMCONTEXTMGR
  2
AcAmContextMgr
  3
DesignerAssemblies
 90
        0
280
     0
281
     0
  0
CLASS
  1
ACAMCONTEXTMODELER
  2
AcAmContextModeler
  3
DesignerAssemblies
 90
        0
280
     0
281
     0
  0
CLASS
  1
ACMDATADICTIONARY
  2
AcmDataDictionary
  3
"AcmSymBB|Product Description: AutoCAD Mechanical 2004 DX|Company: Autodesk"
 90
        0
280
     0
281
     0
  0
CLASS
  1
CATALOGSTATE
  2
AcAmCatalogState
  3
DesignerAssemblies
 90
        0
280
     0
281
     0
  0
CLASS
  1
ACAMGRCOMPDEFSET
  2
AcAmGrCompDefSet
  3
DesignerAssemblies
 90
        0
280
     0
281
     0
  0
CLASS
  1
AMDTBROWSERDBTAB
  2
AmdtBrowserDbTab
  3
McadcomServices
 90
        0
280
     0
281
     0
  0
CLASS
  1
CBROWSERAPPOBJECT
  2
CBrowserAppObject
  3
McadcomServices
 90
        0
280
     0
281
     0
  0
CLASS
  1
DM_PLACEHOLDER
  2
AcDmSelsetPlaceholder
  3
AcMechDwgViewMgmt
 90
        0
280
     0
281
     0
  0
CLASS
  1
ACMSTANDARDANSI
  2
AcmStandardANSI
  3
"Amdt_StdImp|Product Description: AutoCAD Mechanical 2004 DX|Company: Autodesk"
 90
        0
280
     0
281
     0
  0
CLASS
  1
AMGOBJPROPCFG
  2
AmgObjPropCfg
  3
"AmgLay|Product Description: AutoCAD Mechanical 2000|Company: Autodesk"
 90
        1
280
     0
281
     0
  0
CLASS
  1
ACMSURFSTANDARDANSI
  2
AcmSurfTextStdANSI
  3
"Amdt_StdImp|Product Description: AutoCAD Mechanical 2004 DX|Company: Autodesk"
 90
        0
280
     0
281
     0
  0
CLASS
  1
ACMFCFSTANDARDANSI
  2
AcmFCFStdANSI
  3
"Amdt_StdImp|Product Description: AutoCAD Mechanical 2004 DX|Company: Autodesk"
 90
        0
280
     0
281
     0
  0
CLASS
  1
ACMWELDSTANDARDANSI
  2
AcmWeldingStdANSI
  3
"Amdt_StdImp|Product Description: AutoCAD Mechanical 2004 DX|Company: Autodesk"
 90
        0
280
     0
281
     0
  0
CLASS
  1
ACMIDSTANDARDANSI
  2
AcmIdStdANSI
  3
"Amdt_StdImp|Product Description: AutoCAD Mechanical 2004 DX|Company: Autodesk"
 90
        0
280
     0
281
     0
  0
CLASS
  1
ACMDATUMSTANDARDANSI
  2
AcmDatumStdANSI
  3
"Amdt_StdImp|Product Description: AutoCAD Mechanical 2004 DX|Company: Autodesk"
 90
        0
280
     0
281
     0
  0
CLASS
  1
ACMBOMSTANDARDANSI
  2
AcmBOMStdANSI
  3
"Amdt_StdImp|Product Description: AutoCAD Mechanical 2004 DX|Company: Autodesk"
 90
        0
280
     0
281
     0
  0
CLASS
  1
ACMDETAILSTANDARDANSI
  2
AmdtDetailSymStdANSI
  3
"Amdt_StdImp|Product Description: AutoCAD Mechanical 2004 DX|Company: Autodesk"
 90
        0
280
     0
281
     0
  0
CLASS
  1
ACMSECTIONSTANDARDANSI
  2
AmdtSectionSymStdANSI
  3
"Amdt_StdImp|Product Description: AutoCAD Mechanical 2004 DX|Company: Autodesk"
 90
        0
280
     0
281
     0
  0
CLASS
  1
ACMCENTERLINESTANDARDANSI
  2
AmdtCenterLineStdANSI
  3
"Amdt_StdImp|Product Description: AutoCAD Mechanical 2004 DX|Company: Autodesk"
 90
        0
280
     0
281
     0
  0
CLASS
  1
ACMTHREADLINESTANDARDANSI
  2
AmdtThreadLineStdANSI
  3
"Amdt_StdImp|Product Description: AutoCAD Mechanical 2004 DX|Company: Autodesk"
 90
        0
280
     0
281
     0
  0
CLASS
  1
ACMNOTESTANDARDANSI
  2
AmdtNoteStdANSI
  3
"Amdt_StdImp|Product Description: AutoCAD Mechanical 2004 DX|Company: Autodesk"
 90
        0
280
     0
281
     0
  0
CLASS
  1
AMDTNOTETEMPLATEDB
  2
AmdtNoteTemplateDB
  3
AMDT_STDIMP_MODULE_NAME
 90
        0
280
     0
281
     0
  0
CLASS
  1
ACAMGLAYSTD
  2
AcAmgLayStd
  3
"AcAmgLayStd|Product Description: AutoCAD Mechanical 2000|Company: Autodesk"
 90
        0
280
     0
281
     0
  0
CLASS
  1
ACAMGDIMSTD
  2
AcAmgDimStd
  3
"AcAmgDimStd|Product Description: AutoCAD Mechanical 2000|Company: Autodesk"
 90
        0
280
     0
281
     0
  0
CLASS
  1
ACAMGHOLECHARTSTDANSI
  2
AcAmgHoleChartStdANSI
  3
ACMSYMBB_MODULE_NAME
 90
        0
280
     0
281
     0
  0
CLASS
  1
ACAMGTITLESTD
  2
AcAmgTitleStd
  3
"TITLEAPP"
 90
        0
280
     0
281
     0
  0
CLASS
  1
ACAMGFILTERDAT
  2
AcAmgFilterDat
  3
"AcadM|Product Description: AutoCAD Mechanical 2000|Company: Autodesk"
 90
        0
280
     0
281
     0
  0
ENDSEC
  0
SECTION
  2
TABLES
  0
TABLE
  2
VPORT
  5
8
330
0
100
AcDbSymbolTable
 70
     3
  0
VPORT
  5
4F7A
330
8
100
AcDbSymbolTableRecord
100
AcDbViewportTableRecord
  2
*Active
 70
     0
 10
0.0
 20
0.0
 11
1.0
 21
1.0
 12
8.499999999999998
 22
6.290741664511202
 13
0.0
 23
0.0
 14
0.0625
 24
0.0625
 15
0.5
 25
0.5
 16
0.0
 26
0.0
 36
1.0
 17
0.0
 27
0.0
 37
0.0
 40
12.71569483027706
 41
1.758308157099697
 42
50.0
 43
0.0
 44
0.0
 50
0.0
 51
0.0
 71
     0
 72
   500
 73
     1
 74
     0
 75
     0
 76
     0
 77
     0
 78
     0
281
     0
 65
     1
110
0.0
120
0.0
130
0.0
111
1.0
121
0.0
131
0.0
112
0.0
122
1.0
132
0.0
 79
     0
146
0.0
  0
ENDTAB
  0
TABLE
  2
LTYPE
  5
5
330
0
100
AcDbSymbolTable
 70
    16
  0
LTYPE
  5
13
330
5
100
AcDbSymbolTableRecord
100
AcDbLinetypeTableRecord
  2
ByBlock
 70
     0
  3

 72
    65
 73
     0
 40
0.0
  0
LTYPE
  5
14
330
5
100
AcDbSymbolTableRecord
100
AcDbLinetypeTableRecord
  2
ByLayer
 70
     0
  3

 72
    65
 73
     0
 40
0.0
  0
LTYPE
  5
15
330
5
100
AcDbSymbolTableRecord
100
AcDbLinetypeTableRecord
  2
CONTINUOUS
 70
     0
  3
Solid line
 72
    65
 73
     0
 40
0.0
  0
LTYPE
  5
2C
330
5
100
AcDbSymbolTableRecord
100
AcDbLinetypeTableRecord
  2
CENTER
 70
     0
  3
____ _ ____ _ ____ _ ____ _ ____ _ ____ _ ____ 
 72
    65
 73
     4
 40
2.0
 49
1.25
 74
     0
 49
-0.25
 74
     0
 49
0.25
 74
     0
 49
-0.25
 74
     0
  0
LTYPE
  5
430
330
5
100
AcDbSymbolTableRecord
100
AcDbLinetypeTableRecord
  2
HIDDEN
 70
     0
  3
_ _ _ _ _ _ _ _ _ _ _ _ _ _ _ _ _ _ _ _ _ _ _
 72
    65
 73
     2
 40
0.375
 49
0.25
 74
     0
 49
-0.125
 74
     0
  0
LTYPE
  5
4EF8
330
5
100
AcDbSymbolTableRecord
100
AcDbLinetypeTableRecord
  2
PHANTOM2
 70
     0
  3
Phantom (.5x) ___ _ _ ___ _ _ ___ _ _ ___ _ _
 72
    65
 73
     6
 40
1.25
 49
0.625
 74
     0
 49
-0.125
 74
     0
 49
0.125
 74
     0
 49
-0.125
 74
     0
 49
0.125
 74
     0
 49
-0.125
 74
     0
  0
LTYPE
  5
4F2C
330
5
100
AcDbSymbolTableRecord
100
AcDbLinetypeTableRecord
  2
AM_ISO02W050
 70
     0
  3
__ __ __ __ __ __ __ __ __ __ __ __ __ __ __
 72
    65
 73
     2
 40
7.5
 49
6.0
 74
     0
 49
-1.5
 74
     0
  0
LTYPE
  5
4F2D
330
5
100
AcDbSymbolTableRecord
100
AcDbLinetypeTableRecord
  2
AM_ISO08W050
 70
     0
  3
____ . ____ . ____ . ____ . ____ . ____ . ____
 72
    65
 73
     4
 40
18.0
 49
12.0
 74
     0
 49
-1.5
 74
     0
 49
3.0
 74
     0
 49
-1.5
 74
     0
  0
LTYPE
  5
4F2E
330
5
100
AcDbSymbolTableRecord
100
AcDbLinetypeTableRecord
  2
AM_ISO09W050
 70
     0
  3
_____ . . _____ . . _____ . . ____ .. ____
 72
    65
 73
     6
 40
22.5
 49
12.0
 74
     0
 49
-1.5
 74
     0
 49
3.0
 74
     0
 49
-1.5
 74
     0
 49
3.0
 74
     0
 49
-1.5
 74
     0
  0
LTYPE
  5
4F2F
330
5
100
AcDbSymbolTableRecord
100
AcDbLinetypeTableRecord
  2
Amconstr
 70
     0
  3
_______________________
 72
    65
 73
     2
 40
9999.0
 49
9999.0
 74
     0
 49
0.0
 74
     0
  0
LTYPE
  5
4F30
330
5
100
AcDbSymbolTableRecord
100
AcDbLinetypeTableRecord
  2
AM_ISO08W050x2
 70
     0
  3
__ . __ . __ . __ . __ . __
 72
    65
 73
     4
 40
9.0
 49
6.0
 74
     0
 49
-0.75
 74
     0
 49
1.5
 74
     0
 49
-0.75
 74
     0
  0
LTYPE
  5
4F31
330
5
100
AcDbSymbolTableRecord
100
AcDbLinetypeTableRecord
  2
AM_ISO02W050x2
 70
     0
  3
 _ _ _ _ _ _ _ _ _ _ _ _
 72
    65
 73
     2
 40
3.75
 49
3.0
 74
     0
 49
-0.75
 74
     0
  0
LTYPE
  5
4F34
330
5
100
AcDbSymbolTableRecord
100
AcDbLinetypeTableRecord
  2
Amzigzag
 70
     0
  3
/\/-/\/-/\/-/\/-/\/-/\/
 72
    65
 73
     2
 40
11.0001
 49
0.0001
 74
     4
 75
   136
340
4F33
 46
0.04
 50
0.0
 44
0.0
 45
0.0
 49
-11.0
 74
     0
  0
LTYPE
  5
4F35
330
5
100
AcDbSymbolTableRecord
100
AcDbLinetypeTableRecord
  2
CENTER2
 70
     0
  3
Center (.5x) ___ _ ___ _ ___ _ ___ _ ___ _ ___
 72
    65
 73
     4
 40
1.125
 49
0.75
 74
     0
 49
-0.125
 74
     0
 49
0.125
 74
     0
 49
-0.125
 74
     0
  0
LTYPE
  5
4F36
330
5
100
AcDbSymbolTableRecord
100
AcDbLinetypeTableRecord
  2
HIDDEN2
 70
     0
  3
Hidden (.5x) _ _ _ _ _ _ _ _ _ _ _ _ _ _ _ _ _
 72
    65
 73
     2
 40
0.1875
 49
0.125
 74
     0
 49
-0.0625
 74
     0
  0
LTYPE
  5
4F37
330
5
100
AcDbSymbolTableRecord
100
AcDbLinetypeTableRecord
  2
Amzigzag2
 70
     0
  3
/\/-/\/-/\/-/\/-/\/-/\/
 72
    65
 73
     2
 40
0.4401
 49
0.0001
 74
     4
 75
   136
340
4F33
 46
0.0016
 50
0.0
 44
0.0
 45
0.0
 49
-0.4400000000000001
 74
     0
  0
LTYPE
  5
4F45
330
5
100
AcDbSymbolTableRecord
100
AcDbLinetypeTableRecord
  2
ACANSTGB
 70
     0
  3
__ . . __ . .
 72
    65
 73
     6
 40
0.35433070866
 49
0.15748031496
 74
     0
 49
-0.03937007874
 74
     0
 49
0.03937007874
 74
     0
 49
-0.03937007874
 74
     0
 49
0.03937007874
 74
     0
 49
-0.03937007874
 74
     0
  0
LTYPE
  5
4F46
330
5
100
AcDbSymbolTableRecord
100
AcDbLinetypeTableRecord
  2
ACANSTGL
 70
     0
  3
_ _ _ _ _
 72
    65
 73
     2
 40
0.11811023622
 49
0.07874015748
 74
     0
 49
-0.03937007874
 74
     0
  0
ENDTAB
  0
TABLE
  2
LAYER
  5
2
330
0
100
AcDbSymbolTable
 70
     9
  0
LAYER
  5
10
330
2
100
AcDbSymbolTableRecord
100
AcDbLayerTableRecord
  2
0
 70
     0
 62
     7
  6
CONTINUOUS
370
    -3
390
F
  0
LAYER
  5
30
330
2
100
AcDbSymbolTableRecord
100
AcDbLayerTableRecord
  2
TEXT
 70
     0
 62
     7
  6
CONTINUOUS
370
    -3
390
F
  0
LAYER
  5
31
330
2
100
AcDbSymbolTableRecord
100
AcDbLayerTableRecord
  2
DEFPOINTS
 70
     0
 62
     7
  6
CONTINUOUS
290
     0
370
    -3
390
F
  0
LAYER
  5
32
330
2
100
AcDbSymbolTableRecord
100
AcDbLayerTableRecord
  2
DIM
 70
     0
 62
     1
  6
CONTINUOUS
370
    -3
390
F
  0
LAYER
  5
33
330
2
100
AcDbSymbolTableRecord
100
AcDbLayerTableRecord
  2
CENTER
 70
     0
 62
     3
  6
CENTER
370
    -3
390
F
  0
LAYER
  5
34
330
2
100
AcDbSymbolTableRecord
100
AcDbLayerTableRecord
  2
OBJ
 70
     0
 62
     7
  6
CONTINUOUS
370
    -3
390
F
  0
LAYER
  5
8BE
330
2
100
AcDbSymbolTableRecord
100
AcDbLayerTableRecord
  2
BORDER
 70
     0
 62
     7
  6
CONTINUOUS
370
    -3
390
F
  0
LAYER
  5
8BF
330
2
100
AcDbSymbolTableRecord
100
AcDbLayerTableRecord
  2
FORM
 70
     0
 62
     7
  6
CONTINUOUS
370
    -3
390
F
  0
LAYER
  5
41C0
330
2
100
AcDbSymbolTableRecord
100
AcDbLayerTableRecord
  2
OBJECT
 70
     0
 62
     7
  6
CONTINUOUS
370
    -3
390
F
  0
ENDTAB
  0
TABLE
  2
STYLE
  5
3
330
0
100
AcDbSymbolTable
 70
     7
  0
STYLE
  5
11
330
3
100
AcDbSymbolTableRecord
100
AcDbTextStyleTableRecord
  2
STANDARD
 70
     0
 40
0.0
 41
1.0
 50
0.0
 71
     0
 42
0.2
  3
txt
  4

  0
STYLE
  5
27
330
3
100
AcDbSymbolTableRecord
100
AcDbTextStyleTableRecord
  2
ROMANS
 70
     0
 40
0.0
 41
1.0
 50
0.0
 71
     0
 42
0.09375
  3
romans
  4

  0
STYLE
  5
29
330
3
100
AcDbSymbolTableRecord
100
AcDbTextStyleTableRecord
  2
HELR
 70
     0
 40
0.0
 41
1.0
 50
0.0
 71
     0
 42
0.2
  3
HELV.shx
  4

  0
STYLE
  5
41C1
330
3
100
AcDbSymbolTableRecord
100
AcDbTextStyleTableRecord
  2
KANJI
 70
     0
 40
0.0
 41
1.0
 50
0.0
 71
     0
 42
2.0
  3
TXT
  4
BIGFONT
  0
STYLE
  5
4F33
330
3
100
AcDbSymbolTableRecord
100
AcDbTextStyleTableRecord
  2

 70
     1
 40
0.0
 41
1.0
 50
0.0
 71
     0
 42
0.09375
  3
genltshp.shx
  4

  0
STYLE
  5
4F38
330
3
100
AcDbSymbolTableRecord
100
AcDbTextStyleTableRecord
  2
ACANSTS
 70
     0
 40
1.0
 41
1.0
 50
0.0
 71
     0
 42
0.09375
  3
romans.shx
  4

  0
STYLE
  5
4F44
330
3
100
AcDbSymbolTableRecord
100
AcDbTextStyleTableRecord
  2
ACANSGDT
 70
     0
 40
0.0
 41
1.0
 50
0.0
 71
     0
 42
0.09375
  3
AMGDT
  4

  0
ENDTAB
  0
TABLE
  2
VIEW
  5
6
330
0
100
AcDbSymbolTable
 70
     0
  0
ENDTAB
  0
TABLE
  2
UCS
  5
7
330
0
100
AcDbSymbolTable
 70
     0
  0
ENDTAB
  0
TABLE
  2
APPID
  5
9
330
0
100
AcDbSymbolTable
 70
    11
  0
APPID
  5
12
330
9
100
AcDbSymbolTableRecord
100
AcDbRegAppTableRecord
  2
ACAD
 70
     0
  0
APPID
  5
3E3
330
9
100
AcDbSymbolTableRecord
100
AcDbRegAppTableRecord
  2
DCO15
 70
     0
  0
APPID
  5
4ECB
330
9
100
AcDbSymbolTableRecord
100
AcDbRegAppTableRecord
  2
MCAD_NO_VIS
 70
     0
  0
APPID
  5
4ECC
330
9
100
AcDbSymbolTableRecord
100
AcDbRegAppTableRecord
  2
ACAD_TEMP_GRAPHIC
 70
     0
  0
APPID
  5
4EFA
330
9
100
AcDbSymbolTableRecord
100
AcDbRegAppTableRecord
  2
AD_DRAW
 70
     0
  0
APPID
  5
4EFD
330
9
100
AcDbSymbolTableRecord
100
AcDbRegAppTableRecord
  2
ACATTRIBSERVICES
 70
     0
  0
APPID
  5
4F1D
330
9
100
AcDbSymbolTableRecord
100
AcDbRegAppTableRecord
  2
DESIGNERASSEMBLIES
 70
     0
  0
APPID
  5
4F23
330
9
100
AcDbSymbolTableRecord
100
AcDbRegAppTableRecord
  2
ACADM_DIM_EDIT
 70
     0
  0
APPID
  5
4F24
330
9
100
AcDbSymbolTableRecord
100
AcDbRegAppTableRecord
  2
AMDT_DM_ADJ
 70
     0
  0
APPID
  5
4F51
330
9
100
AcDbSymbolTableRecord
100
AcDbRegAppTableRecord
  2
ACAD_DSTYLE_DIMARC_LENGTH_SYMBOL
 70
     0
  0
APPID
  5
4F52
330
9
100
AcDbSymbolTableRecord
100
AcDbRegAppTableRecord
  2
ACAD_DSTYLE_DIMJOGGED_JOGANGLE_SYMBOL
 70
     0
  0
ENDTAB
  0
TABLE
  2
DIMSTYLE
  5
A
330
0
100
AcDbSymbolTable
 70
     7
100
AcDbDimStyleTable
 71
     1
340
3B8
  0
DIMSTYLE
105
3B8
330
A
100
AcDbSymbolTableRecord
100
AcDbDimStyleTableRecord
  2
Standard
 70
     0
 41
0.15
 44
0.0625
140
0.09
176
     1
177
     1
178
     7
340
11
  0
DIMSTYLE
105
4F50
330
A
100
AcDbSymbolTableRecord
100
AcDbDimStyleTableRecord
  2
AM_ANSI
 70
     0
  4
mm
 41
0.1
 42
0.05
 43
0.5
 44
0.1
 47
0.1
 48
0.1
 78
     7
 79
     2
140
0.12
141
0.0
146
0.71
147
0.06
176
   256
177
   256
178
     2
274
     4
284
     7
340
11
371
    -1
372
    -1
1001
ACAD_DSTYLE_DIMARC_LENGTH_SYMBOL
1070
   379
1070
     1
1001
ACAD_DSTYLE_DIMJOGGED_JOGANGLE_SYMBOL
1070
   384
1040
0.7853981633974483
  0
DIMSTYLE
105
4F59
330
A
100
AcDbSymbolTableRecord
100
AcDbDimStyleTableRecord
  2
AM_ANSI$3
 70
     0
  4
mm
 41
0.1
 42
0.05
 43
0.5
 44
0.1
 47
0.1
 48
0.1
 78
     7
 79
     2
140
0.12
141
0.0
146
0.71
147
0.06
176
   256
177
   256
178
     2
274
     4
284
     7
288
     1
289
     0
340
11
371
    -1
372
    -1
1001
ACAD_DSTYLE_DIMARC_LENGTH_SYMBOL
1070
   379
1070
     1
1001
ACAD_DSTYLE_DIMJOGGED_JOGANGLE_SYMBOL
1070
   384
1040
0.7853981633974483
  0
DIMSTYLE
105
4F5C
330
A
100
AcDbSymbolTableRecord
100
AcDbDimStyleTableRecord
  2
AM_ANSI$4
 70
     0
  4
mm
 41
0.1
 42
0.05
 43
0.5
 44
0.1
 47
0.1
 48
0.1
 78
     7
 79
     2
140
0.12
141
0.0
146
0.71
147
0.06
176
   256
177
   256
178
     2
274
     4
284
     7
288
     1
289
     0
340
11
371
    -1
372
    -1
1001
ACAD_DSTYLE_DIMARC_LENGTH_SYMBOL
1070
   379
1070
     1
1001
ACAD_DSTYLE_DIMJOGGED_JOGANGLE_SYMBOL
1070
   384
1040
0.7853981633974483
  0
DIMSTYLE
105
4F61
330
A
100
AcDbSymbolTableRecord
100
AcDbDimStyleTableRecord
  2
AM_ANSI$7
 70
     0
  4
mm
 41
0.1
 42
0.05
 43
0.5
 44
0.1
 47
0.1
 48
0.1
 78
     7
 79
     2
140
0.24
141
0.0
146
0.71
147
0.06
176
   256
177
   256
178
     2
274
     4
284
     7
340
11
371
    -1
372
    -1
1001
ACAD_DSTYLE_DIMARC_LENGTH_SYMBOL
1070
   379
1070
     1
1001
ACAD_DSTYLE_DIMJOGGED_JOGANGLE_SYMBOL
1070
   384
1040
0.7853981633974483
  0
DIMSTYLE
105
4F64
330
A
100
AcDbSymbolTableRecord
100
AcDbDimStyleTableRecord
  2
AM_ANSI$SF
 70
     0
  4
mm
 41
0.1
 42
0.05
 43
0.5
 44
0.1
 47
0.1
 48
0.1
 75
     1
 76
     1
 78
     7
 79
     2
140
0.12
141
0.0
146
0.71
147
0.06
176
   256
177
   256
178
     2
274
     4
284
     7
340
11
371
    -1
372
    -1
1001
ACAD_DSTYLE_DIMARC_LENGTH_SYMBOL
1070
   379
1070
     1
1001
ACAD_DSTYLE_DIMJOGGED_JOGANGLE_SYMBOL
1070
   384
1040
0.7853981633974483
  0
DIMSTYLE
105
4F6B
330
A
100
AcDbSymbolTableRecord
100
AcDbDimStyleTableRecord
  2
AM_ANSI$SH
 70
     0
  4
mm
 41
0.1
 42
0.05
 43
0.5
 44
0.1
 47
0.1
 48
0.1
 75
     1
 76
     1
 78
     7
 79
     2
140
0.12
141
0.0
146
0.71
147
0.06
173
     1
176
   256
177
   256
178
     2
274
     4
284
     7
340
11
343
4F65
371
    -1
372
    -1
1001
ACAD_DSTYLE_DIMARC_LENGTH_SYMBOL
1070
   379
1070
     1
1001
ACAD_DSTYLE_DIMJOGGED_JOGANGLE_SYMBOL
1070
   384
1040
0.7853981633974483
  0
ENDTAB
  0
TABLE
  2
BLOCK_RECORD
  5
1
330
0
100
AcDbSymbolTable
 70
     4
  0
BLOCK_RECORD
  5
1E
330
1
100
AcDbSymbolTableRecord
100
AcDbBlockTableRecord
  2
*Model_Space
340
21
  0
BLOCK_RECORD
  5
1A
330
1
100
AcDbSymbolTableRecord
100
AcDbBlockTableRecord
  2
*Paper_Space
340
1D
  0
BLOCK_RECORD
  5
597
330
1
100
AcDbSymbolTableRecord
100
AcDbBlockTableRecord
  2
_OPEN
340
0
  0
BLOCK_RECORD
  5
4E4F
330
1
100
AcDbSymbolTableRecord
100
AcDbBlockTableRecord
  2
A$C16643BD3
340
0
  0
BLOCK_RECORD
  5
4F65
330
1
100
AcDbSymbolTableRecord
100
AcDbBlockTableRecord
  2
GENAXEH
340
0
  0
ENDTAB
  0
ENDSEC
  0
SECTION
  2
BLOCKS
  0
BLOCK
  5
37
330
1E
100
AcDbEntity
  8
0
100
AcDbBlockBegin
  2
*Model_Space
 70
     0
 10
0.0
 20
0.0
 30
0.0
  3
*Model_Space
  1

  0
ENDBLK
  5
38
330
1E
100
AcDbEntity
  8
0
100
AcDbBlockEnd
  0
BLOCK
  5
35
330
1A
100
AcDbEntity
 67
     1
  8
0
100
AcDbBlockBegin
  2
*Paper_Space
 70
     0
 10
0.0
 20
0.0
 30
0.0
  3
*Paper_Space
  1

  0
ENDBLK
  5
36
330
1A
100
AcDbEntity
 67
     1
  8
0
100
AcDbBlockEnd
  0
BLOCK
  5
59B
330
597
100
AcDbEntity
  8
0
100
AcDbBlockBegin
  2
_OPEN
 70
     0
 10
0.0
 20
0.0
 30
0.0
  3
_OPEN
  1

  0
LINE
  5
598
330
597
100
AcDbEntity
  8
0
  6
ByBlock
 62
     0
100
AcDbLine
 10
-1.0
 20
0.1666666666666666
 30
0.0
 11
0.0
 21
0.0
 31
0.0
  0
LINE
  5
599
330
597
100
AcDbEntity
  8
0
  6
ByBlock
 62
     0
100
AcDbLine
 10
0.0
 20
0.0
 30
0.0
 11
-1.0
 21
-0.1666666666666666
 31
0.0
  0
LINE
  5
59A
330
597
100
AcDbEntity
  8
0
  6
ByBlock
 62
     0
100
AcDbLine
 10
0.0
 20
0.0
 30
0.0
 11
-1.0
 21
0.0
 31
0.0
  0
ENDBLK
  5
59C
330
597
100
AcDbEntity
  8
0
100
AcDbBlockEnd
  0
BLOCK
  5
4E99
330
4E4F
100
AcDbEntity
  8
0
100
AcDbBlockBegin
  2
A$C16643BD3
 70
     0
 10
0.0
 20
0.0
 30
0.0
  3
A$C16643BD3
  1

  0
LINE
  5
4E50
330
4E4F
100
AcDbEntity
  8
OBJECT
 62
     7
100
AcDbLine
 10
0.3229642795658414
 20
2.127892753237883
 30
0.0
 11
0.3229642795658414
 21
1.016628263668483
 31
0.0
  0
LINE
  5
4E51
330
4E4F
100
AcDbEntity
  8
OBJECT
 62
     7
100
AcDbLine
 10
0.4220522523543889
 20
1.951671692203337
 30
0.0
 11
0.4220522523543889
 21
1.707980322108305
 31
0.0
  0
ARC
  5
4E52
330
4E4F
100
AcDbEntity
  8
OBJECT
 62
     7
100
AcDbCircle
 10
0.3229642795658414
 20
1.872401402053686
 30
0.0
 40
0.1174415816934204
100
AcDbArc
 50
327.5354918999999
 51
32.46448899999999
  0
LINE
  5
4E53
330
4E4F
100
AcDbEntity
  8
OBJECT
 62
     7
100
AcDbLine
 10
0.2238768646248079
 20
1.951671692203337
 30
0.0
 11
0.2238768646248079
 21
1.707980322108305
 31
0.0
  0
CIRCLE
  5
4E54
330
4E4F
100
AcDbEntity
  8
OBJECT
 62
     7
100
AcDbCircle
 10
0.3229642795658414
 20
1.872401402053686
 30
0.0
 40
0.0440405931350327
  0
ARC
  5
4E55
330
4E4F
100
AcDbEntity
  8
OBJECT
 62
     7
100
AcDbCircle
 10
0.3229642795658414
 20
1.872401402053686
 30
0.0
 40
0.1174415816934204
100
AcDbArc
 50
147.5355072
 51
212.4644928
  0
ARC
  5
4E56
330
4E4F
100
AcDbEntity
  8
OBJECT
 62
     7
100
AcDbCircle
 10
0.3229642795658414
 20
1.872401402053686
 30
0.0
 40
0.1394618782609367
100
AcDbArc
 50
315.2759093999999
 51
224.7241058000001
  0
ARC
  5
4E57
330
4E4F
100
AcDbEntity
  8
OBJECT
 62
     7
100
AcDbCircle
 10
0.3229642795658414
 20
1.916441995188719
 30
0.0
 40
0.1394618782609367
100
AcDbArc
 50
350.9153137
 51
189.0847015
  0
LINE
  5
4E58
330
4E4F
100
AcDbEntity
  8
OBJECT
 62
     7
100
AcDbLine
 10
0.5402321452313235
 20
1.872401402053686
 30
0.0
 11
0.1056968601783712
 21
1.872401402053686
 31
0.0
  0
LINE
  5
4E59
330
4E4F
100
AcDbEntity
  8
OBJECT
 62
     7
100
AcDbLine
 10
0.0000000414784385
 20
1.340978291867592
 30
0.0
 11
0.6459286292227482
 21
1.340978291867592
 31
0.0
  0
LINE
  5
4E5A
330
4E4F
100
AcDbEntity
  8
OBJECT
 62
     7
100
AcDbLine
 10
0.0000000414784385
 20
1.267577303309202
 30
0.0
 11
0.6459286292227482
 21
1.267577303309202
 31
0.0
  0
LINE
  5
4E5B
330
4E4F
100
AcDbEntity
  8
OBJECT
 62
     7
100
AcDbLine
 10
0.065897969242231
 20
1.590541876105113
 30
0.0
 11
0.5776711738330356
 21
1.590541876105113
 31
0.0
  0
LINE
  5
4E5C
330
4E4F
100
AcDbEntity
  8
OBJECT
 62
     7
100
AcDbLine
 10
0.1383491901132245
 20
1.531821085258407
 30
0.0
 11
0.5045602689174693
 21
1.531821085258407
 31
0.0
  0
LINE
  5
4E5D
330
4E4F
100
AcDbEntity
  8
OBJECT
 62
     7
100
AcDbLine
 10
0.0587208323251467
 20
1.473100294411693
 30
0.0
 11
0.5872078383760382
 21
1.473100294411693
 31
0.0
  0
LINE
  5
4E5E
330
4E4F
100
AcDbEntity
  8
OBJECT
 62
     7
100
AcDbLine
 10
0.1996503721604288
 20
1.687430822805364
 30
0.0
 11
0.0663227877396508
 21
1.604244081981281
 31
0.0
  0
LINE
  5
4E5F
330
4E4F
100
AcDbEntity
  8
OBJECT
 62
     7
100
AcDbLine
 10
0.0587208323251467
 20
1.179496117039139
 30
0.0
 11
0.0587208323251467
 21
1.473100294411693
 31
0.0
  0
LINE
  5
4E60
330
4E4F
100
AcDbEntity
  8
OBJECT
 62
     7
100
AcDbLine
 10
0.0000000414784385
 20
1.267577303309202
 30
0.0
 11
0.0000000414784385
 21
1.340978291867592
 31
0.0
  0
ARC
  5
4E61
330
4E4F
100
AcDbEntity
  8
OBJECT
 62
     7
100
AcDbCircle
 10
0.1247817220276985
 20
1.531821085258407
 30
0.0
 40
0.0073400988558388
100
AcDbArc
 50
306.0809020999999
 51
58.76274110000002
  0
ARC
  5
4E62
330
4E4F
100
AcDbEntity
  8
OBJECT
 62
     7
100
AcDbCircle
 10
0.0748704825952906
 20
1.590541876105113
 30
0.0
 40
0.016149650270142
100
AcDbArc
 50
121.6846008
 51
238.1105042
  0
LINE
  5
4E63
330
4E4F
100
AcDbEntity
  8
OBJECT
 62
     7
100
AcDbLine
 10
0.0587208323251467
 20
1.473100294411693
 30
0.0
 11
0.1291866093043517
 21
1.52594864797691
 31
0.0
  0
LINE
  5
4E64
330
4E4F
100
AcDbEntity
  8
OBJECT
 62
     7
100
AcDbLine
 10
0.1286578520710933
 20
1.538054165085004
 30
0.0
 11
0.0663389183408967
 21
1.576827576682074
 31
0.0
  0
LINE
  5
4E65
330
4E4F
100
AcDbEntity
  8
OBJECT
 62
     7
100
AcDbLine
 10
0.5872078383760382
 20
1.179496117039139
 30
0.0
 11
0.5872078383760382
 21
1.473100294411693
 31
0.0
  0
LINE
  5
4E66
330
4E4F
100
AcDbEntity
  8
OBJECT
 62
     7
100
AcDbLine
 10
0.6459286292227482
 20
1.267577303309202
 30
0.0
 11
0.6459286292227482
 21
1.340978291867592
 31
0.0
  0
LINE
  5
4E67
330
4E4F
100
AcDbEntity
  8
OBJECT
 62
     7
100
AcDbLine
 10
0.446278521679762
 20
1.687430822805364
 30
0.0
 11
0.579606329239546
 21
1.604244081981281
 31
0.0
  0
LINE
  5
4E68
330
4E4F
100
AcDbEntity
  8
OBJECT
 62
     7
100
AcDbLine
 10
0.4220522523543889
 20
1.707980322108305
 30
0.0
 11
0.446278521679762
 21
1.707980322108305
 31
0.0
  0
LINE
  5
4E69
330
4E4F
100
AcDbEntity
  8
OBJECT
 62
     7
100
AcDbLine
 10
0.446278521679762
 20
1.707980322108305
 30
0.0
 11
0.446278521679762
 21
1.687430822805364
 31
0.0
  0
LINE
  5
4E6A
330
4E4F
100
AcDbEntity
  8
OBJECT
 62
     7
100
AcDbLine
 10
0.1996503721604288
 20
1.707980322108305
 30
0.0
 11
0.2238768646248079
 21
1.707980322108305
 31
0.0
  0
LINE
  5
4E6B
330
4E4F
100
AcDbEntity
  8
OBJECT
 62
     7
100
AcDbLine
 10
0.1996503721604288
 20
1.707980322108305
 30
0.0
 11
0.1996503721604288
 21
1.687430822805364
 31
0.0
  0
LINE
  5
4E6C
330
4E4F
100
AcDbEntity
  8
OBJECT
 62
     7
100
AcDbLine
 10
0.1996503721604288
 20
1.687430822805364
 30
0.0
 11
0.446278521679762
 21
1.687430822805364
 31
0.0
  0
LINE
  5
4E6D
330
4E4F
100
AcDbEntity
  8
OBJECT
 62
     7
100
AcDbLine
 10
0.5872078383760382
 20
1.473100294411693
 30
0.0
 11
0.5167423961053413
 21
1.52594864797691
 31
0.0
  0
LINE
  5
4E6E
330
4E4F
100
AcDbEntity
  8
OBJECT
 62
     7
100
AcDbLine
 10
0.5795884076541818
 20
1.576827576682074
 30
0.0
 11
0.5172690247099326
 21
1.538054165085004
 31
0.0
  0
ARC
  5
4E6F
330
4E4F
100
AcDbEntity
  8
OBJECT
 62
     7
100
AcDbCircle
 10
0.5211469486734881
 20
1.531821085258407
 30
0.0
 40
0.0073400988558388
100
AcDbArc
 50
121.8897018
 51
233.9190979
  0
ARC
  5
4E70
330
4E4F
100
AcDbEntity
  8
OBJECT
 62
     7
100
AcDbCircle
 10
0.5710586343839062
 20
1.590541876105113
 30
0.0
 40
0.016149650270142
100
AcDbArc
 50
301.4216918999999
 51
58.31544109999999
  0
ARC
  5
4E71
330
4E4F
100
AcDbEntity
  8
OBJECT
 62
     7
100
AcDbCircle
 10
0.3229642795658414
 20
1.872401402053686
 30
0.0
 40
0.1174415816934204
100
AcDbArc
 50
42.45341109999996
 51
137.5466003
  0
LINE
  5
4E72
330
4E4F
100
AcDbEntity
  8
OBJECT
 62
     7
100
AcDbLine
 10
0.2238768646248079
 20
1.951671692203337
 30
0.0
 11
0.4220522523543889
 21
1.951671692203337
 31
0.0
  0
LINE
  5
4E73
330
4E4F
100
AcDbEntity
  8
OBJECT
 62
     7
100
AcDbLine
 10
3.93205196287618
 20
1.963021063848334
 30
0.0
 11
3.93205196287618
 21
1.69878019445036
 31
0.0
  0
LINE
  5
4E74
330
4E4F
100
AcDbEntity
  8
OBJECT
 62
     7
100
AcDbLine
 10
3.882139381673702
 20
1.963021063848334
 30
0.0
 11
3.882139381673702
 21
1.719329693753302
 31
0.0
  0
LINE
  5
4E75
330
4E4F
100
AcDbEntity
  8
OBJECT
 62
     7
100
AcDbLine
 10
3.735337404556926
 20
1.963021063848334
 30
0.0
 11
3.735337404556926
 21
1.719329693753302
 31
0.0
  0
LINE
  5
4E76
330
4E4F
100
AcDbEntity
  8
OBJECT
 62
     7
100
AcDbLine
 10
3.685424374140398
 20
1.963021063848334
 30
0.0
 11
3.685424374140398
 21
1.69878019445036
 31
0.0
  0
LINE
  5
4E77
330
4E4F
100
AcDbEntity
  8
OBJECT
 62
     7
100
AcDbLine
 10
3.738273173983625
 20
2.023212651959621
 30
0.0
 11
3.738273173983625
 21
1.744288895437744
 31
0.0
  0
LINE
  5
4E78
330
4E4F
100
AcDbEntity
  8
OBJECT
 62
     7
100
AcDbLine
 10
3.879203163032954
 20
2.023212651959621
 30
0.0
 11
3.879203163032954
 21
1.744288895437744
 31
0.0
  0
LINE
  5
4E79
330
4E4F
100
AcDbEntity
  8
OBJECT
 62
     7
100
AcDbLine
 10
4.072981951925511
 20
1.190845488684136
 30
0.0
 11
4.072981951925511
 21
1.48444966605669
 31
0.0
  0
LINE
  5
4E7A
330
4E4F
100
AcDbEntity
  8
OBJECT
 62
     7
100
AcDbLine
 10
3.544494834305119
 20
1.190845488684136
 30
0.0
 11
3.544494834305119
 21
1.48444966605669
 31
0.0
  0
LINE
  5
4E7B
330
4E4F
100
AcDbEntity
  8
OBJECT
 62
     7
100
AcDbLine
 10
3.523942199311946
 20
1.190845488684136
 30
0.0
 11
4.093534137704633
 21
1.190845488684136
 31
0.0
  0
LINE
  5
4E7C
330
4E4F
100
AcDbEntity
  8
OBJECT
 62
     7
100
AcDbLine
 10
3.544494834305119
 20
1.278926674954199
 30
0.0
 11
4.072981951925511
 21
1.278926674954199
 31
0.0
  0
LINE
  5
4E7D
330
4E4F
100
AcDbEntity
  8
OBJECT
 62
     7
100
AcDbLine
 10
3.544494834305119
 20
1.352327663512589
 30
0.0
 11
4.072981951925511
 21
1.352327663512589
 31
0.0
  0
LINE
  5
4E7E
330
4E4F
100
AcDbEntity
  8
OBJECT
 62
     7
100
AcDbLine
 10
3.782313767118656
 20
1.352327663512589
 30
0.0
 11
3.782313767118656
 21
1.278926674954199
 31
0.0
  0
LINE
  5
4E7F
330
4E4F
100
AcDbEntity
  8
OBJECT
 62
     7
100
AcDbLine
 10
3.835162569897923
 20
1.352327663512589
 30
0.0
 11
3.835162569897923
 21
1.278926674954199
 31
0.0
  0
LINE
  5
4E80
330
4E4F
100
AcDbEntity
  8
OBJECT
 62
     7
100
AcDbLine
 10
3.879203163032954
 20
1.744288895437744
 30
0.0
 11
3.738273173983625
 21
1.744288895437744
 31
0.0
  0
LINE
  5
4E81
330
4E4F
100
AcDbEntity
  8
OBJECT
 62
     7
100
AcDbLine
 10
3.735337404556926
 20
1.719329693753302
 30
0.0
 11
3.882139381673702
 21
1.719329693753302
 31
0.0
  0
LINE
  5
4E82
330
4E4F
100
AcDbEntity
  8
OBJECT
 62
     7
100
AcDbLine
 10
3.685424374140398
 20
1.69878019445036
 30
0.0
 11
3.93205196287618
 21
1.69878019445036
 31
0.0
  0
LINE
  5
4E83
330
4E4F
100
AcDbEntity
  8
OBJECT
 62
     7
100
AcDbLine
 10
3.624123080523693
 20
1.543170456903403
 30
0.0
 11
3.990335054819999
 21
1.543170456903403
 31
0.0
  0
LINE
  5
4E84
330
4E4F
100
AcDbEntity
  8
OBJECT
 62
     7
100
AcDbLine
 10
3.544494834305119
 20
1.48444966605669
 30
0.0
 11
4.072981951925511
 21
1.48444966605669
 31
0.0
  0
LINE
  5
4E85
330
4E4F
100
AcDbEntity
  8
OBJECT
 62
     7
100
AcDbLine
 10
3.551673204358808
 20
1.60189124775011
 30
0.0
 11
4.063445736596559
 21
1.60189124775011
 31
0.0
  0
LINE
  5
4E86
330
4E4F
100
AcDbEntity
  8
OBJECT
 62
     7
100
AcDbLine
 10
4.026005140149731
 20
1.883750773698682
 30
0.0
 11
3.59147119686685
 21
1.883750773698682
 31
0.0
  0
LINE
  5
4E87
330
4E4F
100
AcDbEntity
  8
OBJECT
 62
     7
100
AcDbLine
 10
3.738273173983625
 20
1.839710180563649
 30
0.0
 11
3.735337404556926
 21
1.839710180563649
 31
0.0
  0
ARC
  5
4E88
330
4E4F
100
AcDbEntity
  8
OBJECT
 62
     7
100
AcDbCircle
 10
3.610555724007666
 20
1.543170456903403
 30
0.0
 40
0.0073400988558388
100
AcDbArc
 50
306.0809020999999
 51
58.76274110000002
  0
ARC
  5
4E89
330
4E4F
100
AcDbEntity
  8
OBJECT
 62
     7
100
AcDbCircle
 10
3.560645829281371
 20
1.60189124775011
 30
0.0
 40
0.016149650270142
100
AcDbArc
 50
121.6846008
 51
238.1105042
  0
LINE
  5
4E8A
330
4E4F
100
AcDbEntity
  8
OBJECT
 62
     7
100
AcDbLine
 10
3.685424374140398
 20
1.69878019445036
 30
0.0
 11
3.552096120302605
 21
1.615593453626278
 31
0.0
  0
LINE
  5
4E8B
330
4E4F
100
AcDbEntity
  8
OBJECT
 62
     7
100
AcDbLine
 10
3.614430958559001
 20
1.54940353673
 30
0.0
 11
3.55211359267392
 21
1.58817694832707
 31
0.0
  0
LINE
  5
4E8C
330
4E4F
100
AcDbEntity
  8
OBJECT
 62
     7
100
AcDbLine
 10
3.544494834305119
 20
1.48444966605669
 30
0.0
 11
3.614959604222759
 21
1.537298019621907
 31
0.0
  0
LINE
  5
4E8D
330
4E4F
100
AcDbEntity
  8
OBJECT
 62
     7
100
AcDbLine
 10
3.882139381673702
 20
1.839710180563649
 30
0.0
 11
3.879203163032954
 21
1.839710180563649
 31
0.0
  0
LINE
  5
4E8E
330
4E4F
100
AcDbEntity
  8
OBJECT
 62
     7
100
AcDbLine
 10
4.072981951925511
 20
1.48444966605669
 30
0.0
 11
4.00251673279382
 21
1.537298019621907
 31
0.0
  0
LINE
  5
4E8F
330
4E4F
100
AcDbEntity
  8
OBJECT
 62
     7
100
AcDbLine
 10
4.065362747278697
 20
1.58817694832707
 30
0.0
 11
4.003042242767344
 21
1.54940353673
 31
0.0
  0
ARC
  5
4E90
330
4E4F
100
AcDbEntity
  8
OBJECT
 62
     7
100
AcDbCircle
 10
4.006921062222961
 20
1.543170456903403
 30
0.0
 40
0.0073400988558388
100
AcDbArc
 50
121.8897018
 51
233.9190979
  0
ARC
  5
4E91
330
4E4F
100
AcDbEntity
  8
OBJECT
 62
     7
100
AcDbCircle
 10
4.05683364342544
 20
1.60189124775011
 30
0.0
 40
0.016149650270142
100
AcDbArc
 50
301.4216918999999
 51
58.31544109999999
  0
LINE
  5
4E92
330
4E4F
100
AcDbEntity
  8
OBJECT
 62
     7
100
AcDbLine
 10
3.93205196287618
 20
1.69878019445036
 30
0.0
 11
4.065380219650014
 21
1.615593453626278
 31
0.0
  0
LINE
  5
4E93
330
4E4F
100
AcDbEntity
  8
OBJECT
 62
     7
100
AcDbLine
 10
3.738273173983625
 20
2.023212651959621
 30
0.0
 11
3.879203163032954
 21
2.023212651959621
 31
0.0
  0
LINE
  5
4E94
330
4E4F
100
AcDbEntity
  8
OBJECT
 62
     7
100
AcDbLine
 10
3.685424374140398
 20
1.963021063848334
 30
0.0
 11
3.735337404556926
 21
1.963021063848334
 31
0.0
  0
LINE
  5
4E95
330
4E4F
100
AcDbEntity
  8
OBJECT
 62
     7
100
AcDbLine
 10
3.738273173983625
 20
1.927791366833716
 30
0.0
 11
3.735337404556926
 21
1.927791366833716
 31
0.0
  0
LINE
  5
4E96
330
4E4F
100
AcDbEntity
  8
OBJECT
 62
     7
100
AcDbLine
 10
3.882139381673702
 20
1.927791366833716
 30
0.0
 11
3.879203163032954
 21
1.927791366833716
 31
0.0
  0
LINE
  5
4E97
330
4E4F
100
AcDbEntity
  8
OBJECT
 62
     7
100
AcDbLine
 10
3.882139381673702
 20
1.963021063848334
 30
0.0
 11
3.93205196287618
 21
1.963021063848334
 31
0.0
  0
LINE
  5
4E98
330
4E4F
100
AcDbEntity
  8
OBJECT
 62
     7
100
AcDbLine
 10
3.808738393115312
 20
2.115307507045439
 30
0.0
 11
3.808738393115312
 21
0.0000000172607173
 31
0.0
  0
ENDBLK
  5
4E9A
330
4E4F
100
AcDbEntity
  8
0
100
AcDbBlockEnd
  0
BLOCK
  5
4F67
330
4F65
100
AcDbEntity
  8
0
100
AcDbBlockBegin
  2
GENAXEH
 70
     0
 10
0.0
 20
0.0
 30
0.0
  3
GENAXEH
  1

  0
LINE
  5
4F66
330
4F65
100
AcDbEntity
  8
0
100
AcDbLine
 10
-1.0
 20
0.0
 30
0.0
 11
1.0
 21
0.0
 31
0.0
  0
ENDBLK
  5
4F68
330
4F65
100
AcDbEntity
  8
0
100
AcDbBlockEnd
  0
ENDSEC
  0
SECTION
  2
ENTITIES
  0
TEXT
  5
C7
330
1E
100
AcDbEntity
  8
DIM
 62
     1
100
AcDbText
 10
16.35516340111906
 20
7.313182641180002
 30
0.0
 40
0.125
  1

 50
90.0
100
AcDbText
  0
TEXT
  5
C9
330
1E
100
AcDbEntity
  8
DIM
 62
     1
100
AcDbText
 10
13.34837863483334
 20
7.179439377583786
 30
0.0
 40
0.125
  1

 50
90.0
100
AcDbText
  0
TEXT
  5
DA
330
1E
100
AcDbEntity
  8
DIM
 62
     1
100
AcDbText
 10
13.6904845814324
 20
8.486994831764484
 30
0.0
 40
0.125
  1

 50
90.0
100
AcDbText
  0
TEXT
  5
DB
330
1E
100
AcDbEntity
  8
DIM
 62
     1
100
AcDbText
 10
10.68369981514667
 20
8.353251568168268
 30
0.0
 40
0.125
  1

 50
90.0
100
AcDbText
  0
TEXT
  5
7BB
330
1E
100
AcDbEntity
  8
0
100
AcDbText
 10
14.49672206945318
 20
0.6371003189161656
 30
0.0
 40
0.1213397244080934
  1
802B-SSAD1BSX
  7
HELR
 72
     4
 11
15.25076178541776
 21
0.6977701811202124
 31
0.0
100
AcDbText
  0
TEXT
  5
9B3
330
1E
100
AcDbEntity
  8
DIM
 62
     1
100
AcDbText
 10
25.09672621712861
 20
7.640701491704227
 30
0.0
 40
0.125
  1

 50
90.0
100
AcDbText
  0
TEXT
  5
9B4
330
1E
100
AcDbEntity
  8
DIM
 62
     1
100
AcDbText
 10
22.08994145084288
 20
7.506958228108011
 30
0.0
 40
0.125
  1

 50
90.0
100
AcDbText
  0
TEXT
  5
9B5
330
1E
100
AcDbEntity
  8
DIM
 62
     1
100
AcDbText
 10
22.43204739744194
 20
8.814513682288708
 30
0.0
 40
0.125
  1

 50
90.0
100
AcDbText
  0
TEXT
  5
9B6
330
1E
100
AcDbEntity
  8
DIM
 62
     1
100
AcDbText
 10
19.42526263115621
 20
8.680770418692492
 30
0.0
 40
0.125
  1

 50
90.0
100
AcDbText
  0
TEXT
  5
9B7
330
1E
100
AcDbEntity
  8
0
100
AcDbText
 10
11.51472627349514
 20
1.620220178285536
 30
0.0
 40
0.1213397244080934
  1
OUTLINE DRAWING
  7
HELR
 72
     4
 11
12.3236577695491
 21
1.680890040489583
 31
0.0
100
AcDbText
  0
TEXT
  5
9B8
330
1E
100
AcDbEntity
  8
0
100
AcDbText
 10
12.10986873130627
 20
1.420866795770394
 30
0.0
 40
0.1213397244080934
  1
802B
  7
HELR
 72
     4
 11
12.3236577695491
 21
1.481536657974441
 31
0.0
100
AcDbText
  0
TEXT
  5
9B9
330
1E
100
AcDbEntity
  8
0
100
AcDbText
 10
11.26337970150695
 20
1.221513413255252
 30
0.0
 40
0.1213397244080934
  1
COMPACT LIMIT SWITCH
  7
HELR
 72
     4
 11
12.3236577695491
 21
1.282183275459299
 31
0.0
100
AcDbText
  0
TEXT
  5
3F15
330
1E
100
AcDbEntity
  8
FORM
100
AcDbText
 10
13.37613044214886
 20
10.59631187162067
 30
0.0
 40
0.08
  1
REVISIONS
 72
     4
 11
13.7094637754822
 21
10.63631187162067
 31
0.0
100
AcDbText
  0
TEXT
  5
3F16
330
1E
100
AcDbEntity
  8
FORM
100
AcDbText
 10
13.73530506185902
 20
10.38129937162067
 30
0.0
 40
0.06
  1
DESCRIPTION
 72
     4
 11
14.03530506185902
 21
10.41129937162067
 31
0.0
100
AcDbText
  0
TEXT
  5
3F17
330
1E
100
AcDbEntity
  8
FORM
100
AcDbText
 10
11.7146780754822
 20
10.38129937162067
 30
0.0
 40
0.06
  1
REV.
 72
     4
 11
11.8146780754822
 21
10.41129937162067
 31
0.0
100
AcDbText
  0
TEXT
  5
3F18
330
1E
100
AcDbEntity
  8
FORM
100
AcDbText
 10
16.14906399964001
 20
10.38129937162067
 30
0.0
 40
0.06
  1
DRAFTER
 72
     4
 11
16.34906399964001
 21
10.41129937162067
 31
0.0
100
AcDbText
  0
LINE
  5
3F19
330
1E
100
AcDbEntity
  8
FORM
100
AcDbLine
 10
0.1042494754821988
 20
0.3013358716206689
 30
0.0
 11
0.1042494754821988
 21
10.76133587162067
 31
0.0
  0
LINE
  5
3F1A
330
1E
100
AcDbEntity
  8
FORM
100
AcDbLine
 10
0.1042494754821988
 20
10.76133587162067
 30
0.0
 11
16.5642494754822
 21
10.76133587162067
 31
0.0
  0
LINE
  5
3F1B
330
1E
100
AcDbEntity
  8
FORM
100
AcDbLine
 10
16.5642494754822
 20
10.76133587162067
 30
0.0
 11
16.5642494754822
 21
0.3013358716206689
 31
0.0
  0
LINE
  5
3F1C
330
1E
100
AcDbEntity
  8
FORM
100
AcDbLine
 10
16.5642494754822
 20
0.3013358716206689
 30
0.0
 11
0.1042494754821988
 21
0.3013358716206689
 31
0.0
  0
LINE
  5
3F1D
330
1E
100
AcDbEntity
  8
FORM
100
AcDbLine
 10
16.5642494754822
 20
10.51128787162067
 30
0.0
 11
11.6946780754822
 21
10.51128787162067
 31
0.0
  0
LINE
  5
3F1E
330
1E
100
AcDbEntity
  8
FORM
100
AcDbLine
 10
16.5642494754822
 20
10.31131087162067
 30
0.0
 11
11.6946780754822
 21
10.31131087162067
 31
0.0
  0
LINE
  5
3F1F
330
1E
100
AcDbEntity
  8
FORM
100
AcDbLine
 10
11.6946780754822
 20
10.1116735987442
 30
0.0
 11
11.6946780754822
 21
10.76133587162067
 31
0.0
  0
LINE
  5
3F20
330
1E
100
AcDbEntity
  8
FORM
100
AcDbLine
 10
11.93467807548219
 20
10.1116735987442
 30
0.0
 11
11.93467807548219
 21
10.51128787162067
 31
0.0
  0
LINE
  5
3F21
330
1E
100
AcDbEntity
  8
FORM
100
AcDbLine
 10
16.13593204823584
 20
10.1116735987442
 30
0.0
 11
16.13593204823584
 21
10.51128787162067
 31
0.0
  0
LINE
  5
3F22
330
1E
100
AcDbEntity
  8
FORM
100
AcDbLine
 10
16.54425243591942
 20
10.1116735987442
 30
0.0
 11
11.67468103591941
 21
10.1116735987442
 31
0.0
  0
TEXT
  5
3F23
330
1E
100
AcDbEntity
  8
FORM
100
AcDbText
 10
11.8046780754822
 20
10.1814922222368
 30
0.0
 40
0.06
  1
1
 72
     4
 11
11.8146780754822
 21
10.2114922222368
 31
0.0
100
AcDbText
  0
TEXT
  5
3F24
330
1E
100
AcDbEntity
  8
FORM
100
AcDbText
 10
12.08889710857868
 20
10.1814922222368
 30
0.0
 40
0.06
  1
CREATED
 72
     4
 11
12.28889710857868
 21
10.2114922222368
 31
0.0
100
AcDbText
  0
TEXT
  5
3F25
330
1E
100
AcDbEntity
  8
FORM
100
AcDbText
 10
16.26906399964001
 20
10.1814922222368
 30
0.0
 40
0.06
  1
MJL
 72
     4
 11
16.34906399964001
 21
10.2114922222368
 31
0.0
100
AcDbText
  0
TEXT
  5
3F26
330
1E
100
AcDbEntity
  8
BORDER
100
AcDbText
 10
14.24675382472929
 20
1.832088277798209
 30
0.0
 40
0.08
  1
FOR TECHNICAL SUPPORT CALL
100
AcDbText
  0
LINE
  5
3F27
330
1E
100
AcDbEntity
  8
BORDER
 62
     7
100
AcDbLine
 10
8.164214953796033
 20
0.880152121685807
 30
0.0
 11
10.6742212964188
 21
0.880152121685807
 31
0.0
  0
LINE
  5
3F28
330
1E
100
AcDbEntity
  8
BORDER
 62
     7
100
AcDbLine
 10
8.164214953796033
 20
0.5965697534844594
 30
0.0
 11
10.6742212964188
 21
0.5965697534844594
 31
0.0
  0
LINE
  5
3F29
330
1E
100
AcDbEntity
  8
BORDER
 62
     7
100
AcDbLine
 10
8.164214953796033
 20
2.310664685980217
 30
0.0
 11
16.5642494754822
 21
2.310664685980217
 31
0.0
  0
CIRCLE
  5
3F2A
330
1E
100
AcDbEntity
  8
BORDER
100
AcDbCircle
 10
8.975235392842808
 20
1.629187519764812
 30
0.0
 40
0.1399439102212038
  0
CIRCLE
  5
3F2B
330
1E
100
AcDbEntity
  8
BORDER
100
AcDbCircle
 10
8.975235392842808
 20
1.629187519764812
 30
0.0
 40
0.2350004304560674
  0
LINE
  5
3F2C
330
1E
100
AcDbEntity
  8
BORDER
 62
     7
100
AcDbLine
 10
10.6626304614487
 20
0.5918000678843392
 30
0.0
 11
14.07264668340649
 21
0.5918000678843392
 31
0.0
  0
TEXT
  5
3F2E
330
1E
100
AcDbEntity
  8
BORDER
100
AcDbText
 10
8.252778585122825
 20
2.073417411838359
 30
0.0
 40
0.06
  1
DIMENSIONS ARE IN MM [INCHES]
  7
ROMANS
100
AcDbText
  0
LINE
  5
3F2F
330
1E
100
AcDbEntity
  8
BORDER
 62
     7
100
AcDbLine
 10
10.6742212964188
 20
1.988654942763002
 30
0.0
 11
8.164214953796033
 21
1.988654942763002
 31
0.0
  0
LINE
  5
3F30
330
1E
100
AcDbEntity
  8
BORDER
 62
     7
100
AcDbLine
 10
8.164214953796033
 20
1.163768028334882
 30
0.0
 11
10.6742212964188
 21
1.163768028334882
 31
0.0
  0
TEXT
  5
3F31
330
1E
100
AcDbEntity
  8
BORDER
100
AcDbText
 10
8.231050836667568
 20
2.185660268230411
 30
0.0
 40
0.06
  1
UNLESS OTHERWISE SPECIFIED
  7
ROMANS
 72
     4
 11
8.929622265238997
 21
2.215660268230411
 31
0.0
100
AcDbText
  0
LINE
  5
3F32
330
1E
100
AcDbEntity
  8
BORDER
 62
     7
100
AcDbLine
 10
8.164214953796033
 20
2.310664685980217
 30
0.0
 11
8.164214953796033
 21
0.3013358716206689
 31
0.0
  0
LINE
  5
3F33
330
1E
100
AcDbEntity
  8
BORDER
100
AcDbLine
 10
10.05345745430098
 20
1.86418795022088
 30
0.0
 11
10.05345745430098
 21
1.394187089308745
 31
0.0
  0
LINE
  5
3F34
330
1E
100
AcDbEntity
  8
BORDER
100
AcDbLine
 10
9.469758293584561
 20
1.769131429986016
 30
0.0
 11
9.469758293584561
 21
1.489243609543608
 31
0.0
  0
TEXT
  5
3F35
330
1E
100
AcDbEntity
  8
BORDER
100
AcDbText
 10
14.75034761914786
 20
1.677567584262366
 30
0.0
 40
0.08
  1
+1 440.646.5800
100
AcDbText
  0
TEXT
  5
3F36
330
1E
100
AcDbEntity
  8
BORDER
100
AcDbText
 10
8.849680802323176
 20
1.224269202352133
 30
0.0
 40
0.06
  1
THIRD ANGLE PROJECTION
  7
ROMANS
 72
     4
 11
9.438252230894605
 21
1.254269202352134
 31
0.0
100
AcDbText
  0
LINE
  5
3F37
330
1E
100
AcDbEntity
  8
BORDER
100
AcDbLine
 10
10.05345745430098
 20
1.394187089308745
 30
0.0
 11
9.469758293584561
 21
1.489243609543608
 31
0.0
  0
LINE
  5
3F38
330
1E
100
AcDbEntity
  8
BORDER
100
AcDbLine
 10
10.05345745430098
 20
1.86418795022088
 30
0.0
 11
9.469758293584561
 21
1.769131429986016
 31
0.0
  0
TEXT
  5
3F39
330
1E
100
AcDbEntity
  8
BORDER
100
AcDbText
 10
8.252838918385634
 20
0.9937680024362871
 30
0.0
 40
0.07
  1
MATERIAL:    N/A
  7
ROMANS
 11
8.252838918385634
 21
1.063768002436287
 31
0.0
100
AcDbText
 73
     3
  0
TEXT
  5
3F3A
330
1E
100
AcDbEntity
  8
BORDER
100
AcDbText
 10
8.252838918385634
 20
0.7101520957872121
 30
0.0
 40
0.07
  1
FINISH:    N/A
  7
ROMANS
 11
8.252838918385634
 21
0.7801520957872122
 31
0.0
100
AcDbText
 73
     3
  0
TEXT
  5
3F3B
330
1E
100
AcDbEntity
  8
BORDER
100
AcDbText
 10
8.241657103055366
 20
0.4098107168812891
 30
0.0
 40
0.07
  1
SCALE:    1 : 1
  7
ROMANS
 11
8.241657103055366
 21
0.4798107168812891
 31
0.0
100
AcDbText
 73
     3
  0
LINE
  5
3F3C
330
1E
100
AcDbEntity
  8
BORDER
 62
     7
100
AcDbLine
 10
12.50422129641874
 20
0.5918000678843392
 30
0.0
 11
12.50422129641873
 21
0.3013358716206689
 31
0.0
  0
TEXT
  5
3F3D
330
1E
100
AcDbEntity
  8
BORDER
100
AcDbText
 10
11.16346154336717
 20
0.3816849826689754
 30
0.0
 40
0.09
  1
B. FORTIER
  7
ROMANS
100
AcDbText
  0
LINE
  5
3F3E
330
1E
100
AcDbEntity
  8
BORDER
 62
     7
100
AcDbLine
 10
10.6742212964188
 20
2.310664685980217
 30
0.0
 11
10.6742212964188
 21
0.3013358716206689
 31
0.0
  0
TEXT
  5
3F3F
330
1E
100
AcDbEntity
  8
BORDER
100
AcDbText
 10
10.74583298220857
 20
0.3910254962221138
 30
0.0
 40
0.1
  1
DRW.
  7
ROMANS
 11
10.74583298220857
 21
0.4410254962221139
 31
0.0
100
AcDbText
 73
     2
  0
TEXT
  5
3F40
330
1E
100
AcDbEntity
  8
BORDER
100
AcDbText
 10
12.61209870062048
 20
0.3935679008708526
 30
0.0
 40
0.1
  1
DATE
  7
ROMANS
100
AcDbText
  0
LINE
  5
3F43
330
1E
100
AcDbEntity
  8
BORDER
 62
     7
100
AcDbLine
 10
16.16423529139655
 20
0.7613526737798431
 30
0.0
 11
16.5642494754822
 21
0.7613526737798431
 31
0.0
  0
TEXT
  5
3F44
330
1E
100
AcDbEntity
  8
BORDER
100
AcDbText
 10
16.26023335346775
 20
0.7914822653982334
 30
0.0
 40
0.06
  1
REV.
  7
ROMANS
100
AcDbText
  0
TEXT
  5
3F45
330
1E
100
AcDbEntity
  8
BORDER
100
AcDbText
 10
14.17297786485456
 20
2.008125303149491
 30
0.0
 40
0.12
  1
ROCKWELL AUTOMATION
100
AcDbText
  0
TEXT
  5
3F46
330
1E
100
AcDbEntity
  8
BORDER
100
AcDbText
 10
14.15686668632682
 20
1.240125519652671
 30
0.0
 40
0.06
  1
ROCKWELL AUTOMATION AND MAY NOT COPIED,
100
AcDbText
  0
TEXT
  5
3F47
330
1E
100
AcDbEntity
  8
BORDER
100
AcDbText
 10
14.15686668632682
 20
1.140125519652649
 30
0.0
 40
0.06
  1
USED OR DISCLOSED FOR ANY PURPOSE EXCEPT 
100
AcDbText
  0
LINE
  5
3F48
330
1E
100
AcDbEntity
  8
BORDER
 62
     7
100
AcDbLine
 10
14.08423751837659
 20
0.5013329898443751
 30
0.0
 11
16.5642494754822
 21
0.5013329898443751
 31
0.0
  0
LINE
  5
3F49
330
1E
100
AcDbEntity
  8
BORDER
 62
     7
100
AcDbLine
 10
14.08423751837659
 20
0.8813526737798476
 30
0.0
 11
16.5642494754822
 21
0.8813526737798476
 31
0.0
  0
LINE
  5
3F4A
330
1E
100
AcDbEntity
  8
BORDER
 62
     7
100
AcDbLine
 10
14.08423751837659
 20
1.483895532676335
 30
0.0
 11
16.5642494754822
 21
1.483895532676335
 31
0.0
  0
TEXT
  5
3F4B
330
1E
100
AcDbEntity
  8
BORDER
100
AcDbText
 10
15.20172277357306
 20
0.3513358716206802
 30
0.0
 40
0.0781
  1
1
  7
ROMANS
100
AcDbText
  0
TEXT
  5
3F4C
330
1E
100
AcDbEntity
  8
BORDER
100
AcDbText
 10
16.07672277357307
 20
0.3513358716206802
 30
0.0
 40
0.0781
  1
1
  7
ROMANS
100
AcDbText
  0
TEXT
  5
3F4D
330
1E
100
AcDbEntity
  8
BORDER
100
AcDbText
 10
14.45808700369694
 20
0.3539194570580584
 30
0.0
 40
0.1
  1
B
  7
ROMANS
 72
     1
 11
14.51046795607789
 21
0.3539194570580584
 31
0.0
100
AcDbText
  0
LINE
  5
3F4E
330
1E
100
AcDbEntity
  8
BORDER
 62
     7
100
AcDbLine
 10
14.08423751837659
 20
0.3013358716206689
 30
0.0
 11
14.08423751837659
 21
2.310664685980217
 31
0.0
  0
TEXT
  5
3F4F
330
1E
100
AcDbEntity
  8
BORDER
100
AcDbText
 10
14.13838683215874
 20
0.3538095471564908
 30
0.0
 40
0.08
  1
SIZE   SHEET         OF     
  7
ROMANS
100
AcDbText
  0
TEXT
  5
3F50
330
1E
100
AcDbEntity
  8
BORDER
100
AcDbText
 10
14.15686668632682
 20
1.340125519652666
 30
0.0
 40
0.06
  1
THIS DRAWING IS PROPERTY OF
100
AcDbText
  0
TEXT
  5
3F51
330
1E
100
AcDbEntity
  8
BORDER
100
AcDbText
 10
14.15686668632682
 20
1.040125519652654
 30
0.0
 40
0.06
  1
AS AUTHORIZED IN WRITING BY
100
AcDbText
  0
TEXT
  5
3F52
330
1E
100
AcDbEntity
  8
BORDER
100
AcDbText
 10
14.15686668632682
 20
0.9401255196526605
 30
0.0
 40
0.06
  1
ROCKWELL AUTOMATION.
100
AcDbText
  0
TEXT
  5
3F53
330
1E
100
AcDbEntity
  8
BORDER
100
AcDbText
 10
13.1261292903136
 20
0.3963337397533344
 30
0.0
 40
0.09375
  1
10/11/06
  7
ROMANS
100
AcDbText
  0
TEXT
  5
3F54
330
1E
100
AcDbEntity
  8
BORDER
100
AcDbText
 10
14.13838683215874
 20
0.7411669347464205
 30
0.0
 40
0.06
  1
DWG.
  7
ROMANS
100
AcDbText
  0
TEXT
  5
3F55
330
1E
100
AcDbEntity
  8
BORDER
100
AcDbText
 10
14.13838683215874
 20
0.6078336014130948
 30
0.0
 40
0.06
  1
NO.
  7
ROMANS
100
AcDbText
  0
LINE
  5
3F57
330
1E
100
AcDbEntity
  8
BORDER
 62
     7
100
AcDbLine
 10
16.16423529139655
 20
0.8813526737798476
 30
0.0
 11
16.16423529139655
 21
0.5013329898443751
 31
0.0
  0
TEXT
  5
3F58
330
1E
100
AcDbEntity
  8
BORDER
100
AcDbText
 10
16.2988682206034
 20
0.5895054857508378
 30
0.0
 40
0.1
  1
1
  7
ROMANS
 72
     1
 11
16.33934441107959
 21
0.5895054857508378
 31
0.0
100
AcDbText
  0
LINE
  5
48D2
330
1E
100
AcDbEntity
  8
DIM
100
AcDbLine
 10
5.866705225853169
 20
5.574844175914384
 30
0.0
 11
6.303750054362417
 21
4.962466704778939
 31
0.0
1001
ACAD
1000
DSTYLE
1002
{
1070
   147
1040
0.09
1070
    77
1070
     0
1002
}
  0
LINE
  5
48D3
330
1E
100
AcDbEntity
  8
DIM
 62
     1
100
AcDbLine
 10
6.916098030137105
 20
5.117365965374151
 30
0.0
 11
6.916098030137105
 21
4.267721424668447
 31
0.0
  0
LINE
  5
48D4
330
1E
100
AcDbEntity
  8
DIM
 62
     1
100
AcDbLine
 10
6.311636320066123
 20
5.038338296357184
 30
0.0
 11
6.311636320066123
 21
4.267721424668447
 31
0.0
  0
LINE
  5
48D5
330
1E
100
AcDbEntity
  8
DIM
 62
     1
100
AcDbLine
 10
5.730867480531676
 20
5.587507406234904
 30
0.0
 11
5.730867480531676
 21
4.690684558888346
 31
0.0
  0
LINE
  5
48D6
330
1E
100
AcDbEntity
  8
DIM
 62
     1
100
AcDbLine
 10
4.727368403990258
 20
5.587507406234904
 30
0.0
 11
4.727368403990258
 21
4.690684558888346
 31
0.0
  0
LINE
  5
48D7
330
1E
100
AcDbEntity
  8
DIM
 62
     1
100
AcDbLine
 10
4.146610263169567
 20
5.077846101974538
 30
0.0
 11
4.146610263169567
 21
4.267083619817856
 31
0.0
  0
LINE
  5
48D8
330
1E
100
AcDbEntity
  8
DIM
 62
     1
100
AcDbLine
 10
6.311636320066128
 20
5.038338296357184
 30
0.0
 11
6.311636320066128
 21
4.267083619817856
 31
0.0
  0
LINE
  5
48D9
330
1E
100
AcDbEntity
  8
DIM
100
AcDbLine
 10
6.472619811731185
 20
4.725850165186241
 30
0.0
 11
6.864025966464261
 21
4.725850165186241
 31
0.0
1001
ACAD
1000
DSTYLE
1002
{
1070
   147
1040
0.09
1070
    77
1070
     0
1002
}
  0
MTEXT
  5
48DA
330
1E
100
AcDbEntity
  8
DIM
 62
     7
100
AcDbMText
 10
6.649055733891473
 20
4.330221424668447
 30
0.0
 40
0.09
 41
0.0
 71
     5
 72
     1
  1
15\P[.59]
 73
     1
 44
1.0
1001
ACAD
1000
MTEXTBEGIN
1070
    73
1070
     1
1070
    44
1040
1.0
1070
    74
1070
     0
1000
MTEXTEND
  0
MTEXT
  5
48DB
330
1E
100
AcDbEntity
  8
DIM
 62
     7
100
AcDbMText
 10
5.229117942260967
 20
4.753184558888346
 30
0.0
 40
0.09
 41
0.0
 71
     5
 72
     1
  1
25.4%%P0.15\P[1.00±0.59]
 73
     1
 44
1.0
1001
ACAD
1000
MTEXTBEGIN
1070
    73
1070
     1
1070
    44
1040
1.0
1070
    74
1070
     0
1000
MTEXTEND
  0
MTEXT
  5
48DC
330
1E
100
AcDbEntity
  8
DIM
 62
     7
100
AcDbMText
 10
5.229123291617847
 20
4.329583619817856
 30
0.0
 40
0.09
 41
0.0
 71
     5
 72
     1
  1
55\P[2.165]
 73
     1
 44
1.0
1001
ACAD
1000
MTEXTBEGIN
1070
    73
1070
     1
1070
    44
1040
1.0
1070
    74
1070
     0
1000
MTEXTEND
  0
LINE
  5
48DD
330
1E
100
AcDbEntity
  8
DIM
 62
     1
100
AcDbLine
 10
4.577368403990258
 20
4.753184558888346
 30
0.0
 11
4.427368403990258
 21
4.753184558888346
 31
0.0
  0
LINE
  5
48DE
330
1E
100
AcDbEntity
  8
DIM
 62
     1
100
AcDbLine
 10
4.296610263169567
 20
4.329583619817856
 30
0.0
 11
4.965783220655233
 21
4.329583619817856
 31
0.0
  0
SOLID
  5
48DF
330
1E
100
AcDbEntity
  8
DIM
 62
     1
100
AcDbTrace
 10
4.296610263169567
 20
4.354583619817857
 30
0.0
 11
4.296610263169567
 21
4.304583619817856
 31
0.0
 12
4.146610263169567
 22
4.329583619817856
 32
0.0
 13
4.146610263169567
 23
4.329583619817856
 33
0.0
  0
SOLID
  5
48E0
330
1E
100
AcDbEntity
  8
DIM
 62
     1
100
AcDbTrace
 10
4.577368403990258
 20
4.778184558888346
 30
0.0
 11
4.577368403990258
 21
4.728184558888345
 31
0.0
 12
4.727368403990258
 22
4.753184558888346
 32
0.0
 13
4.727368403990258
 23
4.753184558888346
 33
0.0
  0
SOLID
  5
48E1
330
1E
100
AcDbEntity
  8
DIM
 62
     1
100
AcDbTrace
 10
5.880867480531676
 20
4.778184558888346
 30
0.0
 11
5.880867480531676
 21
4.728184558888345
 31
0.0
 12
5.730867480531676
 22
4.753184558888346
 32
0.0
 13
5.730867480531676
 23
4.753184558888346
 33
0.0
  0
LINE
  5
48E2
330
1E
100
AcDbEntity
  8
DIM
 62
     1
100
AcDbLine
 10
6.161636320066127
 20
4.329583619817856
 30
0.0
 11
5.492463310573969
 21
4.329583619817856
 31
0.0
  0
SOLID
  5
48E3
330
1E
100
AcDbEntity
  8
DIM
 62
     1
100
AcDbTrace
 10
6.161636320066127
 20
4.354583619817857
 30
0.0
 11
6.161636320066127
 21
4.304583619817856
 31
0.0
 12
6.311636320066128
 22
4.329583619817856
 32
0.0
 13
6.311636320066128
 23
4.329583619817856
 33
0.0
  0
LINE
  5
48E4
330
1E
100
AcDbEntity
  8
DIM
 62
     1
100
AcDbLine
 10
5.880867480531676
 20
4.753184558888346
 30
0.0
 11
6.030867480531676
 21
4.753184558888346
 31
0.0
  0
LINE
  5
48E5
330
1E
100
AcDbEntity
  8
DIM
100
AcDbLine
 10
6.342052921573359
 20
4.908797581087712
 30
0.0
 11
6.472619811731185
 21
4.725850165186241
 31
0.0
1001
ACAD
1000
DSTYLE
1002
{
1070
   147
1040
0.09
1070
    77
1070
     0
1002
}
  0
MTEXT
  5
48E6
330
1E
100
AcDbEntity
  8
DIM
 62
     7
100
AcDbMText
 10
7.938382125221722
 20
4.663870473929925
 30
0.0
 40
0.09
 41
0.0
 71
     5
 72
     1
  1
TOW 4.3±0.1\P[.169±.039]\PMOUNTING HOLES
 73
     1
 44
1.0
1001
ACAD
1000
MTEXTBEGIN
1070
    73
1070
     1
1070
    44
1040
1.0
1070
    74
1070
     0
1000
MTEXTEND
  0
LINE
  5
48E7
330
1E
100
AcDbEntity
  8
DIM
100
AcDbLine
 10
6.976707167042093
 20
4.725850165186241
 30
0.0
 11
7.495445424960678
 21
4.725850165186241
 31
0.0
1001
ACAD
1000
DSTYLE
1002
{
1070
   147
1040
0.09
1070
    77
1070
     0
1002
}
  0
LINE
  5
48E8
330
1E
100
AcDbEntity
  8
DIM
 62
     1
100
AcDbLine
 10
7.22204862051945
 20
4.330221424668447
 30
0.0
 11
7.066098030137105
 21
4.330221424668447
 31
0.0
  0
SOLID
  5
48E9
330
1E
100
AcDbEntity
  8
DIM
 62
     1
100
AcDbTrace
 10
7.066098030137105
 20
4.355221424668448
 30
0.0
 11
7.066098030137105
 21
4.305221424668447
 31
0.0
 12
6.916098030137105
 22
4.330221424668447
 32
0.0
 13
6.916098030137105
 23
4.330221424668447
 33
0.0
  0
MTEXT
  5
48EA
330
1E
100
AcDbEntity
  8
DIM
 62
     7
100
AcDbMText
 10
8.541427054111274
 20
4.740298748050694
 30
0.0
 40
0.09
 41
0.0
 71
     5
 72
     1
  1
DIA
 73
     1
 44
1.0
1001
ACAD
1000
MTEXTBEGIN
1070
    73
1070
     1
1070
    44
1040
1.0
1070
    74
1070
     0
1000
MTEXTEND
  0
LINE
  5
48EF
330
1E
100
AcDbEntity
  8
DIM
 62
     1
100
AcDbLine
 10
4.099100000113331
 20
5.002080840096097
 30
0.0
 11
2.210067848420572
 21
5.002080840096098
 31
0.0
  0
LINE
  5
48F0
330
1E
100
AcDbEntity
  8
DIM
 62
     1
100
AcDbLine
 10
4.462353283329253
 20
5.792236952443041
 30
0.0
 11
2.210067848420571
 21
5.792236952443042
 31
0.0
  0
LINE
  5
48F1
330
1E
100
AcDbEntity
  8
DIM
 62
     1
100
AcDbLine
 10
4.143371971595589
 20
5.08108439354851
 30
0.0
 11
2.984490731931387
 21
5.08108439354851
 31
0.0
  0
LINE
  5
48F2
330
1E
100
AcDbEntity
  8
DIM
 62
     1
100
AcDbLine
 10
4.462353283329253
 20
5.792236952443041
 30
0.0
 11
2.984490731931387
 21
5.792236952443041
 31
0.0
  0
LINE
  5
48F3
330
1E
100
AcDbEntity
  8
DIM
 62
     1
100
AcDbLine
 10
4.111759125347392
 20
5.594696114898809
 30
0.0
 11
3.661327504851286
 21
5.594696114898809
 31
0.0
  0
LINE
  5
48F4
330
1E
100
AcDbEntity
  8
DIM
 62
     1
100
AcDbLine
 10
4.462353283329253
 20
5.792236952443041
 30
0.0
 11
3.661327504851286
 21
5.792236952443041
 31
0.0
  0
LINE
  5
48F7
330
1E
100
AcDbEntity
  8
DIM
 62
     1
100
AcDbLine
 10
4.462353283329253
 20
5.792236952443041
 30
0.0
 11
3.662717586160283
 21
5.792236952443041
 31
0.0
  0
LINE
  5
48F8
330
1E
100
AcDbEntity
  8
DIM
 62
     1
100
AcDbLine
 10
4.462353283329253
 20
5.792236952443041
 30
0.0
 11
2.98198849196352
 21
5.792236952443042
 31
0.0
  0
MTEXT
  5
48FA
330
1E
100
AcDbEntity
  8
DIM
 62
     7
100
AcDbMText
 10
2.561614581448103
 20
5.469306808168457
 30
0.0
 40
0.09
 41
0.0
 71
     5
 72
     1
  1
MAX
 73
     1
 44
1.0
1001
ACAD
1000
MTEXTBEGIN
1070
    73
1070
     1
1070
    44
1040
1.0
1070
    74
1070
     0
1000
MTEXTEND
  0
MTEXT
  5
48FB
330
1E
100
AcDbEntity
  8
DIM
 62
     7
100
AcDbMText
 10
2.267931990442959
 20
5.39715889626957
 30
0.0
 40
0.09
 41
0.0
 71
     5
 72
     1
  1
22\P[.866]
 73
     1
 44
1.0
1001
ACAD
1000
MTEXTBEGIN
1070
    73
1070
     1
1070
    44
1040
1.0
1070
    74
1070
     0
1000
MTEXTEND
  0
LINE
  5
48FC
330
1E
100
AcDbEntity
  8
DIM
 62
     1
100
AcDbLine
 10
2.272567848420571
 20
5.152080840096099
 30
0.0
 11
2.272567848420571
 21
5.26215889626957
 31
0.0
  0
SOLID
  5
48FD
330
1E
100
AcDbEntity
  8
DIM
 62
     1
100
AcDbTrace
 10
2.247567848420572
 20
5.152080840096099
 30
0.0
 11
2.297567848420571
 21
5.152080840096099
 31
0.0
 12
2.272567848420571
 22
5.002080840096098
 32
0.0
 13
2.272567848420571
 23
5.002080840096098
 33
0.0
  0
LINE
  5
48FE
330
1E
100
AcDbEntity
  8
DIM
 62
     1
100
AcDbLine
 10
2.272567848420571
 20
5.642236952443042
 30
0.0
 11
2.272567848420571
 21
5.53215889626957
 31
0.0
  0
SOLID
  5
48FF
330
1E
100
AcDbEntity
  8
DIM
 62
     1
100
AcDbTrace
 10
2.247567848420572
 20
5.642236952443042
 30
0.0
 11
2.297567848420571
 21
5.642236952443042
 31
0.0
 12
2.272567848420571
 22
5.792236952443042
 32
0.0
 13
2.272567848420571
 23
5.792236952443042
 33
0.0
  0
SOLID
  5
4901
330
1E
100
AcDbEntity
  8
DIM
 62
     1
100
AcDbTrace
 10
3.019488491963519
 20
5.942236952443042
 30
0.0
 11
3.069488491963519
 21
5.942236952443042
 31
0.0
 12
3.04448849196352
 22
5.792236952443042
 32
0.0
 13
3.04448849196352
 23
5.792236952443042
 33
0.0
  0
MTEXT
  5
4902
330
1E
100
AcDbEntity
  8
DIM
 62
     7
100
AcDbMText
 10
3.043952628311528
 20
5.445144976770931
 30
0.0
 40
0.09
 41
0.0
 71
     5
 72
     1
  1
18.3\P[.720]
 73
     1
 44
1.0
1001
ACAD
1000
MTEXTBEGIN
1070
    73
1070
     1
1070
    44
1040
1.0
1070
    74
1070
     0
1000
MTEXTEND
  0
SOLID
  5
4903
330
1E
100
AcDbEntity
  8
DIM
 62
     1
100
AcDbTrace
 10
3.021990731931387
 20
5.231084393548511
 30
0.0
 11
3.071990731931387
 21
5.231084393548511
 31
0.0
 12
3.046990731931387
 22
5.08108439354851
 32
0.0
 13
3.046990731931387
 23
5.08108439354851
 33
0.0
  0
LINE
  5
4904
330
1E
100
AcDbEntity
  8
DIM
 62
     1
100
AcDbLine
 10
3.046990731931387
 20
5.285344301830594
 30
0.0
 11
3.046990731931387
 21
5.231084393548511
 31
0.0
  0
LINE
  5
4905
330
1E
100
AcDbEntity
  8
DIM
 62
     1
100
AcDbLine
 10
3.046990731931387
 20
5.642236952443041
 30
0.0
 11
3.046990731931387
 21
5.581739573692313
 31
0.0
  0
SOLID
  5
4906
330
1E
100
AcDbEntity
  8
DIM
 62
     1
100
AcDbTrace
 10
3.021990731931387
 20
5.642236952443041
 30
0.0
 11
3.071990731931387
 21
5.642236952443041
 31
0.0
 12
3.046990731931387
 22
5.792236952443041
 32
0.0
 13
3.046990731931387
 23
5.792236952443041
 33
0.0
  0
LINE
  5
4907
330
1E
100
AcDbEntity
  8
DIM
 62
     1
100
AcDbLine
 10
3.723827504851286
 20
5.444696114898809
 30
0.0
 11
3.723827504851286
 21
5.294696114898809
 31
0.0
  0
MTEXT
  5
4908
330
1E
100
AcDbEntity
  8
DIM
 62
     7
100
AcDbMText
 10
3.453827504851285
 20
5.29469611489881
 30
0.0
 40
0.09
 41
0.0
 71
     5
 72
     1
  1
5\P[.197]
 73
     1
 44
1.0
1001
ACAD
1000
MTEXTBEGIN
1070
    73
1070
     1
1070
    44
1040
1.0
1070
    74
1070
     0
1000
MTEXTEND
  0
LINE
  5
4909
330
1E
100
AcDbEntity
  8
DIM
 62
     1
100
AcDbLine
 10
3.723827504851286
 20
5.294696114898809
 30
0.0
 11
3.573827504851286
 21
5.294696114898809
 31
0.0
  0
SOLID
  5
490A
330
1E
100
AcDbEntity
  8
DIM
 62
     1
100
AcDbTrace
 10
3.698827504851286
 20
5.444696114898809
 30
0.0
 11
3.748827504851286
 21
5.444696114898809
 31
0.0
 12
3.723827504851286
 22
5.594696114898809
 32
0.0
 13
3.723827504851286
 23
5.594696114898809
 33
0.0
  0
MTEXT
  5
490B
330
1E
100
AcDbEntity
  8
DIM
 62
     7
100
AcDbMText
 10
3.044488491963519
 20
6.693227892677452
 30
0.0
 40
0.09
 41
0.0
 71
     5
 72
     1
  1
47.4%%P.8mm\P[1.866±.031]
 73
     1
 44
1.0
1001
ACAD
1000
MTEXTBEGIN
1070
    73
1070
     1
1070
    44
1040
1.0
1070
    74
1070
     0
1000
MTEXTEND
  0
LINE
  5
490C
330
1E
100
AcDbEntity
  8
DIM
 62
     1
100
AcDbLine
 10
3.04448849196352
 20
5.942236952443042
 30
0.0
 11
3.04448849196352
 21
6.523958866139947
 31
0.0
  0
MTEXT
  5
4912
330
1E
100
AcDbEntity
  8
DIM
 62
     7
100
AcDbMText
 10
2.350044066250168
 20
8.037128662912184
 30
0.0
 40
0.09
 41
0.0
 71
     5
 72
     1
  1
1.5mm\P[.059]
 73
     1
 44
1.0
1001
ACAD
1000
MTEXTBEGIN
1070
    73
1070
     1
1070
    44
1040
1.0
1070
    74
1070
     0
1000
MTEXTEND
  0
SOLID
  5
4915
330
1E
100
AcDbEntity
  8
DIM
 62
     1
100
AcDbTrace
 10
3.023380761233893
 20
7.901454898186766
 30
0.0
 11
3.073380761233893
 21
7.901454898186766
 31
0.0
 12
3.048380761233893
 22
7.751454898186765
 32
0.0
 13
3.048380761233893
 23
7.751454898186765
 33
0.0
  0
SOLID
  5
4917
330
1E
100
AcDbEntity
  8
DIM
 62
     1
100
AcDbTrace
 10
3.01948849196352
 20
7.527866954486157
 30
0.0
 11
3.069488491963519
 21
7.527866954486157
 31
0.0
 12
3.04448849196352
 22
7.677866954486157
 32
0.0
 13
3.04448849196352
 23
7.677866954486157
 33
0.0
  0
LINE
  5
4918
330
1E
100
AcDbEntity
  8
DIM
 62
     1
100
AcDbLine
 10
3.048380761233893
 20
7.571179271520843
 30
0.0
 11
3.048380761233893
 21
6.85638803499313
 31
0.0
  0
MTEXT
  5
4919
330
1E
100
AcDbEntity
  8
DIM
 62
     7
100
AcDbMText
 10
2.723869974710032
 20
8.048996543033364
 30
0.0
 40
0.09
 41
0.0
 71
     5
 72
     1
  1
MAX
 73
     1
 44
1.0
1001
ACAD
1000
MTEXTBEGIN
1070
    73
1070
     1
1070
    44
1040
1.0
1070
    74
1070
     0
1000
MTEXTEND
  0
LINE
  5
491A
330
1E
100
AcDbEntity
  8
DIM
 62
     1
100
AcDbLine
 10
3.048380761233893
 20
7.887128662912185
 30
0.0
 11
3.048380761233893
 21
8.037128662912184
 31
0.0
  0
LINE
  5
491B
330
1E
100
AcDbEntity
  8
DIM
 62
     1
100
AcDbLine
 10
2.898380761233893
 20
8.037128662912184
 30
0.0
 11
3.048380761233893
 21
8.037128662912184
 31
0.0
  0
LINE
  5
491E
330
1E
100
AcDbEntity
  8
DIM
 62
     1
100
AcDbLine
 10
6.566554070885622
 20
8.205069929688395
 30
0.0
 11
6.433977059433862
 21
8.205069929688395
 31
0.0
  0
LINE
  5
491F
330
1E
100
AcDbEntity
  8
DIM
 62
     1
100
AcDbLine
 10
6.012100315144991
 20
5.792236952443041
 30
0.0
 11
7.533021733588576
 21
5.79223695244304
 31
0.0
  0
LINE
  5
4920
330
1E
100
AcDbEntity
  8
DIM
 62
     1
100
AcDbLine
 10
6.295116793607895
 20
6.542882849196496
 30
0.0
 11
7.531917011856918
 21
6.542882849196495
 31
0.0
  0
LINE
  5
4921
330
1E
100
AcDbEntity
  8
OBJECT
 62
     7
100
AcDbLine
 10
6.323480945876889
 20
5.792236952443041
 30
0.0
 11
6.639543390815678
 21
5.792236952443041
 31
0.0
  0
LINE
  5
4922
330
1E
100
AcDbEntity
  8
OBJECT
 62
     7
100
AcDbLine
 10
6.323480945876889
 20
5.002080840096097
 30
0.0
 11
6.639543390815678
 21
5.002080840096097
 31
0.0
  0
LINE
  5
4923
330
1E
100
AcDbEntity
  8
CENTER
 62
     3
100
AcDbLine
 10
6.984287617352895
 20
5.397146838487289
 30
0.0
 11
6.089452938852147
 21
5.397146838487289
 31
0.0
  0
LINE
  5
4924
330
1E
100
AcDbEntity
  8
DIM
 62
     1
100
AcDbLine
 10
6.283977059433862
 20
6.230058695831695
 30
0.0
 11
6.283977059433862
 21
7.572742805885276
 31
0.0
  0
LINE
  5
4925
330
1E
100
AcDbEntity
  8
DIM
 62
     1
100
AcDbLine
 10
5.730867480531676
 20
6.059903813792386
 30
0.0
 11
5.730867480531676
 21
8.265487648975373
 31
0.0
  0
LINE
  5
4926
330
1E
100
AcDbEntity
  8
DIM
 62
     1
100
AcDbLine
 10
5.730867480531676
 20
6.059903813792386
 30
0.0
 11
5.730867480531676
 21
7.338623710399556
 31
0.0
  0
LINE
  5
4927
330
1E
100
AcDbEntity
  8
DIM
 62
     1
100
AcDbLine
 10
6.283977059433858
 20
6.230058695831695
 30
0.0
 11
6.283977059433858
 21
8.671868557318088
 31
0.0
  0
LINE
  5
4928
330
1E
100
AcDbEntity
  8
DIM
 62
     1
100
AcDbLine
 10
4.174259125347392
 20
6.230058695831695
 30
0.0
 11
4.174259125347392
 21
8.674801946701936
 31
0.0
  0
LINE
  5
4929
330
1E
100
AcDbEntity
  8
CENTER
 62
     3
100
AcDbLine
 10
4.810335791383388
 20
8.269101536403098
 30
0.0
 11
4.810335791383388
 21
6.329288046445904
 31
0.0
  0
LINE
  5
492C
330
1E
100
AcDbEntity
  8
DIM
 62
     1
100
AcDbLine
 10
5.670659390965909
 20
5.002080840096097
 30
0.0
 11
4.780572631010848
 21
5.002080840096097
 31
0.0
  0
LINE
  5
492D
330
1E
100
AcDbEntity
  8
OBJECT
 62
     7
100
AcDbLine
 10
6.264223156625188
 20
6.187312598640369
 30
0.0
 11
4.194013028156066
 21
6.187312598640369
 31
0.0
  0
LINE
  5
492E
330
1E
100
AcDbEntity
  8
OBJECT
 62
     7
100
AcDbLine
 10
6.09038995763522
 20
6.207066501449043
 30
0.0
 11
4.352046510471938
 21
6.207066501449043
 31
0.0
  0
LINE
  5
492F
330
1E
100
AcDbEntity
  8
OBJECT
 62
     7
100
AcDbLine
 10
6.09038995763522
 20
6.503375043579148
 30
0.0
 11
4.352046510471938
 21
6.503375043579148
 31
0.0
  0
LINE
  5
4930
330
1E
100
AcDbEntity
  8
OBJECT
 62
     7
100
AcDbLine
 10
4.225618790654714
 20
6.542882849196496
 30
0.0
 11
6.232616793607895
 21
6.542882849196496
 31
0.0
  0
LINE
  5
4931
330
1E
100
AcDbEntity
  8
OBJECT
 62
     7
100
AcDbLine
 10
4.205871971595589
 20
5.08108439354851
 30
0.0
 11
6.291882417257454
 21
5.08108439354851
 31
0.0
  0
LINE
  5
4932
330
1E
100
AcDbEntity
  8
OBJECT
 62
     7
100
AcDbLine
 10
4.174259125347392
 20
5.594696114898809
 30
0.0
 11
6.283977059433867
 21
5.594696114898809
 31
0.0
  0
CIRCLE
  5
4933
330
1E
100
AcDbEntity
  8
OBJECT
 62
     7
100
AcDbCircle
 10
4.727368403990258
 20
5.792235142985543
 30
0.0
 40
0.1580312224693895
  0
CIRCLE
  5
4934
330
1E
100
AcDbEntity
  8
OBJECT
 62
     7
100
AcDbCircle
 10
4.727368403990258
 20
5.792235142985543
 30
0.0
 40
0.1027202906543226
  0
CIRCLE
  5
4935
330
1E
100
AcDbEntity
  8
OBJECT
 62
     7
100
AcDbCircle
 10
4.727368403990258
 20
5.792236952443041
 30
0.0
 40
0.1027202906543226
  0
CIRCLE
  5
4936
330
1E
100
AcDbEntity
  8
OBJECT
 62
     7
100
AcDbCircle
 10
4.727368403990258
 20
5.792235142985543
 30
0.0
 40
0.0849417860280775
  0
LINE
  5
4937
330
1E
100
AcDbEntity
  8
CENTER
 62
     3
100
AcDbLine
 10
4.727368403990258
 20
5.607909926199494
 30
0.0
 11
4.727368403990258
 21
5.997403813792383
 31
0.0
  0
LINE
  5
4938
330
1E
100
AcDbEntity
  8
OBJECT
 62
     7
100
AcDbLine
 10
4.97429203896902
 20
6.187312598640369
 30
0.0
 11
4.965063742520431
 21
5.633542303049385
 31
0.0
  0
LINE
  5
4939
330
1E
100
AcDbEntity
  8
OBJECT
 62
     7
100
AcDbLine
 10
4.14660558939617
 20
5.721123384327041
 30
0.0
 11
4.14660558939617
 21
6.041133836379602
 31
0.0
  0
LINE
  5
493A
330
1E
100
AcDbEntity
  8
OBJECT
 62
     7
100
AcDbLine
 10
4.174259125347392
 20
5.594696114898809
 30
0.0
 11
4.174259125347392
 21
6.167558695831695
 31
0.0
  0
LINE
  5
493B
330
1E
100
AcDbEntity
  8
OBJECT
 62
     7
100
AcDbLine
 10
4.480444618881839
 20
6.187312598640369
 30
0.0
 11
4.489672761249988
 21
5.633542303049385
 31
0.0
  0
LINE
  5
493C
330
1E
100
AcDbEntity
  8
OBJECT
 62
     7
100
AcDbLine
 10
4.146610263169571
 20
5.140346101974538
 30
0.0
 11
4.146610263169571
 21
5.977913268045597
 31
0.0
  0
LINE
  5
493D
330
1E
100
AcDbEntity
  8
DIM
 62
     1
100
AcDbLine
 10
4.664675921538041
 20
5.002080840096097
 30
0.0
 11
4.191817367691577
 21
5.002080840096097
 31
0.0
  0
LINE
  5
493E
330
1E
100
AcDbEntity
  8
CENTER
 62
     3
100
AcDbLine
 10
4.524853283329253
 20
5.792236952443041
 30
0.0
 11
4.928099720145461
 21
5.792236952443041
 31
0.0
  0
ARC
  5
493F
330
1E
100
AcDbEntity
  8
OBJECT
 62
     7
100
AcDbCircle
 10
4.205871971595589
 20
5.140346101974538
 30
0.0
 40
0.0592617084260211
100
AcDbArc
 50
180.0
 51
270.0
  0
LINE
  5
4940
330
1E
100
AcDbEntity
  8
OBJECT
 62
     7
100
AcDbLine
 10
4.14660558939617
 20
5.719138832186049
 30
0.0
 11
4.174259125347392
 21
5.719138832186049
 31
0.0
  0
ARC
  5
4941
330
1E
100
AcDbEntity
  8
OBJECT
 62
     7
100
AcDbCircle
 10
4.529175897044704
 20
5.634203920516153
 30
0.0
 40
0.0395078056173474
100
AcDbArc
 50
180.9548035
 51
270.0
  0
ARC
  5
4942
330
1E
100
AcDbEntity
  8
OBJECT
 62
     7
100
AcDbCircle
 10
4.925560760806146
 20
5.634203920516153
 30
0.0
 40
0.0395078056173474
100
AcDbArc
 50
270.0
 51
359.0451965
  0
LINE
  5
4944
330
1E
100
AcDbEntity
  8
OBJECT
 62
     7
100
AcDbLine
 10
4.194013028156066
 20
6.187312598640369
 30
0.0
 11
4.194013028156066
 21
6.511272867264211
 31
0.0
  0
LINE
  5
4945
330
1E
100
AcDbEntity
  8
OBJECT
 62
     7
100
AcDbLine
 10
4.312538704854588
 20
6.187300841117419
 30
0.0
 11
4.312536445008112
 21
6.542871091673547
 31
0.0
  0
LINE
  5
4946
330
1E
100
AcDbEntity
  8
OBJECT
 62
     7
100
AcDbLine
 10
4.332297431566331
 20
6.226820404257712
 30
0.0
 11
4.332292607663263
 21
6.483621140770479
 31
0.0
  0
LINE
  5
4947
330
1E
100
AcDbEntity
  8
OBJECT
 62
     7
100
AcDbLine
 10
4.14660558939617
 20
6.041133836379602
 30
0.0
 11
4.174259125347392
 21
6.041133836379602
 31
0.0
  0
ARC
  5
4948
330
1E
100
AcDbEntity
  8
OBJECT
 62
     7
100
AcDbCircle
 10
4.194013028156066
 20
6.167558695831695
 30
0.0
 40
0.0197539028086737
100
AcDbArc
 50
90.0
 51
180.0
  0
ARC
  5
4949
330
1E
100
AcDbEntity
  8
OBJECT
 62
     7
100
AcDbCircle
 10
4.352051334375005
 20
6.226820404257712
 30
0.0
 40
0.0197539028086737
100
AcDbArc
 50
180.0009003000001
 51
270.0
  0
ARC
  5
494A
330
1E
100
AcDbEntity
  8
OBJECT
 62
     7
100
AcDbCircle
 10
4.225618790654714
 20
6.511272867264211
 30
0.0
 40
0.0316062444938779
100
AcDbArc
 50
90.0
 51
180.0
  0
ARC
  5
494B
330
1E
100
AcDbEntity
  8
OBJECT
 62
     7
100
AcDbCircle
 10
4.352046510471938
 20
6.483621140770479
 30
0.0
 40
0.0197539028086737
100
AcDbArc
 50
90.0
 51
180.0009003000001
  0
LINE
  5
494F
330
1E
100
AcDbEntity
  8
OBJECT
 62
     7
100
AcDbLine
 10
6.311636320066123
 20
5.977913268045597
 30
0.0
 11
6.311636320066123
 21
5.693455380617399
 31
0.0
  0
LINE
  5
4950
330
1E
100
AcDbEntity
  8
OBJECT
 62
     7
100
AcDbLine
 10
6.283977059433858
 20
5.594696114898809
 30
0.0
 11
6.283977059433858
 21
6.167558695831695
 31
0.0
  0
LINE
  5
4951
330
1E
100
AcDbEntity
  8
OBJECT
 62
     7
100
AcDbLine
 10
6.311632404842589
 20
5.100833472454117
 30
0.0
 11
6.311632404842589
 21
6.041133836379602
 31
0.0
  0
CIRCLE
  5
4952
330
1E
100
AcDbEntity
  8
OBJECT
 62
     7
100
AcDbCircle
 10
5.730867480531676
 20
5.792235142985543
 30
0.0
 40
0.0849417860280775
  0
CIRCLE
  5
4953
330
1E
100
AcDbEntity
  8
OBJECT
 62
     7
100
AcDbCircle
 10
5.730867480531676
 20
5.792235142985543
 30
0.0
 40
0.1027202906543226
  0
CIRCLE
  5
4954
330
1E
100
AcDbEntity
  8
OBJECT
 62
     7
100
AcDbCircle
 10
5.730867480531676
 20
5.792236952443041
 30
0.0
 40
0.1027202906543226
  0
LINE
  5
4955
330
1E
100
AcDbEntity
  8
CENTER
 62
     3
100
AcDbLine
 10
5.730867480531676
 20
5.607909926199494
 30
0.0
 11
5.730867480531676
 21
5.997403813792386
 31
0.0
  0
CIRCLE
  5
4956
330
1E
100
AcDbEntity
  8
OBJECT
 62
     7
100
AcDbCircle
 10
5.730867480531676
 20
5.792235142985543
 30
0.0
 40
0.1580312224693895
  0
LINE
  5
4957
330
1E
100
AcDbEntity
  8
OBJECT
 62
     7
100
AcDbLine
 10
5.493171687661742
 20
5.633542303049385
 30
0.0
 11
5.483943695423257
 21
6.187312598640369
 31
0.0
  0
LINE
  5
4958
330
1E
100
AcDbEntity
  8
OBJECT
 62
     7
100
AcDbLine
 10
5.977791265640096
 20
6.187312598640369
 30
0.0
 11
5.968560559215367
 21
5.633479908371969
 31
0.0
  0
SOLID
  5
4959
330
1E
100
AcDbEntity
  8
DIM
100
AcDbTrace
 10
5.846356112406325
 20
5.560321311805419
 30
0.0
 11
5.779568041199382
 21
5.696938856595451
 31
0.0
 12
5.887054339300014
 22
5.589367040023349
 32
0.0
 13
5.887054339300014
 23
5.589367040023349
 33
0.0
1001
ACAD
1000
DSTYLE
1002
{
1070
   147
1040
0.09
1070
    77
1070
     0
1002
}
  0
LINE
  5
495A
330
1E
100
AcDbEntity
  8
DIM
 62
     1
100
AcDbLine
 10
6.260980945876889
 20
5.002080840096097
 30
0.0
 11
5.819007158288506
 21
5.002080840096097
 31
0.0
  0
LINE
  5
495B
330
1E
100
AcDbEntity
  8
CENTER
 62
     3
100
AcDbLine
 10
5.523852030790179
 20
5.792236952443041
 30
0.0
 11
5.949600315144991
 21
5.792236952443041
 31
0.0
  0
ARC
  5
495C
330
1E
100
AcDbEntity
  8
OBJECT
 62
     7
100
AcDbCircle
 10
5.532674973586127
 20
5.634203920516153
 30
0.0
 40
0.0395078056173474
100
AcDbArc
 50
180.9548035
 51
270.0
  0
LINE
  5
495D
330
1E
100
AcDbEntity
  8
OBJECT
 62
     7
100
AcDbLine
 10
6.323480945876889
 20
5.002080840096097
 30
0.0
 11
6.323480945876889
 21
5.792236952443041
 31
0.0
  0
ARC
  5
495E
330
1E
100
AcDbEntity
  8
OBJECT
 62
     7
100
AcDbCircle
 10
6.291882417257454
 20
5.100838296357184
 30
0.0
 40
0.0197539028086737
100
AcDbArc
 50
270.0
 51
0.0
  0
LINE
  5
495F
330
1E
100
AcDbEntity
  8
OBJECT
 62
     7
100
AcDbLine
 10
6.323480945876889
 20
5.112683526637379
 30
0.0
 11
6.311636320066123
 21
5.100838296357184
 31
0.0
  0
ARC
  5
4960
330
1E
100
AcDbEntity
  8
OBJECT
 62
     7
100
AcDbCircle
 10
5.929059987477225
 20
5.634203920516153
 30
0.0
 40
0.0395078056173474
100
AcDbArc
 50
270.0
 51
359.0451049999998
  0
LINE
  5
4961
330
1E
100
AcDbEntity
  8
OBJECT
 62
     7
100
AcDbLine
 10
6.311636320066123
 20
5.693455380617399
 30
0.0
 11
6.323480945876889
 21
5.681613168733552
 31
0.0
  0
LINE
  5
4962
330
1E
100
AcDbEntity
  8
OBJECT
 62
     7
100
AcDbLine
 10
6.283977059433858
 20
5.719138832186049
 30
0.0
 11
6.311632404842589
 21
5.719138832186049
 31
0.0
  0
LINE
  5
4963
330
1E
100
AcDbEntity
  8
OBJECT
 62
     7
100
AcDbLine
 10
6.145699439513828
 20
6.187312598640369
 30
0.0
 11
6.145699439513828
 21
6.542882849196496
 31
0.0
  0
LINE
  5
4964
330
1E
100
AcDbEntity
  8
OBJECT
 62
     7
100
AcDbLine
 10
6.110148684346967
 20
6.226820404257712
 30
0.0
 11
6.1101438604439
 21
6.483621140770479
 31
0.0
  0
LINE
  5
4965
330
1E
100
AcDbEntity
  8
OBJECT
 62
     7
100
AcDbLine
 10
6.264223156625188
 20
6.187312598640369
 30
0.0
 11
6.264223156625188
 21
6.511272867264211
 31
0.0
  0
ARC
  5
4966
330
1E
100
AcDbEntity
  8
OBJECT
 62
     7
100
AcDbCircle
 10
6.090394781538288
 20
6.226820404257712
 30
0.0
 40
0.0197539028086737
100
AcDbArc
 50
270.0
 51
0.0008743000000737
  0
LINE
  5
4967
330
1E
100
AcDbEntity
  8
OBJECT
 62
     7
100
AcDbLine
 10
6.283977059433858
 20
6.041133836379602
 30
0.0
 11
6.311632404842589
 21
6.041133836379602
 31
0.0
  0
ARC
  5
4968
330
1E
100
AcDbEntity
  8
OBJECT
 62
     7
100
AcDbCircle
 10
6.264223156625188
 20
6.167558695831695
 30
0.0
 40
0.0197539028086737
100
AcDbArc
 50
0.0
 51
90.0
  0
ARC
  5
4969
330
1E
100
AcDbEntity
  8
OBJECT
 62
     7
100
AcDbCircle
 10
6.09038995763522
 20
6.483621140770479
 30
0.0
 40
0.0197539028086737
100
AcDbArc
 50
0.0008743000000737
 51
90.0
  0
ARC
  5
496A
330
1E
100
AcDbEntity
  8
OBJECT
 62
     7
100
AcDbCircle
 10
6.232616793607895
 20
6.511272867264211
 30
0.0
 40
0.0316062444938779
100
AcDbArc
 50
0.0
 51
90.0
  0
MTEXT
  5
496B
330
1E
100
AcDbEntity
  8
DIM
 62
     7
100
AcDbMText
 10
5.29459051422202
 20
8.205069954044915
 30
0.0
 40
0.09
 41
0.0
 71
     5
 72
     1
  1
23.3\P[.917]
 73
     1
 44
1.0
1001
ACAD
1000
MTEXTBEGIN
1070
    73
1070
     1
1070
    44
1040
1.0
1070
    74
1070
     0
1000
MTEXTEND
  0
MTEXT
  5
496C
330
1E
100
AcDbEntity
  8
DIM
 62
     7
100
AcDbMText
 10
5.229118092390625
 20
8.612301971058453
 30
0.0
 40
0.09
 41
0.0
 71
     5
 72
     1
  1
53.4\P[2.102]
 73
     1
 44
1.0
1001
ACAD
1000
MTEXTBEGIN
1070
    73
1070
     1
1070
    44
1040
1.0
1070
    74
1070
     0
1000
MTEXTEND
  0
LINE
  5
496E
330
1E
100
AcDbEntity
  8
DIM
 62
     1
100
AcDbLine
 10
4.709352050970559
 20
7.74536684066734
 30
0.0
 11
4.216092486202569
 21
7.74536684066734
 31
0.0
  0
LINE
  5
496F
330
1E
100
AcDbEntity
  8
DIM
 62
     1
100
AcDbLine
 10
4.709352050970559
 20
7.686105132241313
 30
0.0
 11
4.216092486202569
 21
7.686105132241314
 31
0.0
  0
SOLID
  5
497B
330
1E
100
AcDbEntity
  8
DIM
 62
     1
100
AcDbTrace
 10
4.960335791383388
 20
8.230069954044916
 30
0.0
 11
4.960335791383388
 21
8.180069954044915
 31
0.0
 12
4.810335791383388
 22
8.205069954044915
 32
0.0
 13
4.810335791383388
 23
8.205069954044915
 33
0.0
  0
LINE
  5
497C
330
1E
100
AcDbEntity
  8
DIM
 62
     1
100
AcDbLine
 10
4.960335791383388
 20
8.205069954044915
 30
0.0
 11
5.092128186335614
 21
8.205069954044915
 31
0.0
  0
LINE
  5
497D
330
1E
100
AcDbEntity
  8
DIM
 62
     1
100
AcDbLine
 10
4.324259125347392
 20
8.612301971058453
 30
0.0
 11
5.004118092390625
 21
8.612301971058453
 31
0.0
  0
SOLID
  5
497E
330
1E
100
AcDbEntity
  8
DIM
 62
     1
100
AcDbTrace
 10
4.324259125347392
 20
8.637301971058453
 30
0.0
 11
4.324259125347392
 21
8.587301971058453
 31
0.0
 12
4.174259125347392
 22
8.612301971058453
 32
0.0
 13
4.174259125347392
 23
8.612301971058453
 33
0.0
  0
MTEXT
  5
497F
330
1E
100
AcDbEntity
  8
DIM
 62
     7
100
AcDbMText
 10
6.013765280031534
 20
8.205069929688395
 30
0.0
 40
0.09
 41
0.0
 71
     5
 72
     1
  1
14\P[.551]
 73
     1
 44
1.0
1001
ACAD
1000
MTEXTBEGIN
1070
    73
1070
     1
1070
    44
1040
1.0
1070
    74
1070
     0
1000
MTEXTEND
  0
LINE
  5
4980
330
1E
100
AcDbEntity
  8
DIM
 62
     1
100
AcDbLine
 10
5.495448766504878
 20
8.205069954044915
 30
0.0
 11
5.580867480531676
 21
8.205069954044915
 31
0.0
  0
SOLID
  5
4981
330
1E
100
AcDbEntity
  8
DIM
 62
     1
100
AcDbTrace
 10
5.580867480531676
 20
8.230069954044916
 30
0.0
 11
5.580867480531676
 21
8.180069954044915
 31
0.0
 12
5.730867480531676
 22
8.205069954044915
 32
0.0
 13
5.730867480531676
 23
8.205069954044915
 33
0.0
  0
SOLID
  5
4982
330
1E
100
AcDbEntity
  8
DIM
 62
     1
100
AcDbTrace
 10
6.433977059433862
 20
8.230069929688395
 30
0.0
 11
6.433977059433862
 21
8.180069929688395
 31
0.0
 12
6.283977059433862
 22
8.205069929688395
 32
0.0
 13
6.283977059433862
 23
8.205069929688395
 33
0.0
  0
LINE
  5
4983
330
1E
100
AcDbEntity
  8
DIM
 62
     1
100
AcDbLine
 10
6.133977059433858
 20
8.612301971058453
 30
0.0
 11
5.454118092390625
 21
8.612301971058453
 31
0.0
  0
SOLID
  5
4984
330
1E
100
AcDbEntity
  8
DIM
 62
     1
100
AcDbTrace
 10
6.133977059433858
 20
8.637301971058453
 30
0.0
 11
6.133977059433858
 21
8.587301971058453
 31
0.0
 12
6.283977059433858
 22
8.612301971058453
 32
0.0
 13
6.283977059433858
 23
8.612301971058453
 33
0.0
  0
SOLID
  5
4985
330
1E
100
AcDbEntity
  8
DIM
 62
     1
100
AcDbTrace
 10
7.445521733588575
 20
5.942236952443041
 30
0.0
 11
7.495521733588576
 21
5.942236952443041
 31
0.0
 12
7.470521733588576
 22
5.79223695244304
 32
0.0
 13
7.470521733588576
 23
5.79223695244304
 33
0.0
  0
SOLID
  5
4986
330
1E
100
AcDbEntity
  8
DIM
 62
     1
100
AcDbTrace
 10
7.445521733588575
 20
5.942236952443041
 30
0.0
 11
7.495521733588576
 21
5.942236952443041
 31
0.0
 12
7.470521733588576
 22
5.79223695244304
 32
0.0
 13
7.470521733588576
 23
5.79223695244304
 33
0.0
  0
LINE
  5
4987
330
1E
100
AcDbEntity
  8
DIM
 62
     1
100
AcDbLine
 10
7.018972365474223
 20
5.397146838487289
 30
0.0
 11
7.533021733588575
 21
5.397146838487289
 31
0.0
  0
LINE
  5
4988
330
1E
100
AcDbEntity
  8
OBJECT
 62
     7
100
AcDbLine
 10
6.679051196433017
 20
5.752729146825697
 30
0.0
 11
6.679051196433017
 21
5.04158864571344
 31
0.0
  0
LINE
  5
4989
330
1E
100
AcDbEntity
  8
OBJECT
 62
     7
100
AcDbLine
 10
6.916098030137105
 20
5.179865965374151
 30
0.0
 11
6.916098030137105
 21
5.614451827164977
 31
0.0
  0
LINE
  5
498A
330
1E
100
AcDbEntity
  8
OBJECT
 62
     7
100
AcDbLine
 10
6.679051196433017
 20
5.160112062565477
 30
0.0
 11
6.896344127328424
 21
5.160112062565477
 31
0.0
  0
ARC
  5
498B
330
1E
100
AcDbEntity
  8
OBJECT
 62
     7
100
AcDbCircle
 10
6.639543390815678
 20
5.04158864571344
 30
0.0
 40
0.0395078056173474
100
AcDbArc
 50
270.0
 51
0.0
  0
ARC
  5
498C
330
1E
100
AcDbEntity
  8
OBJECT
 62
     7
100
AcDbCircle
 10
6.896344127328424
 20
5.179865965374151
 30
0.0
 40
0.0197539028086737
100
AcDbArc
 50
270.0
 51
0.0
  0
LINE
  5
498D
330
1E
100
AcDbEntity
  8
DIM
 62
     1
100
AcDbLine
 10
6.702043390815678
 20
5.79223695244304
 30
0.0
 11
7.199239231109487
 21
5.79223695244304
 31
0.0
  0
LINE
  5
498E
330
1E
100
AcDbEntity
  8
OBJECT
 62
     7
100
AcDbLine
 10
6.679051196433017
 20
5.634205729973651
 30
0.0
 11
6.896344127328424
 21
5.634205729973651
 31
0.0
  0
ARC
  5
498F
330
1E
100
AcDbEntity
  8
OBJECT
 62
     7
100
AcDbCircle
 10
6.639543390815678
 20
5.752729146825697
 30
0.0
 40
0.0395078056173474
100
AcDbArc
 50
0.0
 51
90.0
  0
ARC
  5
4990
330
1E
100
AcDbEntity
  8
OBJECT
 62
     7
100
AcDbCircle
 10
6.896344127328424
 20
5.614451827164977
 30
0.0
 40
0.0197539028086737
100
AcDbArc
 50
0.0
 51
90.0
  0
LINE
  5
4991
330
1E
100
AcDbEntity
  8
DIM
 62
     1
100
AcDbLine
 10
7.470521733588575
 20
5.247146838487289
 30
0.0
 11
7.470521733588575
 21
5.097146838487289
 31
0.0
  0
SOLID
  5
4992
330
1E
100
AcDbEntity
  8
DIM
 62
     1
100
AcDbTrace
 10
7.445521733588575
 20
5.247146838487289
 30
0.0
 11
7.495521733588575
 21
5.247146838487289
 31
0.0
 12
7.470521733588575
 22
5.397146838487289
 32
0.0
 13
7.470521733588575
 23
5.397146838487289
 33
0.0
  0
MTEXT
  5
4993
330
1E
100
AcDbEntity
  8
DIM
 62
     7
100
AcDbMText
 10
7.470521733588574
 20
5.594691895465166
 30
0.0
 40
0.09
 41
0.0
 71
     5
 72
     1
  1
10\P[.394]
 73
     1
 44
1.0
1001
ACAD
1000
MTEXTBEGIN
1070
    73
1070
     1
1070
    44
1040
1.0
1070
    74
1070
     0
1000
MTEXTEND
  0
MTEXT
  5
4994
330
1E
100
AcDbEntity
  8
DIM
 62
     7
100
AcDbMText
 10
7.470521733588574
 20
6.167559900819769
 30
0.0
 40
0.09
 41
0.0
 71
     5
 72
     1
  1
19\P[.748]
 73
     1
 44
1.0
1001
ACAD
1000
MTEXTBEGIN
1070
    73
1070
     1
1070
    44
1040
1.0
1070
    74
1070
     0
1000
MTEXTEND
  0
LINE
  5
4995
330
1E
100
AcDbEntity
  8
DIM
 62
     1
100
AcDbLine
 10
7.470521733588576
 20
5.942236952443041
 30
0.0
 11
7.470521733588576
 21
6.018138128002958
 31
0.0
  0
LINE
  5
4996
330
1E
100
AcDbEntity
  8
DIM
 62
     1
100
AcDbLine
 10
7.470521733588576
 20
5.942236952443041
 30
0.0
 11
7.470521733588576
 21
6.032559900819768
 31
0.0
  0
SOLID
  5
4997
330
1E
100
AcDbEntity
  8
DIM
 62
     1
100
AcDbTrace
 10
7.445521733588575
 20
6.392882849196495
 30
0.0
 11
7.495521733588576
 21
6.392882849196495
 31
0.0
 12
7.470521733588576
 22
6.542882849196495
 32
0.0
 13
7.470521733588576
 23
6.542882849196495
 33
0.0
  0
LINE
  5
4998
330
1E
100
AcDbEntity
  8
DIM
 62
     1
100
AcDbLine
 10
7.470521733588576
 20
6.392882849196495
 30
0.0
 11
7.470521733588576
 21
6.327376303024793
 31
0.0
  0
MTEXT
  5
4999
330
1E
100
AcDbEntity
  8
DIM
 62
     7
100
AcDbMText
 10
12.73189626210238
 20
5.071886658503387
 30
0.0
 40
0.09
 41
0.0
 71
     5
 72
     1
  1
11\P[.433]
 73
     1
 44
1.0
1001
ACAD
1000
MTEXTBEGIN
1070
    73
1070
     1
1070
    44
1040
1.0
1070
    74
1070
     0
1000
MTEXTEND
  0
MTEXT
  5
499A
330
1E
100
AcDbEntity
  8
DIM
 62
     7
100
AcDbMText
 10
11.85750281130278
 20
5.06610580584147
 30
0.0
 40
0.09
 41
0.0
 71
     5
 72
     1
  1
INTERNAL \PCABLE OPENING 
 73
     1
 44
1.0
1001
ACAD
1000
MTEXTBEGIN
1070
    73
1070
     1
1070
    44
1040
1.0
1070
    74
1070
     0
1000
MTEXTEND
  0
LEADER
  5
499B
330
1E
100
AcDbEntity
  8
DIM
100
AcDbLeader
  3
Standard
 76
     3
 10
10.77339424065913
 20
5.049026403542033
 30
0.0
 10
11.10935113423138
 20
4.698817490187565
 30
0.0
 10
11.24568145127313
 20
4.698817490187565
 30
0.0
1001
ACAD
1000
DSTYLE
1002
{
1070
   147
1040
0.09
1070
    77
1070
     0
1002
}
  0
LINE
  5
499C
330
1E
100
AcDbEntity
  8
DIM
 62
     1
100
AcDbLine
 10
10.05210456225877
 20
5.137119868182826
 30
0.0
 11
10.05210456225877
 21
4.636317490187565
 31
0.0
  0
LINE
  5
499D
330
1E
100
AcDbEntity
  8
DIM
 62
     1
100
AcDbLine
 10
10.01852268648641
 20
5.532196114898809
 30
0.0
 11
10.01852268648641
 21
4.266652537601672
 31
0.0
  0
ARC
  5
499E
330
1E
100
AcDbEntity
  8
OBJECT
 62
     7
100
AcDbCircle
 10
10.24964359034551
 20
5.199619868182826
 30
0.0
 40
0.1975390280867369
100
AcDbArc
 50
180.0
 51
270.0
  0
LINE
  5
499F
330
1E
100
AcDbEntity
  8
CENTER
 62
     3
100
AcDbLine
 10
10.44718261843224
 20
7.805187806033467
 30
0.0
 11
10.44718261843224
 21
4.94046322591018
 31
0.0
  0
ARC
  5
49A0
330
1E
100
AcDbEntity
  8
OBJECT
 62
     7
100
AcDbCircle
 10
10.64472164651898
 20
5.199619868182826
 30
0.0
 40
0.1975390280867369
100
AcDbArc
 50
270.0
 51
0.0
  0
MTEXT
  5
49A1
330
1E
100
AcDbEntity
  8
DIM
 62
     7
100
AcDbMText
 10
11.78901032397206
 20
4.616467889392225
 30
0.0
 40
0.09
 41
0.0
 71
     5
 72
     1
  1
SEAL RUBBER\P(NBR)
 73
     1
 44
1.0
1001
ACAD
1000
MTEXTBEGIN
1070
    73
1070
     1
1070
    44
1040
1.0
1070
    74
1070
     0
1000
MTEXTEND
  0
MTEXT
  5
49A2
330
1E
100
AcDbEntity
  8
DIM
 62
     7
100
AcDbMText
 10
10.44718261843224
 20
4.698817490187565
 30
0.0
 40
0.09
 41
0.0
 71
     5
 72
     1
  1
21\P[.827]
 73
     1
 44
1.0
1001
ACAD
1000
MTEXTBEGIN
1070
    73
1070
     1
1070
    44
1040
1.0
1070
    74
1070
     0
1000
MTEXTEND
  0
MTEXT
  5
49A3
330
1E
100
AcDbEntity
  8
DIM
 62
     7
100
AcDbMText
 10
10.4665493460182
 20
4.329152537601672
 30
0.0
 40
0.09
 41
0.0
 71
     5
 72
     1
  1
21.7\P[.854]
 73
     1
 44
1.0
1001
ACAD
1000
MTEXTBEGIN
1070
    73
1070
     1
1070
    44
1040
1.0
1070
    74
1070
     0
1000
MTEXTEND
  0
LINE
  5
49A4
330
1E
100
AcDbEntity
  8
DIM
 62
     1
100
AcDbLine
 10
10.16852268648641
 20
4.329152537601672
 30
0.0
 11
10.26003412926331
 21
4.329152537601672
 31
0.0
  0
SOLID
  5
49A5
330
1E
100
AcDbEntity
  8
DIM
 62
     1
100
AcDbTrace
 10
10.16852268648641
 20
4.354152537601672
 30
0.0
 11
10.16852268648641
 21
4.304152537601671
 31
0.0
 12
10.01852268648641
 22
4.329152537601672
 32
0.0
 13
10.01852268648641
 23
4.329152537601672
 33
0.0
  0
SOLID
  5
49A6
330
1E
100
AcDbEntity
  8
DIM
 62
     1
100
AcDbTrace
 10
10.20210456225877
 20
4.723817490187565
 30
0.0
 11
10.20210456225877
 21
4.673817490187564
 31
0.0
 12
10.05210456225877
 22
4.698817490187565
 32
0.0
 13
10.05210456225877
 23
4.698817490187565
 33
0.0
  0
LINE
  5
49A7
330
1E
100
AcDbEntity
  8
DIM
 62
     1
100
AcDbLine
 10
10.20210456225877
 20
4.698817490187565
 30
0.0
 11
10.29718261843225
 21
4.698817490187565
 31
0.0
  0
LINE
  5
49A8
330
1E
100
AcDbEntity
  8
DIM
 62
     1
100
AcDbLine
 10
10.87584194590866
 20
4.859329898017278
 30
0.0
 11
10.87584194590866
 21
4.266652537601672
 31
0.0
  0
SOLID
  5
49A9
330
1E
100
AcDbEntity
  8
DIM
 62
     1
100
AcDbTrace
 10
10.72584194590866
 20
4.354152537601672
 30
0.0
 11
10.72584194590866
 21
4.304152537601671
 31
0.0
 12
10.87584194590866
 22
4.329152537601672
 32
0.0
 13
10.87584194590866
 23
4.329152537601672
 33
0.0
  0
LINE
  5
49AA
330
1E
100
AcDbEntity
  8
DIM
 62
     1
100
AcDbLine
 10
10.65928723031784
 20
4.329152537601672
 30
0.0
 11
10.72584194590866
 21
4.329152537601672
 31
0.0
  0
LINE
  5
49AB
330
1E
100
AcDbEntity
  8
DIM
 62
     1
100
AcDbLine
 10
10.84226067460572
 20
4.883649979429812
 30
0.0
 11
10.84226067460572
 21
4.636317490187565
 31
0.0
  0
LINE
  5
49AC
330
1E
100
AcDbEntity
  8
DIM
 62
     1
100
AcDbLine
 10
10.69226067460572
 20
4.698817490187565
 30
0.0
 11
10.59718261843225
 21
4.698817490187565
 31
0.0
  0
SOLID
  5
49AD
330
1E
100
AcDbEntity
  8
DIM
 62
     1
100
AcDbTrace
 10
10.69226067460572
 20
4.723817490187565
 30
0.0
 11
10.69226067460572
 21
4.673817490187564
 31
0.0
 12
10.84226067460572
 22
4.698817490187565
 32
0.0
 13
10.84226067460572
 23
4.698817490187565
 33
0.0
  0
LINE
  5
49B0
330
1E
100
AcDbEntity
  8
OBJECT
 62
     7
100
AcDbLine
 10
10.28915139596286
 20
5.997667170854276
 30
0.0
 11
10.60521384090163
 21
5.997667170854276
 31
0.0
  0
LINE
  5
49B1
330
1E
100
AcDbEntity
  8
OBJECT
 62
     7
100
AcDbLine
 10
10.10148931928046
 20
6.049035278979657
 30
0.0
 11
10.79287591758404
 21
6.049035278979657
 31
0.0
  0
LINE
  5
49B2
330
1E
100
AcDbEntity
  8
OBJECT
 62
     7
100
AcDbLine
 10
10.24964359034551
 20
5.792236952443041
 30
0.0
 11
10.64472164651898
 21
5.792236952443041
 31
0.0
  0
CIRCLE
  5
49B3
330
1E
100
AcDbEntity
  8
OBJECT
 62
     7
100
AcDbCircle
 10
10.44718261843224
 20
5.397146838487289
 30
0.0
 40
0.1185234168520421
  0
LINE
  5
49B4
330
1E
100
AcDbEntity
  8
OBJECT
 62
     7
100
AcDbLine
 10
10.24964359034551
 20
5.002080840096097
 30
0.0
 11
10.64472164651898
 21
5.002080840096097
 31
0.0
  0
CIRCLE
  5
49B5
330
1E
100
AcDbEntity
  8
OBJECT
 62
     7
100
AcDbCircle
 10
10.44718261843224
 20
5.397146838487289
 30
0.0
 40
0.2963085421301054
  0
CIRCLE
  5
49B6
330
1E
100
AcDbEntity
  8
OBJECT
 62
     7
100
AcDbCircle
 10
10.44718261843224
 20
5.397146838487289
 30
0.0
 40
0.2370468337040843
  0
LINE
  5
49B7
330
1E
100
AcDbEntity
  8
CENTER
 62
     3
100
AcDbLine
 10
9.886001899052542
 20
5.397146838487289
 30
0.0
 11
11.02191822492166
 21
5.397146838487289
 31
0.0
  0
LINE
  5
49B8
330
1E
100
AcDbEntity
  8
OBJECT
 62
     7
100
AcDbLine
 10
10.8620145774144
 20
6.187312598640369
 30
0.0
 11
10.0323506594501
 21
6.187312598640369
 31
0.0
  0
LINE
  5
49BA
330
1E
100
AcDbEntity
  8
OBJECT
 62
     7
100
AcDbLine
 10
10.06395642194875
 20
6.542882849196496
 30
0.0
 11
10.83040821044632
 21
6.542882849196496
 31
0.0
  0
LINE
  5
49BB
330
1E
100
AcDbEntity
  8
OBJECT
 62
     7
100
AcDbLine
 10
10.22988968753685
 20
6.041133836379602
 30
0.0
 11
10.22988968753685
 21
5.79124587938522
 31
0.0
  0
LINE
  5
49BC
330
1E
100
AcDbEntity
  8
OBJECT
 62
     7
100
AcDbLine
 10
10.10148931928046
 20
6.049035278979657
 30
0.0
 11
10.10148931928046
 21
5.725357740065158
 31
0.0
  0
LINE
  5
49BD
330
1E
100
AcDbEntity
  8
OBJECT
 62
     7
100
AcDbLine
 10
10.28915139596286
 20
5.88506998805732
 30
0.0
 11
10.28915139596286
 21
5.792236952443041
 31
0.0
  0
LINE
  5
49BE
330
1E
100
AcDbEntity
  8
OBJECT
 62
     7
100
AcDbLine
 10
10.01852268648641
 20
6.168467478081192
 30
0.0
 11
10.01852268648641
 21
5.594696114898809
 31
0.0
  0
LINE
  5
49BF
330
1E
100
AcDbEntity
  8
OBJECT
 62
     7
100
AcDbLine
 10
10.05210456225878
 20
5.594697924356303
 30
0.0
 11
10.05210456225878
 21
5.199619868182826
 31
0.0
  0
ARC
  5
49C0
330
1E
100
AcDbEntity
  8
OBJECT
 62
     7
100
AcDbCircle
 10
10.24964359034551
 20
5.594697924356303
 30
0.0
 40
0.1975390280867369
100
AcDbArc
 50
90.0
 51
180.0
  0
LINE
  5
49C1
330
1E
100
AcDbEntity
  8
OBJECT
 62
     7
100
AcDbLine
 10
10.01852268648641
 20
5.594696114898809
 30
0.0
 11
10.05210456225878
 21
5.594696114898809
 31
0.0
  0
LINE
  5
49C2
330
1E
100
AcDbEntity
  8
OBJECT
 62
     7
100
AcDbLine
 10
10.36421598563821
 20
5.792236952443041
 30
0.0
 11
10.50644010742463
 21
5.792236952443041
 31
0.0
  0
LINE
  5
49C3
330
1E
100
AcDbEntity
  8
OBJECT
 62
     7
100
AcDbLine
 10
10.0323506594501
 20
6.511272867264211
 30
0.0
 11
10.0323506594501
 21
6.187312598640369
 31
0.0
  0
LINE
  5
49C4
330
1E
100
AcDbEntity
  8
OBJECT
 62
     7
100
AcDbLine
 10
10.10148931928046
 20
6.041133836379602
 30
0.0
 11
10.22988968753683
 21
6.041133836379602
 31
0.0
  0
ARC
  5
49C5
330
1E
100
AcDbEntity
  8
OBJECT
 62
     7
100
AcDbCircle
 10
10.03827658929509
 20
6.168467478081192
 30
0.0
 40
0.0197539028086737
100
AcDbArc
 50
107.4576034999999
 51
180.0
  0
LINE
  5
49C6
330
1E
100
AcDbEntity
  8
OBJECT
 62
     7
100
AcDbLine
 10
10.28915139596286
 20
5.997667170854276
 30
0.0
 11
10.24964359034551
 21
5.938405462428253
 31
0.0
  0
LINE
  5
49C7
330
1E
100
AcDbEntity
  8
OBJECT
 62
     7
100
AcDbLine
 10
10.24964359034551
 20
5.938405462428253
 30
0.0
 11
10.24964359034551
 21
5.88506998805732
 31
0.0
  0
LINE
  5
49C8
330
1E
100
AcDbEntity
  8
OBJECT
 62
     7
100
AcDbLine
 10
10.22988968753683
 20
5.865316085248646
 30
0.0
 11
10.28915139596286
 21
5.865316085248646
 31
0.0
  0
LINE
  5
49C9
330
1E
100
AcDbEntity
  8
OBJECT
 62
     7
100
AcDbLine
 10
10.22988968753683
 20
5.88506998805732
 30
0.0
 11
10.28915139596286
 21
5.88506998805732
 31
0.0
  0
ARC
  5
49CB
330
1E
100
AcDbEntity
  8
OBJECT
 62
     7
100
AcDbCircle
 10
10.06395642194875
 20
6.511272867264211
 30
0.0
 40
0.0316062444938779
100
AcDbArc
 50
90.0
 51
180.0
  0
LINE
  5
49CC
330
1E
100
AcDbEntity
  8
OBJECT
 62
     7
100
AcDbLine
 10
10.87584194590866
 20
6.168467478081192
 30
0.0
 11
10.87584194590866
 21
5.594696114898809
 31
0.0
  0
LINE
  5
49CD
330
1E
100
AcDbEntity
  8
OBJECT
 62
     7
100
AcDbLine
 10
10.66447554932766
 20
6.041133836379602
 30
0.0
 11
10.66447554932766
 21
5.79124587938522
 31
0.0
  0
LINE
  5
49CE
330
1E
100
AcDbEntity
  8
OBJECT
 62
     7
100
AcDbLine
 10
10.79287591758404
 20
6.049035278979657
 30
0.0
 11
10.79287591758404
 21
5.725357740065158
 31
0.0
  0
LINE
  5
49CF
330
1E
100
AcDbEntity
  8
OBJECT
 62
     7
100
AcDbLine
 10
10.60521384090163
 20
5.88506998805732
 30
0.0
 11
10.60521384090163
 21
5.792236952443041
 31
0.0
  0
LEADER
  5
49D0
330
1E
100
AcDbEntity
  8
DIM
100
AcDbLeader
  3
Standard
 76
     3
 10
10.55370668301705
 20
5.334011994868685
 30
0.0
 10
11.11632353951906
 20
5.060319307284501
 30
0.0
 10
11.24841621223064
 20
5.060319307284501
 30
0.0
1001
ACAD
1000
DSTYLE
1002
{
1070
   147
1040
0.09
1070
    77
1070
     0
1002
}
  0
LINE
  5
49D1
330
1E
100
AcDbEntity
  8
DIM
 62
     1
100
AcDbLine
 10
10.87584194590866
 20
5.532196114898809
 30
0.0
 11
10.87584194590866
 21
5.039298370977018
 31
0.0
  0
LINE
  5
49D2
330
1E
100
AcDbEntity
  8
OBJECT
 62
     7
100
AcDbLine
 10
10.84226067460572
 20
5.594697924356303
 30
0.0
 11
10.84226067460572
 21
5.199619868182826
 31
0.0
  0
LINE
  5
49D3
330
1E
100
AcDbEntity
  8
DIM
 62
     1
100
AcDbLine
 10
10.84226067460572
 20
5.137119868182826
 30
0.0
 11
10.84226067460572
 21
5.039298370977018
 31
0.0
  0
LINE
  5
49D4
330
1E
100
AcDbEntity
  8
OBJECT
 62
     7
100
AcDbLine
 10
10.84226067460572
 20
5.594696114898809
 30
0.0
 11
10.87584194590866
 21
5.594696114898809
 31
0.0
  0
ARC
  5
49D5
330
1E
100
AcDbEntity
  8
OBJECT
 62
     7
100
AcDbCircle
 10
10.64472164651898
 20
5.594697924356303
 30
0.0
 40
0.1975390280867369
100
AcDbArc
 50
0.0
 51
90.0
  0
LINE
  5
49D6
330
1E
100
AcDbEntity
  8
OBJECT
 62
     7
100
AcDbLine
 10
10.8620145774144
 20
6.511272867264211
 30
0.0
 11
10.8620145774144
 21
6.187312598640369
 31
0.0
  0
LINE
  5
49D7
330
1E
100
AcDbEntity
  8
OBJECT
 62
     7
100
AcDbLine
 10
10.66447554932766
 20
6.041133836379602
 30
0.0
 11
10.79287591758404
 21
6.041133836379602
 31
0.0
  0
LINE
  5
49D8
330
1E
100
AcDbEntity
  8
OBJECT
 62
     7
100
AcDbLine
 10
10.60521384090163
 20
5.997667170854276
 30
0.0
 11
10.64472164651898
 21
5.938405462428253
 31
0.0
  0
LINE
  5
49D9
330
1E
100
AcDbEntity
  8
OBJECT
 62
     7
100
AcDbLine
 10
10.64472164651898
 20
5.938405462428253
 30
0.0
 11
10.64472164651898
 21
5.88506998805732
 31
0.0
  0
LINE
  5
49DA
330
1E
100
AcDbEntity
  8
OBJECT
 62
     7
100
AcDbLine
 10
10.60521384090163
 20
5.865316085248646
 30
0.0
 11
10.66447554932766
 21
5.865316085248646
 31
0.0
  0
LINE
  5
49DB
330
1E
100
AcDbEntity
  8
OBJECT
 62
     7
100
AcDbLine
 10
10.60521384090163
 20
5.88506998805732
 30
0.0
 11
10.66447554932766
 21
5.88506998805732
 31
0.0
  0
ARC
  5
49DC
330
1E
100
AcDbEntity
  8
OBJECT
 62
     7
100
AcDbCircle
 10
10.85608804309998
 20
6.168467478081192
 30
0.0
 40
0.0197539028086737
100
AcDbArc
 50
0.0
 51
72.54221339999997
  0
ARC
  5
49DD
330
1E
100
AcDbEntity
  8
OBJECT
 62
     7
100
AcDbCircle
 10
10.83040821044632
 20
6.511272867264211
 30
0.0
 40
0.0316062444938779
100
AcDbArc
 50
0.0
 51
90.0
  0
MTEXT
  5
49FC
330
1E
100
AcDbEntity
  8
DIM
 62
     7
100
AcDbMText
 10
13.12461380091815
 20
5.087284438731369
 30
0.0
 40
0.09
 41
0.0
 71
     5
 72
     1
  1
DIA
 73
     1
 44
1.0
1001
ACAD
1000
MTEXTBEGIN
1070
    73
1070
     1
1070
    44
1040
1.0
1070
    74
1070
     0
1000
MTEXTEND
  0
LINE
  5
4A08
330
1E
100
AcDbEntity
  8
DIM
 62
     1
100
AcDbLine
 10
4.107528596233628
 20
7.74536684066734
 30
0.0
 11
2.985880761233893
 21
7.745366840667341
 31
0.0
  0
LINE
  5
4A09
330
1E
100
AcDbEntity
  8
DIM
 62
     1
100
AcDbLine
 10
4.100707872545832
 20
7.686105132241313
 30
0.0
 11
2.985880761233893
 21
7.686105132241314
 31
0.0
  0
LEADER
  5
4B34
330
1E
100
AcDbEntity
  8
DIM
100
AcDbLeader
  3
Standard
 76
     3
 10
10.48847179978771
 20
7.668783188852078
 30
0.0
 10
11.02880140640835
 20
8.353150601356979
 30
0.0
 10
11.17353256064617
 20
8.353150601356979
 30
0.0
1001
ACAD
1000
DSTYLE
1002
{
1070
   147
1040
0.09
1070
    77
1070
     0
1002
}
  0
MTEXT
  5
4B35
330
1E
100
AcDbEntity
  8
DIM
 62
     7
100
AcDbMText
 10
12.04215529907308
 20
8.294234743197304
 30
0.0
 40
0.09
 41
0.0
 71
     5
 72
     1
  1
9.5 DIA X 4.7 WIDTH\P[.374 DIA X .185 WIDTH]
 73
     1
 44
1.0
1001
ACAD
1000
MTEXTBEGIN
1070
    73
1070
     1
1070
    44
1040
1.0
1070
    74
1070
     0
1000
MTEXTEND
  0
LINE
  5
4E07
330
1E
100
AcDbEntity
  8
OBJECT
 62
     7
100
AcDbLine
 10
10.58589559864879
 20
7.604208542305359
 30
0.0
 11
10.58589559864879
 21
7.27029302736493
 31
0.0
  0
LINE
  5
4E09
330
1E
100
AcDbEntity
  8
OBJECT
 62
     7
100
AcDbLine
 10
10.31434787573831
 20
7.604208542305359
 30
0.0
 11
10.31434787573831
 21
7.27029302736493
 31
0.0
  0
CIRCLE
  5
4E0A
330
1E
100
AcDbEntity
  8
OBJECT
 62
     7
100
AcDbCircle
 10
10.45012135500123
 20
7.495589268079621
 30
0.0
 40
0.0603461555870095
  0
ARC
  5
4E0C
330
1E
100
AcDbEntity
  8
OBJECT
 62
     7
100
AcDbCircle
 10
10.45012135500123
 20
7.495589268079621
 30
0.0
 40
0.1910961593588635
100
AcDbArc
 50
315.2759093999999
 51
224.7241058
  0
ARC
  5
4E0D
330
1E
100
AcDbEntity
  8
OBJECT
 62
     7
100
AcDbCircle
 10
10.45012135500123
 20
7.555935423666632
 30
0.0
 40
0.1910961593588635
100
AcDbArc
 50
350.9153137
 51
189.0847015
  0
LINE
  5
4E0E
330
1E
100
AcDbEntity
  8
CENTER
 62
     3
100
AcDbLine
 10
10.7478303432818
 20
7.495589268079621
 30
0.0
 11
10.15241297822837
 21
7.495589268079621
 31
0.0
  0
LINE
  5
4E0F
330
1E
100
AcDbEntity
  8
OBJECT
 62
     7
100
AcDbLine
 10
4.367797469955579
 20
6.767412388365608
 30
0.0
 11
5.252874265688125
 21
6.767412388365608
 31
0.0
  0
LINE
  5
4E10
330
1E
100
AcDbEntity
  8
OBJECT
 62
     7
100
AcDbLine
 10
4.367797469955579
 20
6.666835462387256
 30
0.0
 11
5.252874265688125
 21
6.666835462387256
 31
0.0
  0
LINE
  5
4E11
330
1E
100
AcDbEntity
  8
OBJECT
 62
     7
100
AcDbLine
 10
4.458093406468115
 20
7.109374242445847
 30
0.0
 11
5.15934521147463
 21
7.109374242445847
 31
0.0
  0
LINE
  5
4E12
330
1E
100
AcDbEntity
  8
OBJECT
 62
     7
100
AcDbLine
 10
4.557368923347381
 20
7.028912701663172
 30
0.0
 11
5.059165769530824
 21
7.028912701663172
 31
0.0
  0
LINE
  5
4E13
330
1E
100
AcDbEntity
  8
OBJECT
 62
     7
100
AcDbLine
 10
4.448259010738256
 20
6.948451160880487
 30
0.0
 11
5.172412724905446
 21
6.948451160880487
 31
0.0
  0
LINE
  5
4E14
330
1E
100
AcDbEntity
  8
OBJECT
 62
     7
100
AcDbLine
 10
4.641366217801291
 20
7.242135293921872
 30
0.0
 11
4.458675509507985
 21
7.128149544702862
 31
0.0
  0
LINE
  5
4E15
330
1E
100
AcDbEntity
  8
OBJECT
 62
     7
100
AcDbLine
 10
4.448259010738256
 20
6.546143151213239
 30
0.0
 11
4.448259010738256
 21
6.948451160880487
 31
0.0
  0
LINE
  5
4E16
330
1E
100
AcDbEntity
  8
OBJECT
 62
     7
100
AcDbLine
 10
4.367797469955579
 20
6.666835462387256
 30
0.0
 11
4.367797469955579
 21
6.767412388365608
 31
0.0
  0
ARC
  5
4E17
330
1E
100
AcDbEntity
  8
OBJECT
 62
     7
100
AcDbCircle
 10
4.538778244118774
 20
7.028912701663172
 30
0.0
 40
0.0100576925978349
100
AcDbArc
 50
306.0809020999999
 51
58.76274110000002
  0
ARC
  5
4E18
330
1E
100
AcDbEntity
  8
OBJECT
 62
     7
100
AcDbCircle
 10
4.470387897715091
 20
7.109374242445847
 30
0.0
 40
0.0221288869768319
100
AcDbArc
 50
121.6846008
 51
238.1105042
  0
LINE
  5
4E19
330
1E
100
AcDbEntity
  8
OBJECT
 62
     7
100
AcDbLine
 10
4.448259010738256
 20
6.948451160880487
 30
0.0
 11
4.544813994185199
 21
7.020866056769504
 31
0.0
  0
LINE
  5
4E1A
330
1E
100
AcDbEntity
  8
OBJECT
 62
     7
100
AcDbLine
 10
4.544089470195067
 20
7.037453513178784
 30
0.0
 11
4.458697612293238
 21
7.090582369134512
 31
0.0
  0
LINE
  5
4E1B
330
1E
100
AcDbEntity
  8
OBJECT
 62
     7
100
AcDbLine
 10
5.172412724905446
 20
6.546143151213239
 30
0.0
 11
5.172412724905446
 21
6.948451160880487
 31
0.0
  0
LINE
  5
4E1C
330
1E
100
AcDbEntity
  8
OBJECT
 62
     7
100
AcDbLine
 10
5.252874265688125
 20
6.666835462387256
 30
0.0
 11
5.252874265688125
 21
6.767412388365608
 31
0.0
  0
LINE
  5
4E1D
330
1E
100
AcDbEntity
  8
OBJECT
 62
     7
100
AcDbLine
 10
4.979305823596268
 20
7.242135293921872
 30
0.0
 11
5.16199683764343
 21
7.128149544702862
 31
0.0
  0
LINE
  5
4E1E
330
1E
100
AcDbEntity
  8
OBJECT
 62
     7
100
AcDbLine
 10
10.58589559864879
 20
7.27029302736493
 30
0.0
 11
10.61909138721411
 21
7.27029302736493
 31
0.0
  0
LINE
  5
4E1F
330
1E
100
AcDbEntity
  8
OBJECT
 62
     7
100
AcDbLine
 10
10.61909138721411
 20
7.27029302736493
 30
0.0
 11
10.61909138721411
 21
7.228925367293311
 31
0.0
  0
LINE
  5
4E20
330
1E
100
AcDbEntity
  8
OBJECT
 62
     7
100
AcDbLine
 10
10.28115178141913
 20
7.27029302736493
 30
0.0
 11
10.31434787573831
 21
7.27029302736493
 31
0.0
  0
LINE
  5
4E21
330
1E
100
AcDbEntity
  8
OBJECT
 62
     7
100
AcDbLine
 10
10.28115178141913
 20
7.27029302736493
 30
0.0
 11
10.28115178141913
 21
7.232005833692543
 31
0.0
  0
LINE
  5
4E22
330
1E
100
AcDbEntity
  8
OBJECT
 62
     7
100
AcDbLine
 10
4.641366217801291
 20
7.242135293921872
 30
0.0
 11
4.979305823596268
 21
7.242135293921872
 31
0.0
  0
LINE
  5
4E23
330
1E
100
AcDbEntity
  8
OBJECT
 62
     7
100
AcDbLine
 10
5.172412724905446
 20
6.948451160880487
 30
0.0
 11
5.075858200089286
 21
7.020866056769504
 31
0.0
  0
LINE
  5
4E24
330
1E
100
AcDbEntity
  8
OBJECT
 62
     7
100
AcDbLine
 10
5.161972280781186
 20
7.090582369134512
 30
0.0
 11
5.076579807348566
 21
7.037453513178784
 31
0.0
  0
ARC
  5
4E25
330
1E
100
AcDbEntity
  8
OBJECT
 62
     7
100
AcDbCircle
 10
5.08189349152493
 20
7.028912701663172
 30
0.0
 40
0.0100576925978349
100
AcDbArc
 50
121.8897018
 51
233.9190979
  0
ARC
  5
4E26
330
1E
100
AcDbEntity
  8
OBJECT
 62
     7
100
AcDbCircle
 10
5.150284449436323
 20
7.109374242445847
 30
0.0
 40
0.0221288869768319
100
AcDbArc
 50
301.4216918999999
 51
58.31544109999999
  0
ARC
  5
4E27
330
1E
100
AcDbEntity
  8
OBJECT
 62
     7
100
AcDbCircle
 10
10.45012135500123
 20
7.495589268079621
 30
0.0
 40
0.1609230815653587
100
AcDbArc
 50
42.45341109999996
 51
137.5466003
  0
LINE
  5
4E28
330
1E
100
AcDbEntity
  8
OBJECT
 62
     7
100
AcDbLine
 10
10.31434787573831
 20
7.604208542305359
 30
0.0
 11
10.58589559864879
 21
7.604208542305359
 31
0.0
  0
LINE
  5
4E2F
330
1E
100
AcDbEntity
  8
OBJECT
 62
     7
100
AcDbLine
 10
10.80497891673828
 20
6.544242173788109
 30
0.0
 11
10.80497891673828
 21
6.941793830134106
 31
0.0
  0
LINE
  5
4E30
330
1E
100
AcDbEntity
  8
OBJECT
 62
     7
100
AcDbLine
 10
10.08938647916574
 20
6.544242173788109
 30
0.0
 11
10.08938647916574
 21
6.941793830134106
 31
0.0
  0
LINE
  5
4E32
330
1E
100
AcDbEntity
  8
OBJECT
 62
     7
100
AcDbLine
 10
10.08938647916574
 20
6.663507580050197
 30
0.0
 11
10.80497891673828
 21
6.663507580050197
 31
0.0
  0
LINE
  5
4E33
330
1E
100
AcDbEntity
  8
OBJECT
 62
     7
100
AcDbLine
 10
10.08938647916574
 20
6.762895418601942
 30
0.0
 11
10.80497891673828
 21
6.762895418601942
 31
0.0
  0
LINE
  5
4E34
330
1E
100
AcDbEntity
  8
OBJECT
 62
     7
100
AcDbLine
 10
10.41140271032613
 20
6.762895418601942
 30
0.0
 11
10.41140271032613
 21
6.663507580050197
 31
0.0
  0
LINE
  5
4E35
330
1E
100
AcDbEntity
  8
OBJECT
 62
     7
100
AcDbLine
 10
10.48296207732431
 20
6.762895418601942
 30
0.0
 11
10.48296207732431
 21
6.663507580050197
 31
0.0
  0
LINE
  5
4E38
330
1E
100
AcDbEntity
  8
OBJECT
 62
     7
100
AcDbLine
 10
10.28021064417242
 20
7.232005833692543
 30
0.0
 11
10.61415414347801
 21
7.232005833692543
 31
0.0
  0
LINE
  5
4E39
330
1E
100
AcDbEntity
  8
OBJECT
 62
     7
100
AcDbLine
 10
10.19720627062583
 20
7.021304100975504
 30
0.0
 11
10.69307175271158
 21
7.021304100975504
 31
0.0
  0
LINE
  5
4E3A
330
1E
100
AcDbEntity
  8
OBJECT
 62
     7
100
AcDbLine
 10
10.08938647916574
 20
6.941793830134106
 30
0.0
 11
10.80497891673828
 21
6.941793830134106
 31
0.0
  0
LINE
  5
4E3B
330
1E
100
AcDbEntity
  8
OBJECT
 62
     7
100
AcDbLine
 10
10.09910627583296
 20
7.100814371816891
 30
0.0
 11
10.79206650441083
 21
7.100814371816891
 31
0.0
  0
ARC
  5
4E3E
330
1E
100
AcDbEntity
  8
OBJECT
 62
     7
100
AcDbCircle
 10
10.1788355338623
 20
7.021304100975504
 30
0.0
 40
0.0099387838551742
100
AcDbArc
 50
306.0809020999999
 51
58.76274110000002
  0
ARC
  5
4E3F
330
1E
100
AcDbEntity
  8
OBJECT
 62
     7
100
AcDbCircle
 10
10.11125556448293
 20
7.100814371816891
 30
0.0
 40
0.0218672645319918
100
AcDbArc
 50
121.6846008
 51
238.1105042
  0
LINE
  5
4E40
330
1E
100
AcDbEntity
  8
OBJECT
 62
     7
100
AcDbLine
 10
10.28021064417242
 20
7.232005833692543
 30
0.0
 11
10.0996789207301
 21
7.119367699941895
 31
0.0
  0
LINE
  5
4E41
330
1E
100
AcDbEntity
  8
OBJECT
 62
     7
100
AcDbLine
 10
10.18408275455377
 20
7.029743937327204
 30
0.0
 11
10.09970257901119
 21
7.082244668551613
 31
0.0
  0
LINE
  5
4E42
330
1E
100
AcDbEntity
  8
OBJECT
 62
     7
100
AcDbLine
 10
10.08938647916574
 20
6.941793830134106
 30
0.0
 11
10.18479856166908
 21
7.01335258887871
 31
0.0
  0
LINE
  5
4E44
330
1E
100
AcDbEntity
  8
OBJECT
 62
     7
100
AcDbLine
 10
10.80497891673828
 20
6.941793830134106
 30
0.0
 11
10.70956622598136
 21
7.01335258887871
 31
0.0
  0
LINE
  5
4E45
330
1E
100
AcDbEntity
  8
OBJECT
 62
     7
100
AcDbLine
 10
10.79466221261476
 20
7.082244668551613
 30
0.0
 11
10.7102777872482
 21
7.029743937327204
 31
0.0
  0
ARC
  5
4E46
330
1E
100
AcDbEntity
  8
OBJECT
 62
     7
100
AcDbCircle
 10
10.71552986204171
 20
7.021304100975504
 30
0.0
 40
0.0099387838551742
100
AcDbArc
 50
121.8897018
 51
233.9190979
  0
ARC
  5
4E47
330
1E
100
AcDbEntity
  8
OBJECT
 62
     7
100
AcDbCircle
 10
10.78311346901597
 20
7.100814371816891
 30
0.0
 40
0.0218672645319918
100
AcDbArc
 50
301.4216918999999
 51
58.31544109999999
  0
LINE
  5
4E48
330
1E
100
AcDbEntity
  8
OBJECT
 62
     7
100
AcDbLine
 10
10.61415414347801
 20
7.232005833692543
 30
0.0
 11
10.79468587089586
 21
7.119367699941895
 31
0.0
  0
LEADER
  5
4EA3
330
1E
100
AcDbEntity
  8
DIM
100
AcDbLeader
  3
Standard
 76
     3
 10
10.17294410955617
 20
7.166339057753134
 30
0.0
 10
9.652669988563026
 20
7.635555614539093
 30
0.0
 10
9.479245281565312
 20
7.635555614539093
 30
0.0
1001
ACAD
1000
DSTYLE
1002
{
1070
   147
1040
0.09
1070
    77
1070
     0
1002
}
  0
MTEXT
  5
4EA4
330
1E
100
AcDbEntity
  8
DIM
 62
     7
100
AcDbMText
 10
8.987987956500985
 20
7.560772099690725
 30
0.0
 40
0.09
 41
0.0
 71
     5
 72
     1
  1
RUBBER CAP\P(CR)
 73
     1
 44
1.0
1001
ACAD
1000
MTEXTBEGIN
1070
    73
1070
     1
1070
    44
1040
1.0
1070
    74
1070
     0
1000
MTEXTEND
  0
LINE
  5
4EA7
330
1E
100
AcDbEntity
  8
OBJECT
 62
     7
100
AcDbLine
 10
4.644963668785429
 20
7.602831412565667
 30
0.0
 11
4.712547884013266
 21
7.602831412565667
 31
0.0
  0
LINE
  5
4EA8
330
1E
100
AcDbEntity
  8
OBJECT
 62
     7
100
AcDbLine
 10
4.644963668785429
 20
7.602831412565667
 30
0.0
 11
4.644963668785429
 21
7.245038835349802
 31
0.0
  0
LINE
  5
4EA9
330
1E
100
AcDbEntity
  8
OBJECT
 62
     7
100
AcDbLine
 10
4.716523031808092
 20
7.744863121863279
 30
0.0
 11
4.716523031808092
 21
7.33339359015785
 31
0.0
  0
LINE
  5
4EAA
330
1E
100
AcDbEntity
  8
OBJECT
 62
     7
100
AcDbLine
 10
4.716523031808092
 20
7.68433320101391
 30
0.0
 11
4.907347805068356
 21
7.68433320101391
 31
0.0
  0
LINE
  5
4EAB
330
1E
100
AcDbEntity
  8
OBJECT
 62
     7
100
AcDbLine
 10
4.907347805068356
 20
7.744863121863279
 30
0.0
 11
4.907347805068356
 21
7.33339359015785
 31
0.0
  0
LINE
  5
4EAC
330
1E
100
AcDbEntity
  8
OBJECT
 62
     7
100
AcDbLine
 10
4.911323561116754
 20
7.602831412565667
 30
0.0
 11
4.978907168091017
 21
7.602831412565667
 31
0.0
  0
LINE
  5
4EAD
330
1E
100
AcDbEntity
  8
OBJECT
 62
     7
100
AcDbLine
 10
4.978907168091017
 20
7.602831412565667
 30
0.0
 11
4.978907168091017
 21
7.245038835349802
 31
0.0
  0
LINE
  5
4EAE
330
1E
100
AcDbEntity
  8
OBJECT
 62
     7
100
AcDbLine
 10
4.712547884013266
 20
7.272863669308479
 30
0.0
 11
4.911323561116754
 21
7.272863669308479
 31
0.0
  0
LINE
  5
4EAF
330
1E
100
AcDbEntity
  8
OBJECT
 62
     7
100
AcDbLine
 10
4.907347805068356
 20
7.33339359015785
 30
0.0
 11
4.716523031808092
 21
7.33339359015785
 31
0.0
  0
LINE
  5
4EB0
330
1E
100
AcDbEntity
  8
OBJECT
 62
     7
100
AcDbLine
 10
4.911323561116754
 20
7.602831412565667
 30
0.0
 11
4.911323561116754
 21
7.272863669308479
 31
0.0
  0
LINE
  5
4EB1
330
1E
100
AcDbEntity
  8
OBJECT
 62
     7
100
AcDbLine
 10
4.712547884013266
 20
7.602831412565667
 30
0.0
 11
4.712547884013266
 21
7.272863669308479
 31
0.0
  0
LINE
  5
4EB2
330
1E
100
AcDbEntity
  8
CENTER
 62
     3
100
AcDbLine
 10
5.106123482171843
 20
7.495496307765597
 30
0.0
 11
4.51774735470461
 21
7.495496307765597
 31
0.0
  0
LINE
  5
4EB3
330
1E
100
AcDbEntity
  8
OBJECT
 62
     7
100
AcDbLine
 10
4.716523031808092
 20
7.744863121863279
 30
0.0
 11
4.907347805068357
 21
7.744863121863281
 31
0.0
  0
LINE
  5
4EBA
330
1E
100
AcDbEntity
  8
CENTER
 62
     3
100
AcDbLine
 10
9.886001899052542
 20
5.792755042934681
 30
0.0
 11
11.02191822492166
 21
5.792755042934681
 31
0.0
  0
ENDSEC
  0
SECTION
  2
OBJECTS
  0
DICTIONARY
  5
C
330
0
100
AcDbDictionary
281
     1
  3
ACAD_COLOR
350
4EBE
  3
ACAD_GROUP
350
D
  3
ACAD_LAYOUT
350
19
  3
ACAD_MATERIAL
350
4EBD
  3
ACAD_MLINESTYLE
350
16
  3
ACAD_PLOTSETTINGS
350
18
  3
ACAD_PLOTSTYLENAME
350
E
  3
ACAD_TABLESTYLE
350
4EBF
  3
AcadDim
350
44BB
  3
ACDBHEADERROUNDTRIPXREC
350
4F7B
  3
AcDbVariableDictionary
350
3CD
  3
AcmDictionary
350
4F1E
  3
AMG
350
4EC6
  3
AMGSNAPSETTINGS
350
4F71
  3
ASE_INDEX_DICTIONARY
350
3E2
  0
DICTIONARY
  5
4EBE
102
{ACAD_REACTORS
330
C
102
}
330
C
100
AcDbDictionary
281
     1
  0
DICTIONARY
  5
D
102
{ACAD_REACTORS
330
C
102
}
330
C
100
AcDbDictionary
281
     1
  0
DICTIONARY
  5
19
102
{ACAD_REACTORS
330
C
102
}
330
C
100
AcDbDictionary
281
     1
  3
Layout1
350
1D
  3
Model
350
21
  0
DICTIONARY
  5
4EBD
102
{ACAD_REACTORS
330
C
102
}
330
C
100
AcDbDictionary
281
     1
  0
DICTIONARY
  5
16
102
{ACAD_REACTORS
330
C
102
}
330
C
100
AcDbDictionary
281
     1
  3
Standard
350
17
  0
DICTIONARY
  5
18
102
{ACAD_REACTORS
330
C
102
}
330
C
100
AcDbDictionary
281
     1
  0
ACDBDICTIONARYWDFLT
  5
E
102
{ACAD_REACTORS
330
C
102
}
330
C
100
AcDbDictionary
281
     1
  3
Normal
350
F
100
AcDbDictionaryWithDefault
340
F
  0
DICTIONARY
  5
4EBF
102
{ACAD_REACTORS
330
C
102
}
330
C
100
AcDbDictionary
281
     1
  3
Standard
350
4EC0
  0
XRECORD
  5
44BB
102
{ACAD_REACTORS
330
C
102
}
330
C
100
AcDbXrecord
280
     1
 90
   990106
  3

 60
     0
 61
     0
 62
     1
 63
     3
 64
     0
 65
     0
 66
     0
 67
     3
 68
     1
 69
     0
 70
     0
 71
     0
 72
     0
 40
0.0
170
     0
  0
DICTIONARY
  5
4F7B
102
{ACAD_REACTORS
330
C
102
}
330
C
100
AcDbDictionary
281
     1
  0
DICTIONARY
  5
3CD
102
{ACAD_REACTORS
330
C
102
}
330
C
100
AcDbDictionary
281
     1
  3
CTABLESTYLE
350
4F78
  3
DIMASSOC
350
3CF
  3
HIDETEXT
350
3CE
  3
PROJECTNAME
350
4F79
  0
DICTIONARY
  5
4F1E
102
{ACAD_REACTORS
330
C
102
}
330
C
100
AcDbDictionary
281
     1
  3
AcmStdDictionary
350
4F29
  3
AMDTSECTSYM_ARROWCOLOR
350
4F47
  0
DICTIONARY
  5
4EC6
102
{ACAD_REACTORS
330
C
102
}
330
C
100
AcDbDictionary
281
     1
  0
DICTIONARY
  5
4F71
102
{ACAD_REACTORS
330
C
102
}
330
C
100
AcDbDictionary
281
     1
  0
DICTIONARY
  5
3E2
102
{ACAD_REACTORS
330
C
102
}
330
C
100
AcDbDictionary
281
     1
  3
ASEBlockHierarchyIndexRecord
350
3E4
1001
DCO15
1040
1464945035.036
  0
LAYOUT
  5
1D
102
{ACAD_XDICTIONARY
360
4F7C
102
}
102
{ACAD_REACTORS
330
19
102
}
330
19
100
AcDbPlotSettings
  1

  2
C:\Program Files\AutoCAD 2002\plotters\DWF ePlot (optimized for plotting).pc3
  4

  6

 40
0.0
 41
0.0
 42
0.0
 43
0.0
 44
0.0
 45
0.0
 46
0.0
 47
0.0
 48
0.0
 49
0.0
140
0.0
141
0.0
142
1.0
143
1.0
 70
   688
 72
     0
 73
     0
 74
     5
  7
standard.ctb
 75
    16
147
1.0
148
0.0
149
0.0
100
AcDbLayout
  1
Layout1
 70
     1
 71
     1
 10
0.0
 20
0.0
 11
12.0
 21
9.0
 12
0.0
 22
0.0
 32
0.0
 14
1.000000000000000E+20
 24
1.000000000000000E+20
 34
1.000000000000000E+20
 15
-1.000000000000000E+20
 25
-1.000000000000000E+20
 35
-1.000000000000000E+20
146
0.0
 13
0.0
 23
0.0
 33
0.0
 16
1.0
 26
0.0
 36
0.0
 17
0.0
 27
1.0
 37
0.0
 76
     0
330
1A
  0
LAYOUT
  5
21
102
{ACAD_XDICTIONARY
360
4F7E
102
}
102
{ACAD_REACTORS
330
19
102
}
330
19
100
AcDbPlotSettings
  1

  2
\\USCHMMGMT015\USCHMPD0026
  4
Tabloid
  6

 40
5.027083396911621
 41
5.027085304260253
 42
5.027099609375
 43
5.027069091796875
 44
279.3999938964844
 45
431.7999877929687
 46
0.0
 47
0.0
 48
0.0
 49
0.0
140
0.0
141
0.0
142
1.0
143
0.9914069849915843
 70
 11952
 72
     0
 73
     1
 74
     1
  7
standard.ctb
 75
     0
147
1.008667494922368
148
-2.622321565056127
149
-7.644107715091882
100
AcDbLayout
  1
Model
 70
     1
 71
     0
 10
0.0
 20
0.0
 11
12.0
 21
9.0
 12
0.0
 22
0.0
 32
0.0
 14
0.0
 24
0.0
 34
0.0
 15
0.0
 25
0.0
 35
0.0
146
0.0
 13
0.0
 23
0.0
 33
0.0
 16
1.0
 26
0.0
 36
0.0
 17
0.0
 27
1.0
 37
0.0
 76
     0
330
1E
  0
MLINESTYLE
  5
17
102
{ACAD_REACTORS
330
16
102
}
330
16
100
AcDbMlineStyle
  2
STANDARD
 70
     0
  3

 62
   256
 51
90.0
 52
90.0
 71
     2
 49
0.5
 62
   256
  6
BYLAYER
 49
-0.5
 62
   256
  6
BYLAYER
  0
ACDBPLACEHOLDER
  5
F
102
{ACAD_REACTORS
330
E
102
}
330
E
  0
TABLESTYLE
  5
4EC0
102
{ACAD_REACTORS
330
4EBF
102
}
330
4EBF
100
AcDbTableStyle
  3
Standard
 70
     0
 71
     0
 40
0.06
 41
0.06
280
     0
281
     0
  7
STANDARD
140
0.18
170
     2
 62
     0
 63
     7
283
     0
274
    -2
284
     1
 64
     0
275
    -2
285
     1
 65
     0
276
    -2
286
     1
 66
     0
277
    -2
287
     1
 67
     0
278
    -2
288
     1
 68
     0
279
    -2
289
     1
 69
     0
  7
STANDARD
140
0.25
170
     5
 62
     0
 63
     7
283
     0
274
    -2
284
     1
 64
     0
275
    -2
285
     1
 65
     0
276
    -2
286
     1
 66
     0
277
    -2
287
     1
 67
     0
278
    -2
288
     1
 68
     0
279
    -2
289
     1
 69
     0
  7
STANDARD
140
0.18
170
     5
 62
     0
 63
     7
283
     0
274
    -2
284
     1
 64
     0
275
    -2
285
     1
 65
     0
276
    -2
286
     1
 66
     0
277
    -2
287
     1
 67
     0
278
    -2
288
     1
 68
     0
279
    -2
289
     1
 69
     0
  0
DICTIONARYVAR
  5
4F78
102
{ACAD_REACTORS
330
3CD
102
}
330
3CD
100
DictionaryVariables
280
     0
  1
STANDARD
  0
DICTIONARYVAR
  5
3CF
102
{ACAD_REACTORS
330
3CD
102
}
330
3CD
100
DictionaryVariables
280
     0
  1
0
  0
DICTIONARYVAR
  5
3CE
102
{ACAD_REACTORS
330
3CD
102
}
330
3CD
100
DictionaryVariables
280
     0
  1
1
  0
DICTIONARYVAR
  5
4F79
102
{ACAD_REACTORS
330
3CD
102
}
330
3CD
100
DictionaryVariables
280
     0
  1

  0
DICTIONARY
  5
4F29
102
{ACAD_REACTORS
330
4F1E
102
}
330
4F1E
100
AcDbDictionary
281
     1
  0
XRECORD
  5
4F47
102
{ACAD_REACTORS
330
4F1E
102
}
330
4F1E
100
AcDbXrecord
280
     1
 90
-1023410169
  0
XRECORD
  5
3E4
102
{ACAD_REACTORS
330
3E2
102
}
330
3E2
100
AcDbXrecord
280
     1
330
0
330
0
  0
DICTIONARY
  5
4F7C
330
1D
100
AcDbDictionary
280
     1
281
     1
  3
ACAD_XREC_ROUNDTRIP
360
4F7D
  0
DICTIONARY
  5
4F7E
330
21
100
AcDbDictionary
280
     1
281
     1
  3
ACAD_XREC_ROUNDTRIP
360
4F7F
  0
XRECORD
  5
4F7D
102
{ACAD_REACTORS
330
4F7C
102
}
330
4F7C
100
AcDbXrecord
280
     1
102
SHADEPLOT
 70
     0
102
SHADEPLOTRESLEVEL
 70
     2
102
SHADEPLOTCUSTOMDPI
 70
   300
  0
XRECORD
  5
4F7F
102
{ACAD_REACTORS
330
4F7E
102
}
330
4F7E
100
AcDbXrecord
280
     1
102
SHADEPLOT
 70
     0
102
SHADEPLOTRESLEVEL
 70
     2
102
SHADEPLOTCUSTOMDPI
 70
   300
  0
ENDSEC
  0
EOF
