  0
SECTION
  2
HEADER
  9
$ACADVER
  1
AC1015
  9
$ACADMAINTVER
 70
    20
  9
$DWGCODEPAGE
  3
ANSI_1252
  9
$INSBASE
 10
0.0
 20
0.0
 30
0.0
  9
$EXTMIN
 10
0.1042494754821988
 20
0.3013358716206689
 30
0.0
  9
$EXTMAX
 10
16.5642494754822
 20
10.76133587162067
 30
0.0
  9
$LIMMIN
 10
0.0
 20
0.0
  9
$LIMMAX
 10
17.0
 20
11.0
  9
$ORTHOMODE
 70
     0
  9
$REGENMODE
 70
     1
  9
$FILLMODE
 70
     1
  9
$QTEXTMODE
 70
     0
  9
$MIRRTEXT
 70
     1
  9
$LTSCALE
 40
0.25
  9
$ATTMODE
 70
     1
  9
$TEXTSIZE
 40
0.09375
  9
$TRACEWID
 40
0.05
  9
$TEXTSTYLE
  7
ROMANS
  9
$CLAYER
  8
DIM
  9
$CELTYPE
  6
ByLayer
  9
$CECOLOR
 62
   256
  9
$CELTSCALE
 40
1.0
  9
$DISPSILH
 70
     0
  9
$DIMSCALE
 40
1.0
  9
$DIMASZ
 40
0.15
  9
$DIMEXO
 40
0.0625
  9
$DIMDLI
 40
0.38
  9
$DIMRND
 40
0.0
  9
$DIMDLE
 40
0.0
  9
$DIMEXE
 40
0.0625
  9
$DIMTP
 40
0.0
  9
$DIMTM
 40
0.0
  9
$DIMTXT
 40
0.09
  9
$DIMCEN
 40
0.09
  9
$DIMTSZ
 40
0.0
  9
$DIMTOL
 70
     0
  9
$DIMLIM
 70
     0
  9
$DIMTIH
 70
     1
  9
$DIMTOH
 70
     1
  9
$DIMSE1
 70
     0
  9
$DIMSE2
 70
     0
  9
$DIMTAD
 70
     0
  9
$DIMZIN
 70
     0
  9
$DIMBLK
  1

  9
$DIMASO
 70
     0
  9
$DIMSHO
 70
     1
  9
$DIMPOST
  1

  9
$DIMAPOST
  1

  9
$DIMALT
 70
     0
  9
$DIMALTD
 70
     2
  9
$DIMALTF
 40
25.4
  9
$DIMLFAC
 40
1.0
  9
$DIMTOFL
 70
     0
  9
$DIMTVP
 40
0.0
  9
$DIMTIX
 70
     0
  9
$DIMSOXD
 70
     0
  9
$DIMSAH
 70
     0
  9
$DIMBLK1
  1

  9
$DIMBLK2
  1

  9
$DIMSTYLE
  2
Standard
  9
$DIMCLRD
 70
     1
  9
$DIMCLRE
 70
     1
  9
$DIMCLRT
 70
     7
  9
$DIMTFAC
 40
1.0
  9
$DIMGAP
 40
0.09
  9
$DIMJUST
 70
     0
  9
$DIMSD1
 70
     0
  9
$DIMSD2
 70
     0
  9
$DIMTOLJ
 70
     1
  9
$DIMTZIN
 70
     0
  9
$DIMALTZ
 70
     0
  9
$DIMALTTZ
 70
     0
  9
$DIMUPT
 70
     0
  9
$DIMDEC
 70
     4
  9
$DIMTDEC
 70
     4
  9
$DIMALTU
 70
     2
  9
$DIMALTTD
 70
     2
  9
$DIMTXSTY
  7
STANDARD
  9
$DIMAUNIT
 70
     0
  9
$DIMADEC
 70
     0
  9
$DIMALTRND
 40
0.0
  9
$DIMAZIN
 70
     0
  9
$DIMDSEP
 70
    46
  9
$DIMATFIT
 70
     3
  9
$DIMFRAC
 70
     0
  9
$DIMLDRBLK
  1

  9
$DIMLUNIT
 70
     2
  9
$DIMLWD
 70
    -2
  9
$DIMLWE
 70
    -2
  9
$DIMTMOVE
 70
     0
  9
$LUNITS
 70
     2
  9
$LUPREC
 70
     4
  9
$SKETCHINC
 40
0.1
  9
$FILLETRAD
 40
0.0
  9
$AUNITS
 70
     0
  9
$AUPREC
 70
     0
  9
$MENU
  1
acad
  9
$ELEVATION
 40
0.0
  9
$PELEVATION
 40
0.0
  9
$THICKNESS
 40
0.0
  9
$LIMCHECK
 70
     0
  9
$CHAMFERA
 40
0.0
  9
$CHAMFERB
 40
0.0
  9
$CHAMFERC
 40
0.0
  9
$CHAMFERD
 40
0.0
  9
$SKPOLY
 70
     0
  9
$TDCREATE
 40
2449766.541135301
  9
$TDUCREATE
 40
2449766.749468635
  9
$TDUPDATE
 40
2455028.606342789
  9
$TDUUPDATE
 40
2455028.814676123
  9
$TDINDWG
 40
2.3449050694
  9
$TDUSRTIMER
 40
2.3449050694
  9
$USRTIMER
 70
     1
  9
$ANGBASE
 50
0.0
  9
$ANGDIR
 70
     0
  9
$PDMODE
 70
     0
  9
$PDSIZE
 40
0.0
  9
$PLINEWID
 40
0.0
  9
$SPLFRAME
 70
     0
  9
$SPLINETYPE
 70
     6
  9
$SPLINESEGS
 70
     8
  9
$HANDSEED
  5
4EE5
  9
$SURFTAB1
 70
     6
  9
$SURFTAB2
 70
     6
  9
$SURFTYPE
 70
     6
  9
$SURFU
 70
     6
  9
$SURFV
 70
     6
  9
$UCSBASE
  2

  9
$UCSNAME
  2

  9
$UCSORG
 10
0.0
 20
0.0
 30
0.0
  9
$UCSXDIR
 10
1.0
 20
0.0
 30
0.0
  9
$UCSYDIR
 10
0.0
 20
1.0
 30
0.0
  9
$UCSORTHOREF
  2

  9
$UCSORTHOVIEW
 70
     0
  9
$UCSORGTOP
 10
0.0
 20
0.0
 30
0.0
  9
$UCSORGBOTTOM
 10
0.0
 20
0.0
 30
0.0
  9
$UCSORGLEFT
 10
0.0
 20
0.0
 30
0.0
  9
$UCSORGRIGHT
 10
0.0
 20
0.0
 30
0.0
  9
$UCSORGFRONT
 10
0.0
 20
0.0
 30
0.0
  9
$UCSORGBACK
 10
0.0
 20
0.0
 30
0.0
  9
$PUCSBASE
  2

  9
$PUCSNAME
  2

  9
$PUCSORG
 10
0.0
 20
0.0
 30
0.0
  9
$PUCSXDIR
 10
1.0
 20
0.0
 30
0.0
  9
$PUCSYDIR
 10
0.0
 20
1.0
 30
0.0
  9
$PUCSORTHOREF
  2

  9
$PUCSORTHOVIEW
 70
     0
  9
$PUCSORGTOP
 10
0.0
 20
0.0
 30
0.0
  9
$PUCSORGBOTTOM
 10
0.0
 20
0.0
 30
0.0
  9
$PUCSORGLEFT
 10
0.0
 20
0.0
 30
0.0
  9
$PUCSORGRIGHT
 10
0.0
 20
0.0
 30
0.0
  9
$PUCSORGFRONT
 10
0.0
 20
0.0
 30
0.0
  9
$PUCSORGBACK
 10
0.0
 20
0.0
 30
0.0
  9
$USERI1
 70
     0
  9
$USERI2
 70
     0
  9
$USERI3
 70
     0
  9
$USERI4
 70
     0
  9
$USERI5
 70
     0
  9
$USERR1
 40
0.0
  9
$USERR2
 40
0.0
  9
$USERR3
 40
0.0
  9
$USERR4
 40
0.0
  9
$USERR5
 40
0.0
  9
$WORLDVIEW
 70
     1
  9
$SHADEDGE
 70
     3
  9
$SHADEDIF
 70
    70
  9
$TILEMODE
 70
     1
  9
$MAXACTVP
 70
    16
  9
$PINSBASE
 10
0.0
 20
0.0
 30
0.0
  9
$PLIMCHECK
 70
     0
  9
$PEXTMIN
 10
1.000000000000000E+20
 20
1.000000000000000E+20
 30
1.000000000000000E+20
  9
$PEXTMAX
 10
-1.000000000000000E+20
 20
-1.000000000000000E+20
 30
-1.000000000000000E+20
  9
$PLIMMIN
 10
0.0
 20
0.0
  9
$PLIMMAX
 10
12.0
 20
9.0
  9
$UNITMODE
 70
     0
  9
$VISRETAIN
 70
     0
  9
$PLINEGEN
 70
     0
  9
$PSLTSCALE
 70
     1
  9
$TREEDEPTH
 70
  3020
  9
$CMLSTYLE
  2
Standard
  9
$CMLJUST
 70
     0
  9
$CMLSCALE
 40
1.0
  9
$PROXYGRAPHICS
 70
     1
  9
$MEASUREMENT
 70
     0
  9
$CELWEIGHT
370
    -1
  9
$ENDCAPS
280
     0
  9
$JOINSTYLE
280
     0
  9
$LWDISPLAY
290
     0
  9
$INSUNITS
 70
     0
  9
$HYPERLINKBASE
  1

  9
$STYLESHEET
  1
standard.ctb
  9
$XEDIT
290
     1
  9
$CEPSNTYPE
380
     0
  9
$PSTYLEMODE
290
     1
  9
$FINGERPRINTGUID
  2
{15A91E55-5219-469D-BD62-5FAE47C117F2}
  9
$VERSIONGUID
  2
{77DF78A2-D062-4080-AF67-8C59305A7BE4}
  9
$EXTNAMES
290
     1
  9
$PSVPSCALE
 40
0.0
  9
$OLESTARTUP
290
     0
  0
ENDSEC
  0
SECTION
  2
CLASSES
  0
CLASS
  1
ACDBDICTIONARYWDFLT
  2
AcDbDictionaryWithDefault
  3
ObjectDBX Classes
 90
        0
280
     0
281
     0
  0
CLASS
  1
ACDBPLACEHOLDER
  2
AcDbPlaceHolder
  3
ObjectDBX Classes
 90
        0
280
     0
281
     0
  0
CLASS
  1
LAYOUT
  2
AcDbLayout
  3
ObjectDBX Classes
 90
        0
280
     0
281
     0
  0
CLASS
  1
DICTIONARYVAR
  2
AcDbDictionaryVar
  3
ObjectDBX Classes
 90
        0
280
     0
281
     0
  0
CLASS
  1
DIMASSOC
  2
AcDbDimAssoc
  3
"AcDbDimAssoc|Product Desc:     AcDim ARX App For Dimension|Company:          Autodesk, Inc.|WEB Address:      www.autodesk.com"
 90
    32768
280
     0
281
     0
  0
CLASS
  1
TABLESTYLE
  2
AcDbTableStyle
  3
ObjectDBX Classes
 90
     2047
280
     0
281
     0
  0
CLASS
  1
ACME_DOCUMENT
  2
AcMeDbDoc
  3
AcMeServices
 90
        0
280
     0
281
     0
  0
CLASS
  1
AMGSETTINGSOBJ
  2
AmgSettingsObj
  3
"AcadM|Product Description: AutoCAD Mechanical 2000|Company: Autodesk"
 90
        0
280
     0
281
     0
  0
CLASS
  1
ACMESCOPE
  2
AcMeScope
  3
AcMeServices
 90
        0
280
     0
281
     0
  0
CLASS
  1
ACMECOMMANDHISTORY
  2
AcMeCommandHistory
  3
AcMeServices
 90
        0
280
     0
281
     0
  0
CLASS
  1
ACIMSYSVARMAN
  2
AcImSysVarManager
  3
AcMeServices
 90
        0
280
     0
281
     0
  0
CLASS
  1
ACIMINTSYSVAR
  2
AcImIntSysVar
  3
AcMeServices
 90
        0
280
     0
281
     0
  0
CLASS
  1
ACMEDRAWINGMAN
  2
AcMeDrawingMan
  3
AcMeServices
 90
        0
280
     0
281
     0
  0
CLASS
  1
ACMEVIEW
  2
AcMeView
  3
AcMeServices
 90
        0
280
     0
281
     0
  0
CLASS
  1
ACDBENTITYCACHE
  2
AcMeEntityCache
  3
AcMeServices
 90
        0
280
     0
281
     0
  0
CLASS
  1
GSMANAGER
  2
AcMeGSManager
  3
AcMeServices
 90
        0
280
     0
281
     0
  0
CLASS
  1
AMDTINTERNALREACTOR
  2
AmdtInternalReactor
  3
AcMeServices
 90
        0
280
     0
281
     0
  0
CLASS
  1
ACMESTATEMGR
  2
AcMeStateMgr
  3
AcMeServices
 90
        0
280
     0
281
     0
  0
CLASS
  1
ACGREFMASTER
  2
AcGrefMaster
  3
AcAttribServices
 90
        0
280
     0
281
     0
  0
CLASS
  1
AM_DRAWING_MGR
  2
AcDmDwgMgr
  3
AcMechDwgViewMgmt
 90
        0
280
     0
281
     0
  0
CLASS
  1
AM_DWG_DOCUMENT
  2
AcDmDwgDocument
  3
AcMechDwgViewMgmt
 90
        0
280
     0
281
     0
  0
CLASS
  1
AM_DWG_SHEET
  2
AcDmSheet
  3
AcMechDwgViewMgmt
 90
        0
280
     0
281
     0
  0
CLASS
  1
AM_VIEWDIMPARMAP
  2
AcDmViewDimParMap
  3
AcMechDwgViewMgmt
 90
        0
280
     0
281
     0
  0
CLASS
  1
ACIMREALSYSVAR
  2
AcImRealSysVar
  3
AcMeServices
 90
        0
280
     0
281
     0
  0
CLASS
  1
AM_DWGMGR_NAME
  2
AcDmDwgMgrName
  3
AcMechDwgViewMgmt
 90
        0
280
     0
281
     0
  0
CLASS
  1
ACME_DATABASE
  2
AcMeDbDatabase
  3
AcMeServices
 90
        0
280
     0
281
     0
  0
CLASS
  1
ACRFINSADJUSTERMGR
  2
AcRfInsAdjusterMgr
  3
AcMeServices
 90
        0
280
     0
281
     0
  0
CLASS
  1
ACGREFACADMASTER
  2
AcGrefacadMaster
  3
AcGrefServices
 90
        0
280
     0
281
     0
  0
CLASS
  1
AMDTMENUSTATEMGR
  2
AmdtMenuStateMgr
  3
McadcomServices
 90
        0
280
     0
281
     0
  0
CLASS
  1
AMDTMCOMMENUSTATE
  2
AmdtMcomMenuState
  3
McadcomServices
 90
        0
280
     0
281
     0
  0
CLASS
  1
AMIMASTER
  2
AmiMaster
  3
AmiServices
 90
        0
280
     0
281
     0
  0
CLASS
  1
MAPIAMMOUDLE
  2
MApiAmModule
  3
MApiAmServices
 90
        0
280
     0
281
     0
  0
CLASS
  1
ACIMSTRSYSVAR
  2
AcImStrSysVar
  3
AcMeServices
 90
        0
280
     0
281
     0
  0
CLASS
  1
AMDTADMENUSTATE
  2
AmdtAdMenuState
  3
DesignerServices
 90
        0
280
     0
281
     0
  0
CLASS
  1
ADAPPL
  2
AcAdAppl
  3
DesignerServices
 90
        0
280
     0
281
     0
  0
CLASS
  1
DEPMGR
  2
AcAdDepMgr
  3
DesignerServices
 90
        0
280
     0
281
     0
  0
CLASS
  1
PARAMMGR
  2
AcAdParamMgr
  3
DesignerServices
 90
        0
280
     0
281
     0
  0
CLASS
  1
PARAMSCOPE
  2
AcAdParamScope
  3
DesignerServices
 90
        0
280
     0
281
     0
  0
CLASS
  1
NAMEDAPPL
  2
AcAdNamedAppl
  3
DesignerServices
 90
        0
280
     0
281
     0
  0
CLASS
  1
AMDTDMMENUSTATE
  2
AmdtDmMenuState
  3
AcMechDwgViewMgmt
 90
        0
280
     0
281
     0
  0
CLASS
  1
AMDTAMMENUSTATE
  2
AmdtAmMenuState
  3
DesignerAssemblies
 90
        0
280
     0
281
     0
  0
CLASS
  1
ACAMPROJECT
  2
AcAmProject
  3
DesignerAssemblies
 90
        0
280
     0
281
     0
  0
CLASS
  1
ACAMGRCOMPDEF
  2
AcAmGrCompDef
  3
DesignerAssemblies
 90
        0
280
     0
281
     0
  0
CLASS
  1
ACCMCONTEXT
  2
AcCmContext
  3
DesignerAssemblies
 90
        0
280
     0
281
     0
  0
CLASS
  1
ACAMCOMPDEF
  2
AcAmCompDef
  3
DesignerAssemblies
 90
        0
280
     0
281
     0
  0
CLASS
  1
ACAMCOMPDEFMGR
  2
AcAmCompDefMgr
  3
DesignerAssemblies
 90
        0
280
     0
281
     0
  0
CLASS
  1
AMCONTEXTMGR
  2
AcAmContextMgr
  3
DesignerAssemblies
 90
        0
280
     0
281
     0
  0
CLASS
  1
ACAMCONTEXTMODELER
  2
AcAmContextModeler
  3
DesignerAssemblies
 90
        0
280
     0
281
     0
  0
CLASS
  1
ACMDATADICTIONARY
  2
AcmDataDictionary
  3
"AcmSymBB|Product Description: AutoCAD Mechanical 2004 DX|Company: Autodesk"
 90
        0
280
     0
281
     0
  0
CLASS
  1
CATALOGSTATE
  2
AcAmCatalogState
  3
DesignerAssemblies
 90
        0
280
     0
281
     0
  0
CLASS
  1
ACAMGRCOMPDEFSET
  2
AcAmGrCompDefSet
  3
DesignerAssemblies
 90
        0
280
     0
281
     0
  0
CLASS
  1
AMDTBROWSERDBTAB
  2
AmdtBrowserDbTab
  3
McadcomServices
 90
        0
280
     0
281
     0
  0
CLASS
  1
CBROWSERAPPOBJECT
  2
CBrowserAppObject
  3
McadcomServices
 90
        0
280
     0
281
     0
  0
CLASS
  1
DM_PLACEHOLDER
  2
AcDmSelsetPlaceholder
  3
AcMechDwgViewMgmt
 90
        0
280
     0
281
     0
  0
CLASS
  1
ACMSTANDARDANSI
  2
AcmStandardANSI
  3
"Amdt_StdImp|Product Description: AutoCAD Mechanical 2004 DX|Company: Autodesk"
 90
        0
280
     0
281
     0
  0
CLASS
  1
AMGOBJPROPCFG
  2
AmgObjPropCfg
  3
"AmgLay|Product Description: AutoCAD Mechanical 2000|Company: Autodesk"
 90
        1
280
     0
281
     0
  0
CLASS
  1
ACMSURFSTANDARDANSI
  2
AcmSurfTextStdANSI
  3
"Amdt_StdImp|Product Description: AutoCAD Mechanical 2004 DX|Company: Autodesk"
 90
        0
280
     0
281
     0
  0
CLASS
  1
ACMFCFSTANDARDANSI
  2
AcmFCFStdANSI
  3
"Amdt_StdImp|Product Description: AutoCAD Mechanical 2004 DX|Company: Autodesk"
 90
        0
280
     0
281
     0
  0
CLASS
  1
ACMWELDSTANDARDANSI
  2
AcmWeldingStdANSI
  3
"Amdt_StdImp|Product Description: AutoCAD Mechanical 2004 DX|Company: Autodesk"
 90
        0
280
     0
281
     0
  0
CLASS
  1
ACMIDSTANDARDANSI
  2
AcmIdStdANSI
  3
"Amdt_StdImp|Product Description: AutoCAD Mechanical 2004 DX|Company: Autodesk"
 90
        0
280
     0
281
     0
  0
CLASS
  1
ACMDATUMSTANDARDANSI
  2
AcmDatumStdANSI
  3
"Amdt_StdImp|Product Description: AutoCAD Mechanical 2004 DX|Company: Autodesk"
 90
        0
280
     0
281
     0
  0
CLASS
  1
ACMBOMSTANDARDANSI
  2
AcmBOMStdANSI
  3
"Amdt_StdImp|Product Description: AutoCAD Mechanical 2004 DX|Company: Autodesk"
 90
        0
280
     0
281
     0
  0
CLASS
  1
ACMDETAILSTANDARDANSI
  2
AmdtDetailSymStdANSI
  3
"Amdt_StdImp|Product Description: AutoCAD Mechanical 2004 DX|Company: Autodesk"
 90
        0
280
     0
281
     0
  0
CLASS
  1
ACMSECTIONSTANDARDANSI
  2
AmdtSectionSymStdANSI
  3
"Amdt_StdImp|Product Description: AutoCAD Mechanical 2004 DX|Company: Autodesk"
 90
        0
280
     0
281
     0
  0
CLASS
  1
ACMCENTERLINESTANDARDANSI
  2
AmdtCenterLineStdANSI
  3
"Amdt_StdImp|Product Description: AutoCAD Mechanical 2004 DX|Company: Autodesk"
 90
        0
280
     0
281
     0
  0
CLASS
  1
ACMTHREADLINESTANDARDANSI
  2
AmdtThreadLineStdANSI
  3
"Amdt_StdImp|Product Description: AutoCAD Mechanical 2004 DX|Company: Autodesk"
 90
        0
280
     0
281
     0
  0
CLASS
  1
ACMNOTESTANDARDANSI
  2
AmdtNoteStdANSI
  3
"Amdt_StdImp|Product Description: AutoCAD Mechanical 2004 DX|Company: Autodesk"
 90
        0
280
     0
281
     0
  0
CLASS
  1
AMDTNOTETEMPLATEDB
  2
AmdtNoteTemplateDB
  3
AMDT_STDIMP_MODULE_NAME
 90
        0
280
     0
281
     0
  0
CLASS
  1
ACAMGLAYSTD
  2
AcAmgLayStd
  3
"AcAmgLayStd|Product Description: AutoCAD Mechanical 2000|Company: Autodesk"
 90
        0
280
     0
281
     0
  0
CLASS
  1
ACAMGDIMSTD
  2
AcAmgDimStd
  3
"AcAmgDimStd|Product Description: AutoCAD Mechanical 2000|Company: Autodesk"
 90
        0
280
     0
281
     0
  0
CLASS
  1
ACAMGHOLECHARTSTDANSI
  2
AcAmgHoleChartStdANSI
  3
ACMSYMBB_MODULE_NAME
 90
        0
280
     0
281
     0
  0
CLASS
  1
ACAMGTITLESTD
  2
AcAmgTitleStd
  3
"TITLEAPP"
 90
        0
280
     0
281
     0
  0
CLASS
  1
ACAMGFILTERDAT
  2
AcAmgFilterDat
  3
"AcadM|Product Description: AutoCAD Mechanical 2000|Company: Autodesk"
 90
        0
280
     0
281
     0
  0
ENDSEC
  0
SECTION
  2
TABLES
  0
TABLE
  2
VPORT
  5
8
330
0
100
AcDbSymbolTable
 70
     3
  0
VPORT
  5
4EDF
330
8
100
AcDbSymbolTableRecord
100
AcDbViewportTableRecord
  2
*Active
 70
     0
 10
0.0
 20
0.0
 11
1.0
 21
1.0
 12
8.499999999999998
 22
6.290741664511202
 13
0.0
 23
0.0
 14
0.0625
 24
0.0625
 15
0.5
 25
0.5
 16
0.0
 26
0.0
 36
1.0
 17
0.0
 27
0.0
 37
0.0
 40
12.72068369509378
 41
1.758308157099697
 42
50.0
 43
0.0
 44
0.0
 50
0.0
 51
0.0
 71
     0
 72
   500
 73
     1
 74
     0
 75
     0
 76
     0
 77
     0
 78
     0
281
     0
 65
     1
110
0.0
120
0.0
130
0.0
111
1.0
121
0.0
131
0.0
112
0.0
122
1.0
132
0.0
 79
     0
146
0.0
  0
ENDTAB
  0
TABLE
  2
LTYPE
  5
5
330
0
100
AcDbSymbolTable
 70
    16
  0
LTYPE
  5
13
330
5
100
AcDbSymbolTableRecord
100
AcDbLinetypeTableRecord
  2
ByBlock
 70
     0
  3

 72
    65
 73
     0
 40
0.0
  0
LTYPE
  5
14
330
5
100
AcDbSymbolTableRecord
100
AcDbLinetypeTableRecord
  2
ByLayer
 70
     0
  3

 72
    65
 73
     0
 40
0.0
  0
LTYPE
  5
15
330
5
100
AcDbSymbolTableRecord
100
AcDbLinetypeTableRecord
  2
CONTINUOUS
 70
     0
  3
Solid line
 72
    65
 73
     0
 40
0.0
  0
LTYPE
  5
2C
330
5
100
AcDbSymbolTableRecord
100
AcDbLinetypeTableRecord
  2
CENTER
 70
     0
  3
____ _ ____ _ ____ _ ____ _ ____ _ ____ _ ____ 
 72
    65
 73
     4
 40
2.0
 49
1.25
 74
     0
 49
-0.25
 74
     0
 49
0.25
 74
     0
 49
-0.25
 74
     0
  0
LTYPE
  5
430
330
5
100
AcDbSymbolTableRecord
100
AcDbLinetypeTableRecord
  2
HIDDEN
 70
     0
  3
_ _ _ _ _ _ _ _ _ _ _ _ _ _ _ _ _ _ _ _ _ _ _
 72
    65
 73
     2
 40
0.375
 49
0.25
 74
     0
 49
-0.125
 74
     0
  0
LTYPE
  5
4E5D
330
5
100
AcDbSymbolTableRecord
100
AcDbLinetypeTableRecord
  2
PHANTOM2
 70
     0
  3
Phantom (.5x) ___ _ _ ___ _ _ ___ _ _ ___ _ _
 72
    65
 73
     6
 40
1.25
 49
0.625
 74
     0
 49
-0.125
 74
     0
 49
0.125
 74
     0
 49
-0.125
 74
     0
 49
0.125
 74
     0
 49
-0.125
 74
     0
  0
LTYPE
  5
4E91
330
5
100
AcDbSymbolTableRecord
100
AcDbLinetypeTableRecord
  2
AM_ISO02W050
 70
     0
  3
__ __ __ __ __ __ __ __ __ __ __ __ __ __ __
 72
    65
 73
     2
 40
7.5
 49
6.0
 74
     0
 49
-1.5
 74
     0
  0
LTYPE
  5
4E92
330
5
100
AcDbSymbolTableRecord
100
AcDbLinetypeTableRecord
  2
AM_ISO08W050
 70
     0
  3
____ . ____ . ____ . ____ . ____ . ____ . ____
 72
    65
 73
     4
 40
18.0
 49
12.0
 74
     0
 49
-1.5
 74
     0
 49
3.0
 74
     0
 49
-1.5
 74
     0
  0
LTYPE
  5
4E93
330
5
100
AcDbSymbolTableRecord
100
AcDbLinetypeTableRecord
  2
AM_ISO09W050
 70
     0
  3
_____ . . _____ . . _____ . . ____ .. ____
 72
    65
 73
     6
 40
22.5
 49
12.0
 74
     0
 49
-1.5
 74
     0
 49
3.0
 74
     0
 49
-1.5
 74
     0
 49
3.0
 74
     0
 49
-1.5
 74
     0
  0
LTYPE
  5
4E94
330
5
100
AcDbSymbolTableRecord
100
AcDbLinetypeTableRecord
  2
Amconstr
 70
     0
  3
_______________________
 72
    65
 73
     2
 40
9999.0
 49
9999.0
 74
     0
 49
0.0
 74
     0
  0
LTYPE
  5
4E95
330
5
100
AcDbSymbolTableRecord
100
AcDbLinetypeTableRecord
  2
AM_ISO08W050x2
 70
     0
  3
__ . __ . __ . __ . __ . __
 72
    65
 73
     4
 40
9.0
 49
6.0
 74
     0
 49
-0.75
 74
     0
 49
1.5
 74
     0
 49
-0.75
 74
     0
  0
LTYPE
  5
4E96
330
5
100
AcDbSymbolTableRecord
100
AcDbLinetypeTableRecord
  2
AM_ISO02W050x2
 70
     0
  3
 _ _ _ _ _ _ _ _ _ _ _ _
 72
    65
 73
     2
 40
3.75
 49
3.0
 74
     0
 49
-0.75
 74
     0
  0
LTYPE
  5
4E99
330
5
100
AcDbSymbolTableRecord
100
AcDbLinetypeTableRecord
  2
Amzigzag
 70
     0
  3
/\/-/\/-/\/-/\/-/\/-/\/
 72
    65
 73
     2
 40
11.0001
 49
0.0001
 74
     4
 75
   136
340
4E98
 46
0.04
 50
0.0
 44
0.0
 45
0.0
 49
-11.0
 74
     0
  0
LTYPE
  5
4E9A
330
5
100
AcDbSymbolTableRecord
100
AcDbLinetypeTableRecord
  2
CENTER2
 70
     0
  3
Center (.5x) ___ _ ___ _ ___ _ ___ _ ___ _ ___
 72
    65
 73
     4
 40
1.125
 49
0.75
 74
     0
 49
-0.125
 74
     0
 49
0.125
 74
     0
 49
-0.125
 74
     0
  0
LTYPE
  5
4E9B
330
5
100
AcDbSymbolTableRecord
100
AcDbLinetypeTableRecord
  2
HIDDEN2
 70
     0
  3
Hidden (.5x) _ _ _ _ _ _ _ _ _ _ _ _ _ _ _ _ _
 72
    65
 73
     2
 40
0.1875
 49
0.125
 74
     0
 49
-0.0625
 74
     0
  0
LTYPE
  5
4E9C
330
5
100
AcDbSymbolTableRecord
100
AcDbLinetypeTableRecord
  2
Amzigzag2
 70
     0
  3
/\/-/\/-/\/-/\/-/\/-/\/
 72
    65
 73
     2
 40
0.4401
 49
0.0001
 74
     4
 75
   136
340
4E98
 46
0.0016
 50
0.0
 44
0.0
 45
0.0
 49
-0.4400000000000001
 74
     0
  0
LTYPE
  5
4EAA
330
5
100
AcDbSymbolTableRecord
100
AcDbLinetypeTableRecord
  2
ACANSTGB
 70
     0
  3
__ . . __ . .
 72
    65
 73
     6
 40
0.35433070866
 49
0.15748031496
 74
     0
 49
-0.03937007874
 74
     0
 49
0.03937007874
 74
     0
 49
-0.03937007874
 74
     0
 49
0.03937007874
 74
     0
 49
-0.03937007874
 74
     0
  0
LTYPE
  5
4EAB
330
5
100
AcDbSymbolTableRecord
100
AcDbLinetypeTableRecord
  2
ACANSTGL
 70
     0
  3
_ _ _ _ _
 72
    65
 73
     2
 40
0.11811023622
 49
0.07874015748
 74
     0
 49
-0.03937007874
 74
     0
  0
ENDTAB
  0
TABLE
  2
LAYER
  5
2
330
0
100
AcDbSymbolTable
 70
     9
  0
LAYER
  5
10
330
2
100
AcDbSymbolTableRecord
100
AcDbLayerTableRecord
  2
0
 70
     0
 62
     7
  6
CONTINUOUS
370
    -3
390
F
  0
LAYER
  5
30
330
2
100
AcDbSymbolTableRecord
100
AcDbLayerTableRecord
  2
TEXT
 70
     0
 62
     7
  6
CONTINUOUS
370
    -3
390
F
  0
LAYER
  5
31
330
2
100
AcDbSymbolTableRecord
100
AcDbLayerTableRecord
  2
DEFPOINTS
 70
     0
 62
     7
  6
CONTINUOUS
290
     0
370
    -3
390
F
  0
LAYER
  5
32
330
2
100
AcDbSymbolTableRecord
100
AcDbLayerTableRecord
  2
DIM
 70
     0
 62
     1
  6
CONTINUOUS
370
    -3
390
F
  0
LAYER
  5
33
330
2
100
AcDbSymbolTableRecord
100
AcDbLayerTableRecord
  2
CENTER
 70
     0
 62
     3
  6
CENTER
370
    -3
390
F
  0
LAYER
  5
34
330
2
100
AcDbSymbolTableRecord
100
AcDbLayerTableRecord
  2
OBJ
 70
     0
 62
     7
  6
CONTINUOUS
370
    -3
390
F
  0
LAYER
  5
8BE
330
2
100
AcDbSymbolTableRecord
100
AcDbLayerTableRecord
  2
BORDER
 70
     0
 62
     7
  6
CONTINUOUS
370
    -3
390
F
  0
LAYER
  5
8BF
330
2
100
AcDbSymbolTableRecord
100
AcDbLayerTableRecord
  2
FORM
 70
     0
 62
     7
  6
CONTINUOUS
370
    -3
390
F
  0
LAYER
  5
41C0
330
2
100
AcDbSymbolTableRecord
100
AcDbLayerTableRecord
  2
OBJECT
 70
     0
 62
     7
  6
CONTINUOUS
370
    -3
390
F
  0
ENDTAB
  0
TABLE
  2
STYLE
  5
3
330
0
100
AcDbSymbolTable
 70
     7
  0
STYLE
  5
11
330
3
100
AcDbSymbolTableRecord
100
AcDbTextStyleTableRecord
  2
STANDARD
 70
     0
 40
0.0
 41
1.0
 50
0.0
 71
     0
 42
0.2
  3
txt
  4

  0
STYLE
  5
27
330
3
100
AcDbSymbolTableRecord
100
AcDbTextStyleTableRecord
  2
ROMANS
 70
     0
 40
0.0
 41
1.0
 50
0.0
 71
     0
 42
0.09375
  3
romans
  4

  0
STYLE
  5
29
330
3
100
AcDbSymbolTableRecord
100
AcDbTextStyleTableRecord
  2
HELR
 70
     0
 40
0.0
 41
1.0
 50
0.0
 71
     0
 42
0.2
  3
HELV.shx
  4

  0
STYLE
  5
41C1
330
3
100
AcDbSymbolTableRecord
100
AcDbTextStyleTableRecord
  2
KANJI
 70
     0
 40
0.0
 41
1.0
 50
0.0
 71
     0
 42
2.0
  3
TXT
  4
BIGFONT
  0
STYLE
  5
4E98
330
3
100
AcDbSymbolTableRecord
100
AcDbTextStyleTableRecord
  2

 70
     1
 40
0.0
 41
1.0
 50
0.0
 71
     0
 42
0.09375
  3
genltshp.shx
  4

  0
STYLE
  5
4E9D
330
3
100
AcDbSymbolTableRecord
100
AcDbTextStyleTableRecord
  2
ACANSTS
 70
     0
 40
1.0
 41
1.0
 50
0.0
 71
     0
 42
0.09375
  3
romans.shx
  4

  0
STYLE
  5
4EA9
330
3
100
AcDbSymbolTableRecord
100
AcDbTextStyleTableRecord
  2
ACANSGDT
 70
     0
 40
0.0
 41
1.0
 50
0.0
 71
     0
 42
0.09375
  3
AMGDT
  4

  0
ENDTAB
  0
TABLE
  2
VIEW
  5
6
330
0
100
AcDbSymbolTable
 70
     0
  0
ENDTAB
  0
TABLE
  2
UCS
  5
7
330
0
100
AcDbSymbolTable
 70
     0
  0
ENDTAB
  0
TABLE
  2
APPID
  5
9
330
0
100
AcDbSymbolTable
 70
    11
  0
APPID
  5
12
330
9
100
AcDbSymbolTableRecord
100
AcDbRegAppTableRecord
  2
ACAD
 70
     0
  0
APPID
  5
3E3
330
9
100
AcDbSymbolTableRecord
100
AcDbRegAppTableRecord
  2
DCO15
 70
     0
  0
APPID
  5
4E30
330
9
100
AcDbSymbolTableRecord
100
AcDbRegAppTableRecord
  2
MCAD_NO_VIS
 70
     0
  0
APPID
  5
4E31
330
9
100
AcDbSymbolTableRecord
100
AcDbRegAppTableRecord
  2
ACAD_TEMP_GRAPHIC
 70
     0
  0
APPID
  5
4E5F
330
9
100
AcDbSymbolTableRecord
100
AcDbRegAppTableRecord
  2
AD_DRAW
 70
     0
  0
APPID
  5
4E62
330
9
100
AcDbSymbolTableRecord
100
AcDbRegAppTableRecord
  2
ACATTRIBSERVICES
 70
     0
  0
APPID
  5
4E82
330
9
100
AcDbSymbolTableRecord
100
AcDbRegAppTableRecord
  2
DESIGNERASSEMBLIES
 70
     0
  0
APPID
  5
4E88
330
9
100
AcDbSymbolTableRecord
100
AcDbRegAppTableRecord
  2
ACADM_DIM_EDIT
 70
     0
  0
APPID
  5
4E89
330
9
100
AcDbSymbolTableRecord
100
AcDbRegAppTableRecord
  2
AMDT_DM_ADJ
 70
     0
  0
APPID
  5
4EB6
330
9
100
AcDbSymbolTableRecord
100
AcDbRegAppTableRecord
  2
ACAD_DSTYLE_DIMARC_LENGTH_SYMBOL
 70
     0
  0
APPID
  5
4EB7
330
9
100
AcDbSymbolTableRecord
100
AcDbRegAppTableRecord
  2
ACAD_DSTYLE_DIMJOGGED_JOGANGLE_SYMBOL
 70
     0
  0
ENDTAB
  0
TABLE
  2
DIMSTYLE
  5
A
330
0
100
AcDbSymbolTable
 70
     7
100
AcDbDimStyleTable
 71
     1
340
3B8
  0
DIMSTYLE
105
3B8
330
A
100
AcDbSymbolTableRecord
100
AcDbDimStyleTableRecord
  2
Standard
 70
     0
 41
0.15
 44
0.0625
140
0.09
176
     1
177
     1
178
     7
340
11
  0
DIMSTYLE
105
4EB5
330
A
100
AcDbSymbolTableRecord
100
AcDbDimStyleTableRecord
  2
AM_ANSI
 70
     0
  4
mm
 41
0.1
 42
0.05
 43
0.5
 44
0.1
 47
0.1
 48
0.1
 78
     7
 79
     2
140
0.12
141
0.0
146
0.71
147
0.06
176
   256
177
   256
178
     2
274
     4
284
     7
340
11
371
    -1
372
    -1
1001
ACAD_DSTYLE_DIMARC_LENGTH_SYMBOL
1070
   379
1070
     1
1001
ACAD_DSTYLE_DIMJOGGED_JOGANGLE_SYMBOL
1070
   384
1040
0.7853981633974483
  0
DIMSTYLE
105
4EBE
330
A
100
AcDbSymbolTableRecord
100
AcDbDimStyleTableRecord
  2
AM_ANSI$3
 70
     0
  4
mm
 41
0.1
 42
0.05
 43
0.5
 44
0.1
 47
0.1
 48
0.1
 78
     7
 79
     2
140
0.12
141
0.0
146
0.71
147
0.06
176
   256
177
   256
178
     2
274
     4
284
     7
288
     1
289
     0
340
11
371
    -1
372
    -1
1001
ACAD_DSTYLE_DIMARC_LENGTH_SYMBOL
1070
   379
1070
     1
1001
ACAD_DSTYLE_DIMJOGGED_JOGANGLE_SYMBOL
1070
   384
1040
0.7853981633974483
  0
DIMSTYLE
105
4EC1
330
A
100
AcDbSymbolTableRecord
100
AcDbDimStyleTableRecord
  2
AM_ANSI$4
 70
     0
  4
mm
 41
0.1
 42
0.05
 43
0.5
 44
0.1
 47
0.1
 48
0.1
 78
     7
 79
     2
140
0.12
141
0.0
146
0.71
147
0.06
176
   256
177
   256
178
     2
274
     4
284
     7
288
     1
289
     0
340
11
371
    -1
372
    -1
1001
ACAD_DSTYLE_DIMARC_LENGTH_SYMBOL
1070
   379
1070
     1
1001
ACAD_DSTYLE_DIMJOGGED_JOGANGLE_SYMBOL
1070
   384
1040
0.7853981633974483
  0
DIMSTYLE
105
4EC6
330
A
100
AcDbSymbolTableRecord
100
AcDbDimStyleTableRecord
  2
AM_ANSI$7
 70
     0
  4
mm
 41
0.1
 42
0.05
 43
0.5
 44
0.1
 47
0.1
 48
0.1
 78
     7
 79
     2
140
0.24
141
0.0
146
0.71
147
0.06
176
   256
177
   256
178
     2
274
     4
284
     7
340
11
371
    -1
372
    -1
1001
ACAD_DSTYLE_DIMARC_LENGTH_SYMBOL
1070
   379
1070
     1
1001
ACAD_DSTYLE_DIMJOGGED_JOGANGLE_SYMBOL
1070
   384
1040
0.7853981633974483
  0
DIMSTYLE
105
4EC9
330
A
100
AcDbSymbolTableRecord
100
AcDbDimStyleTableRecord
  2
AM_ANSI$SF
 70
     0
  4
mm
 41
0.1
 42
0.05
 43
0.5
 44
0.1
 47
0.1
 48
0.1
 75
     1
 76
     1
 78
     7
 79
     2
140
0.12
141
0.0
146
0.71
147
0.06
176
   256
177
   256
178
     2
274
     4
284
     7
340
11
371
    -1
372
    -1
1001
ACAD_DSTYLE_DIMARC_LENGTH_SYMBOL
1070
   379
1070
     1
1001
ACAD_DSTYLE_DIMJOGGED_JOGANGLE_SYMBOL
1070
   384
1040
0.7853981633974483
  0
DIMSTYLE
105
4ED0
330
A
100
AcDbSymbolTableRecord
100
AcDbDimStyleTableRecord
  2
AM_ANSI$SH
 70
     0
  4
mm
 41
0.1
 42
0.05
 43
0.5
 44
0.1
 47
0.1
 48
0.1
 75
     1
 76
     1
 78
     7
 79
     2
140
0.12
141
0.0
146
0.71
147
0.06
173
     1
176
   256
177
   256
178
     2
274
     4
284
     7
340
11
343
4ECA
371
    -1
372
    -1
1001
ACAD_DSTYLE_DIMARC_LENGTH_SYMBOL
1070
   379
1070
     1
1001
ACAD_DSTYLE_DIMJOGGED_JOGANGLE_SYMBOL
1070
   384
1040
0.7853981633974483
  0
ENDTAB
  0
TABLE
  2
BLOCK_RECORD
  5
1
330
0
100
AcDbSymbolTable
 70
     3
  0
BLOCK_RECORD
  5
1E
330
1
100
AcDbSymbolTableRecord
100
AcDbBlockTableRecord
  2
*Model_Space
340
21
  0
BLOCK_RECORD
  5
1A
330
1
100
AcDbSymbolTableRecord
100
AcDbBlockTableRecord
  2
*Paper_Space
340
1D
  0
BLOCK_RECORD
  5
597
330
1
100
AcDbSymbolTableRecord
100
AcDbBlockTableRecord
  2
_OPEN
340
0
  0
BLOCK_RECORD
  5
4ECA
330
1
100
AcDbSymbolTableRecord
100
AcDbBlockTableRecord
  2
GENAXEH
340
0
  0
ENDTAB
  0
ENDSEC
  0
SECTION
  2
BLOCKS
  0
BLOCK
  5
37
330
1E
100
AcDbEntity
  8
0
100
AcDbBlockBegin
  2
*Model_Space
 70
     0
 10
0.0
 20
0.0
 30
0.0
  3
*Model_Space
  1

  0
ENDBLK
  5
38
330
1E
100
AcDbEntity
  8
0
100
AcDbBlockEnd
  0
BLOCK
  5
35
330
1A
100
AcDbEntity
 67
     1
  8
0
100
AcDbBlockBegin
  2
*Paper_Space
 70
     0
 10
0.0
 20
0.0
 30
0.0
  3
*Paper_Space
  1

  0
ENDBLK
  5
36
330
1A
100
AcDbEntity
 67
     1
  8
0
100
AcDbBlockEnd
  0
BLOCK
  5
59B
330
597
100
AcDbEntity
  8
0
100
AcDbBlockBegin
  2
_OPEN
 70
     0
 10
0.0
 20
0.0
 30
0.0
  3
_OPEN
  1

  0
LINE
  5
598
330
597
100
AcDbEntity
  8
0
  6
ByBlock
 62
     0
100
AcDbLine
 10
-1.0
 20
0.1666666666666666
 30
0.0
 11
0.0
 21
0.0
 31
0.0
  0
LINE
  5
599
330
597
100
AcDbEntity
  8
0
  6
ByBlock
 62
     0
100
AcDbLine
 10
0.0
 20
0.0
 30
0.0
 11
-1.0
 21
-0.1666666666666666
 31
0.0
  0
LINE
  5
59A
330
597
100
AcDbEntity
  8
0
  6
ByBlock
 62
     0
100
AcDbLine
 10
0.0
 20
0.0
 30
0.0
 11
-1.0
 21
0.0
 31
0.0
  0
ENDBLK
  5
59C
330
597
100
AcDbEntity
  8
0
100
AcDbBlockEnd
  0
BLOCK
  5
4ECC
330
4ECA
100
AcDbEntity
  8
0
100
AcDbBlockBegin
  2
GENAXEH
 70
     0
 10
0.0
 20
0.0
 30
0.0
  3
GENAXEH
  1

  0
LINE
  5
4ECB
330
4ECA
100
AcDbEntity
  8
0
100
AcDbLine
 10
-1.0
 20
0.0
 30
0.0
 11
1.0
 21
0.0
 31
0.0
  0
ENDBLK
  5
4ECD
330
4ECA
100
AcDbEntity
  8
0
100
AcDbBlockEnd
  0
ENDSEC
  0
SECTION
  2
ENTITIES
  0
TEXT
  5
C7
330
1E
100
AcDbEntity
  8
DIM
 62
     1
100
AcDbText
 10
16.35516340111906
 20
7.313182641180002
 30
0.0
 40
0.125
  1

 50
90.0
100
AcDbText
  0
TEXT
  5
C9
330
1E
100
AcDbEntity
  8
DIM
 62
     1
100
AcDbText
 10
13.34837863483334
 20
7.179439377583786
 30
0.0
 40
0.125
  1

 50
90.0
100
AcDbText
  0
TEXT
  5
DA
330
1E
100
AcDbEntity
  8
DIM
 62
     1
100
AcDbText
 10
13.6904845814324
 20
8.486994831764484
 30
0.0
 40
0.125
  1

 50
90.0
100
AcDbText
  0
TEXT
  5
DB
330
1E
100
AcDbEntity
  8
DIM
 62
     1
100
AcDbText
 10
10.68369981514667
 20
8.353251568168268
 30
0.0
 40
0.125
  1

 50
90.0
100
AcDbText
  0
TEXT
  5
7BB
330
1E
100
AcDbEntity
  8
0
100
AcDbText
 10
14.48805494628117
 20
0.6371003189161656
 30
0.0
 40
0.1213397244080934
  1
802B-SSAR2XSX
  7
HELR
 72
     4
 11
15.25076178541776
 21
0.6977701811202124
 31
0.0
100
AcDbText
  0
TEXT
  5
9B3
330
1E
100
AcDbEntity
  8
DIM
 62
     1
100
AcDbText
 10
25.09672621712861
 20
7.640701491704227
 30
0.0
 40
0.125
  1

 50
90.0
100
AcDbText
  0
TEXT
  5
9B4
330
1E
100
AcDbEntity
  8
DIM
 62
     1
100
AcDbText
 10
22.08994145084288
 20
7.506958228108011
 30
0.0
 40
0.125
  1

 50
90.0
100
AcDbText
  0
TEXT
  5
9B5
330
1E
100
AcDbEntity
  8
DIM
 62
     1
100
AcDbText
 10
22.43204739744194
 20
8.814513682288708
 30
0.0
 40
0.125
  1

 50
90.0
100
AcDbText
  0
TEXT
  5
9B6
330
1E
100
AcDbEntity
  8
DIM
 62
     1
100
AcDbText
 10
19.42526263115621
 20
8.680770418692492
 30
0.0
 40
0.125
  1

 50
90.0
100
AcDbText
  0
TEXT
  5
9B7
330
1E
100
AcDbEntity
  8
0
100
AcDbText
 10
11.51472627349514
 20
1.620220178285536
 30
0.0
 40
0.1213397244080934
  1
OUTLINE DRAWING
  7
HELR
 72
     4
 11
12.3236577695491
 21
1.680890040489583
 31
0.0
100
AcDbText
  0
TEXT
  5
9B8
330
1E
100
AcDbEntity
  8
0
100
AcDbText
 10
12.10986873130627
 20
1.420866795770394
 30
0.0
 40
0.1213397244080934
  1
802B
  7
HELR
 72
     4
 11
12.3236577695491
 21
1.481536657974441
 31
0.0
100
AcDbText
  0
TEXT
  5
9B9
330
1E
100
AcDbEntity
  8
0
100
AcDbText
 10
11.26337970150695
 20
1.221513413255252
 30
0.0
 40
0.1213397244080934
  1
COMPACT LIMIT SWITCH
  7
HELR
 72
     4
 11
12.3236577695491
 21
1.282183275459299
 31
0.0
100
AcDbText
  0
TEXT
  5
3F15
330
1E
100
AcDbEntity
  8
FORM
100
AcDbText
 10
13.37613044214886
 20
10.59631187162067
 30
0.0
 40
0.08
  1
REVISIONS
 72
     4
 11
13.7094637754822
 21
10.63631187162067
 31
0.0
100
AcDbText
  0
TEXT
  5
3F16
330
1E
100
AcDbEntity
  8
FORM
100
AcDbText
 10
13.73530506185902
 20
10.38129937162067
 30
0.0
 40
0.06
  1
DESCRIPTION
 72
     4
 11
14.03530506185902
 21
10.41129937162067
 31
0.0
100
AcDbText
  0
TEXT
  5
3F17
330
1E
100
AcDbEntity
  8
FORM
100
AcDbText
 10
11.7146780754822
 20
10.38129937162067
 30
0.0
 40
0.06
  1
REV.
 72
     4
 11
11.8146780754822
 21
10.41129937162067
 31
0.0
100
AcDbText
  0
TEXT
  5
3F18
330
1E
100
AcDbEntity
  8
FORM
100
AcDbText
 10
16.14906399964001
 20
10.38129937162067
 30
0.0
 40
0.06
  1
DRAFTER
 72
     4
 11
16.34906399964001
 21
10.41129937162067
 31
0.0
100
AcDbText
  0
LINE
  5
3F19
330
1E
100
AcDbEntity
  8
FORM
100
AcDbLine
 10
0.1042494754821988
 20
0.3013358716206689
 30
0.0
 11
0.1042494754821988
 21
10.76133587162067
 31
0.0
  0
LINE
  5
3F1A
330
1E
100
AcDbEntity
  8
FORM
100
AcDbLine
 10
0.1042494754821988
 20
10.76133587162067
 30
0.0
 11
16.5642494754822
 21
10.76133587162067
 31
0.0
  0
LINE
  5
3F1B
330
1E
100
AcDbEntity
  8
FORM
100
AcDbLine
 10
16.5642494754822
 20
10.76133587162067
 30
0.0
 11
16.5642494754822
 21
0.3013358716206689
 31
0.0
  0
LINE
  5
3F1C
330
1E
100
AcDbEntity
  8
FORM
100
AcDbLine
 10
16.5642494754822
 20
0.3013358716206689
 30
0.0
 11
0.1042494754821988
 21
0.3013358716206689
 31
0.0
  0
LINE
  5
3F1D
330
1E
100
AcDbEntity
  8
FORM
100
AcDbLine
 10
16.5642494754822
 20
10.51128787162067
 30
0.0
 11
11.6946780754822
 21
10.51128787162067
 31
0.0
  0
LINE
  5
3F1E
330
1E
100
AcDbEntity
  8
FORM
100
AcDbLine
 10
16.5642494754822
 20
10.31131087162067
 30
0.0
 11
11.6946780754822
 21
10.31131087162067
 31
0.0
  0
LINE
  5
3F1F
330
1E
100
AcDbEntity
  8
FORM
100
AcDbLine
 10
11.6946780754822
 20
10.1116735987442
 30
0.0
 11
11.6946780754822
 21
10.76133587162067
 31
0.0
  0
LINE
  5
3F20
330
1E
100
AcDbEntity
  8
FORM
100
AcDbLine
 10
11.93467807548219
 20
10.1116735987442
 30
0.0
 11
11.93467807548219
 21
10.51128787162067
 31
0.0
  0
LINE
  5
3F21
330
1E
100
AcDbEntity
  8
FORM
100
AcDbLine
 10
16.13593204823584
 20
10.1116735987442
 30
0.0
 11
16.13593204823584
 21
10.51128787162067
 31
0.0
  0
LINE
  5
3F22
330
1E
100
AcDbEntity
  8
FORM
100
AcDbLine
 10
16.54425243591942
 20
10.1116735987442
 30
0.0
 11
11.67468103591941
 21
10.1116735987442
 31
0.0
  0
TEXT
  5
3F23
330
1E
100
AcDbEntity
  8
FORM
100
AcDbText
 10
11.8046780754822
 20
10.1814922222368
 30
0.0
 40
0.06
  1
1
 72
     4
 11
11.8146780754822
 21
10.2114922222368
 31
0.0
100
AcDbText
  0
TEXT
  5
3F24
330
1E
100
AcDbEntity
  8
FORM
100
AcDbText
 10
12.08889710857868
 20
10.1814922222368
 30
0.0
 40
0.06
  1
CREATED
 72
     4
 11
12.28889710857868
 21
10.2114922222368
 31
0.0
100
AcDbText
  0
TEXT
  5
3F25
330
1E
100
AcDbEntity
  8
FORM
100
AcDbText
 10
16.26906399964001
 20
10.1814922222368
 30
0.0
 40
0.06
  1
MJL
 72
     4
 11
16.34906399964001
 21
10.2114922222368
 31
0.0
100
AcDbText
  0
TEXT
  5
3F26
330
1E
100
AcDbEntity
  8
BORDER
100
AcDbText
 10
14.24675382472929
 20
1.832088277798209
 30
0.0
 40
0.08
  1
FOR TECHNICAL SUPPORT CALL
100
AcDbText
  0
LINE
  5
3F27
330
1E
100
AcDbEntity
  8
BORDER
 62
     7
100
AcDbLine
 10
8.164214953796033
 20
0.880152121685807
 30
0.0
 11
10.6742212964188
 21
0.880152121685807
 31
0.0
  0
LINE
  5
3F28
330
1E
100
AcDbEntity
  8
BORDER
 62
     7
100
AcDbLine
 10
8.164214953796033
 20
0.5965697534844594
 30
0.0
 11
10.6742212964188
 21
0.5965697534844594
 31
0.0
  0
LINE
  5
3F29
330
1E
100
AcDbEntity
  8
BORDER
 62
     7
100
AcDbLine
 10
8.164214953796033
 20
2.310664685980217
 30
0.0
 11
16.5642494754822
 21
2.310664685980217
 31
0.0
  0
CIRCLE
  5
3F2A
330
1E
100
AcDbEntity
  8
BORDER
100
AcDbCircle
 10
8.975235392842808
 20
1.629187519764812
 30
0.0
 40
0.1399439102212038
  0
CIRCLE
  5
3F2B
330
1E
100
AcDbEntity
  8
BORDER
100
AcDbCircle
 10
8.975235392842808
 20
1.629187519764812
 30
0.0
 40
0.2350004304560674
  0
LINE
  5
3F2C
330
1E
100
AcDbEntity
  8
BORDER
 62
     7
100
AcDbLine
 10
10.6626304614487
 20
0.5918000678843392
 30
0.0
 11
14.07264668340649
 21
0.5918000678843392
 31
0.0
  0
TEXT
  5
3F2E
330
1E
100
AcDbEntity
  8
BORDER
100
AcDbText
 10
8.252778585122825
 20
2.073417411838359
 30
0.0
 40
0.06
  1
DIMENSIONS ARE IN MM [INCHES]
  7
ROMANS
100
AcDbText
  0
LINE
  5
3F2F
330
1E
100
AcDbEntity
  8
BORDER
 62
     7
100
AcDbLine
 10
10.6742212964188
 20
1.988654942763002
 30
0.0
 11
8.164214953796033
 21
1.988654942763002
 31
0.0
  0
LINE
  5
3F30
330
1E
100
AcDbEntity
  8
BORDER
 62
     7
100
AcDbLine
 10
8.164214953796033
 20
1.163768028334882
 30
0.0
 11
10.6742212964188
 21
1.163768028334882
 31
0.0
  0
TEXT
  5
3F31
330
1E
100
AcDbEntity
  8
BORDER
100
AcDbText
 10
8.231050836667568
 20
2.185660268230411
 30
0.0
 40
0.06
  1
UNLESS OTHERWISE SPECIFIED
  7
ROMANS
 72
     4
 11
8.929622265238997
 21
2.215660268230411
 31
0.0
100
AcDbText
  0
LINE
  5
3F32
330
1E
100
AcDbEntity
  8
BORDER
 62
     7
100
AcDbLine
 10
8.164214953796033
 20
2.310664685980217
 30
0.0
 11
8.164214953796033
 21
0.3013358716206689
 31
0.0
  0
LINE
  5
3F33
330
1E
100
AcDbEntity
  8
BORDER
100
AcDbLine
 10
10.05345745430098
 20
1.86418795022088
 30
0.0
 11
10.05345745430098
 21
1.394187089308745
 31
0.0
  0
LINE
  5
3F34
330
1E
100
AcDbEntity
  8
BORDER
100
AcDbLine
 10
9.469758293584561
 20
1.769131429986016
 30
0.0
 11
9.469758293584561
 21
1.489243609543608
 31
0.0
  0
TEXT
  5
3F35
330
1E
100
AcDbEntity
  8
BORDER
100
AcDbText
 10
14.75034761914786
 20
1.677567584262366
 30
0.0
 40
0.08
  1
+1 440.646.5800
100
AcDbText
  0
TEXT
  5
3F36
330
1E
100
AcDbEntity
  8
BORDER
100
AcDbText
 10
8.849680802323176
 20
1.224269202352133
 30
0.0
 40
0.06
  1
THIRD ANGLE PROJECTION
  7
ROMANS
 72
     4
 11
9.438252230894605
 21
1.254269202352134
 31
0.0
100
AcDbText
  0
LINE
  5
3F37
330
1E
100
AcDbEntity
  8
BORDER
100
AcDbLine
 10
10.05345745430098
 20
1.394187089308745
 30
0.0
 11
9.469758293584561
 21
1.489243609543608
 31
0.0
  0
LINE
  5
3F38
330
1E
100
AcDbEntity
  8
BORDER
100
AcDbLine
 10
10.05345745430098
 20
1.86418795022088
 30
0.0
 11
9.469758293584561
 21
1.769131429986016
 31
0.0
  0
TEXT
  5
3F39
330
1E
100
AcDbEntity
  8
BORDER
100
AcDbText
 10
8.252838918385634
 20
0.9937680024362871
 30
0.0
 40
0.07
  1
MATERIAL:    N/A
  7
ROMANS
 11
8.252838918385634
 21
1.063768002436287
 31
0.0
100
AcDbText
 73
     3
  0
TEXT
  5
3F3A
330
1E
100
AcDbEntity
  8
BORDER
100
AcDbText
 10
8.252838918385634
 20
0.7101520957872121
 30
0.0
 40
0.07
  1
FINISH:    N/A
  7
ROMANS
 11
8.252838918385634
 21
0.7801520957872122
 31
0.0
100
AcDbText
 73
     3
  0
TEXT
  5
3F3B
330
1E
100
AcDbEntity
  8
BORDER
100
AcDbText
 10
8.241657103055366
 20
0.4098107168812891
 30
0.0
 40
0.07
  1
SCALE:    1 : 1
  7
ROMANS
 11
8.241657103055366
 21
0.4798107168812891
 31
0.0
100
AcDbText
 73
     3
  0
LINE
  5
3F3C
330
1E
100
AcDbEntity
  8
BORDER
 62
     7
100
AcDbLine
 10
12.50422129641874
 20
0.5918000678843392
 30
0.0
 11
12.50422129641873
 21
0.3013358716206689
 31
0.0
  0
TEXT
  5
3F3D
330
1E
100
AcDbEntity
  8
BORDER
100
AcDbText
 10
11.16346154336717
 20
0.3816849826689754
 30
0.0
 40
0.09
  1
B. FORTIER
  7
ROMANS
100
AcDbText
  0
LINE
  5
3F3E
330
1E
100
AcDbEntity
  8
BORDER
 62
     7
100
AcDbLine
 10
10.6742212964188
 20
2.310664685980217
 30
0.0
 11
10.6742212964188
 21
0.3013358716206689
 31
0.0
  0
TEXT
  5
3F3F
330
1E
100
AcDbEntity
  8
BORDER
100
AcDbText
 10
10.74583298220857
 20
0.3910254962221138
 30
0.0
 40
0.1
  1
DRW.
  7
ROMANS
 11
10.74583298220857
 21
0.4410254962221139
 31
0.0
100
AcDbText
 73
     2
  0
TEXT
  5
3F40
330
1E
100
AcDbEntity
  8
BORDER
100
AcDbText
 10
12.61209870062048
 20
0.3935679008708526
 30
0.0
 40
0.1
  1
DATE
  7
ROMANS
100
AcDbText
  0
LINE
  5
3F43
330
1E
100
AcDbEntity
  8
BORDER
 62
     7
100
AcDbLine
 10
16.16423529139655
 20
0.7613526737798431
 30
0.0
 11
16.5642494754822
 21
0.7613526737798431
 31
0.0
  0
TEXT
  5
3F44
330
1E
100
AcDbEntity
  8
BORDER
100
AcDbText
 10
16.26023335346775
 20
0.7914822653982334
 30
0.0
 40
0.06
  1
REV.
  7
ROMANS
100
AcDbText
  0
TEXT
  5
3F45
330
1E
100
AcDbEntity
  8
BORDER
100
AcDbText
 10
14.17297786485456
 20
2.008125303149491
 30
0.0
 40
0.12
  1
ROCKWELL AUTOMATION
100
AcDbText
  0
TEXT
  5
3F46
330
1E
100
AcDbEntity
  8
BORDER
100
AcDbText
 10
14.15686668632682
 20
1.240125519652671
 30
0.0
 40
0.06
  1
ROCKWELL AUTOMATION AND MAY NOT COPIED,
100
AcDbText
  0
TEXT
  5
3F47
330
1E
100
AcDbEntity
  8
BORDER
100
AcDbText
 10
14.15686668632682
 20
1.140125519652649
 30
0.0
 40
0.06
  1
USED OR DISCLOSED FOR ANY PURPOSE EXCEPT 
100
AcDbText
  0
LINE
  5
3F48
330
1E
100
AcDbEntity
  8
BORDER
 62
     7
100
AcDbLine
 10
14.08423751837659
 20
0.5013329898443751
 30
0.0
 11
16.5642494754822
 21
0.5013329898443751
 31
0.0
  0
LINE
  5
3F49
330
1E
100
AcDbEntity
  8
BORDER
 62
     7
100
AcDbLine
 10
14.08423751837659
 20
0.8813526737798476
 30
0.0
 11
16.5642494754822
 21
0.8813526737798476
 31
0.0
  0
LINE
  5
3F4A
330
1E
100
AcDbEntity
  8
BORDER
 62
     7
100
AcDbLine
 10
14.08423751837659
 20
1.483895532676335
 30
0.0
 11
16.5642494754822
 21
1.483895532676335
 31
0.0
  0
TEXT
  5
3F4B
330
1E
100
AcDbEntity
  8
BORDER
100
AcDbText
 10
15.20172277357306
 20
0.3513358716206802
 30
0.0
 40
0.0781
  1
1
  7
ROMANS
100
AcDbText
  0
TEXT
  5
3F4C
330
1E
100
AcDbEntity
  8
BORDER
100
AcDbText
 10
16.07672277357307
 20
0.3513358716206802
 30
0.0
 40
0.0781
  1
1
  7
ROMANS
100
AcDbText
  0
TEXT
  5
3F4D
330
1E
100
AcDbEntity
  8
BORDER
100
AcDbText
 10
14.45808700369694
 20
0.3539194570580584
 30
0.0
 40
0.1
  1
B
  7
ROMANS
 72
     1
 11
14.51046795607789
 21
0.3539194570580584
 31
0.0
100
AcDbText
  0
LINE
  5
3F4E
330
1E
100
AcDbEntity
  8
BORDER
 62
     7
100
AcDbLine
 10
14.08423751837659
 20
0.3013358716206689
 30
0.0
 11
14.08423751837659
 21
2.310664685980217
 31
0.0
  0
TEXT
  5
3F4F
330
1E
100
AcDbEntity
  8
BORDER
100
AcDbText
 10
14.13838683215874
 20
0.3538095471564908
 30
0.0
 40
0.08
  1
SIZE   SHEET         OF     
  7
ROMANS
100
AcDbText
  0
TEXT
  5
3F50
330
1E
100
AcDbEntity
  8
BORDER
100
AcDbText
 10
14.15686668632682
 20
1.340125519652666
 30
0.0
 40
0.06
  1
THIS DRAWING IS PROPERTY OF
100
AcDbText
  0
TEXT
  5
3F51
330
1E
100
AcDbEntity
  8
BORDER
100
AcDbText
 10
14.15686668632682
 20
1.040125519652654
 30
0.0
 40
0.06
  1
AS AUTHORIZED IN WRITING BY
100
AcDbText
  0
TEXT
  5
3F52
330
1E
100
AcDbEntity
  8
BORDER
100
AcDbText
 10
14.15686668632682
 20
0.9401255196526605
 30
0.0
 40
0.06
  1
ROCKWELL AUTOMATION.
100
AcDbText
  0
TEXT
  5
3F53
330
1E
100
AcDbEntity
  8
BORDER
100
AcDbText
 10
13.1261292903136
 20
0.3963337397533344
 30
0.0
 40
0.09375
  1
10/11/06
  7
ROMANS
100
AcDbText
  0
TEXT
  5
3F54
330
1E
100
AcDbEntity
  8
BORDER
100
AcDbText
 10
14.13838683215874
 20
0.7411669347464205
 30
0.0
 40
0.06
  1
DWG.
  7
ROMANS
100
AcDbText
  0
TEXT
  5
3F55
330
1E
100
AcDbEntity
  8
BORDER
100
AcDbText
 10
14.13838683215874
 20
0.6078336014130948
 30
0.0
 40
0.06
  1
NO.
  7
ROMANS
100
AcDbText
  0
LINE
  5
3F57
330
1E
100
AcDbEntity
  8
BORDER
 62
     7
100
AcDbLine
 10
16.16423529139655
 20
0.8813526737798476
 30
0.0
 11
16.16423529139655
 21
0.5013329898443751
 31
0.0
  0
TEXT
  5
3F58
330
1E
100
AcDbEntity
  8
BORDER
100
AcDbText
 10
16.2988682206034
 20
0.5895054857508378
 30
0.0
 40
0.1
  1
1
  7
ROMANS
 72
     1
 11
16.33934441107959
 21
0.5895054857508378
 31
0.0
100
AcDbText
  0
ARC
  5
42EF
330
1E
100
AcDbEntity
  8
OBJECT
 62
     7
100
AcDbCircle
 10
9.949086981120087
 20
4.09601644752237
 30
0.0
 40
0.1975390280867369
100
AcDbArc
 50
270.0
 51
0.0
  0
ARC
  5
42F1
330
1E
100
AcDbEntity
  8
OBJECT
 62
     7
100
AcDbCircle
 10
9.949086981120087
 20
4.491094503695848
 30
0.0
 40
0.1975390280867369
100
AcDbArc
 50
0.0
 51
90.0
  0
LINE
  5
42F6
330
1E
100
AcDbEntity
  8
OBJECT
 62
     7
100
AcDbLine
 10
10.1663799120155
 20
5.083709177979914
 30
0.0
 11
9.336715994051203
 21
5.083709177979914
 31
0.0
  0
LINE
  5
42F8
330
1E
100
AcDbEntity
  8
CENTER
 62
     3
100
AcDbLine
 10
9.190367233653644
 20
4.293543417826834
 30
0.0
 11
10.32628355952276
 21
4.293543417826834
 31
0.0
  0
LINE
  5
4396
330
1E
100
AcDbEntity
  8
CENTER
 62
     3
100
AcDbLine
 10
9.751547953033345
 20
6.888442506667241
 30
0.0
 11
9.751547953033345
 21
3.836859805249725
 31
0.0
  0
LINE
  5
43BE
330
1E
100
AcDbEntity
  8
OBJECT
 62
     7
100
AcDbLine
 10
9.356469896859882
 20
4.491094503695848
 30
0.0
 11
9.356469896859882
 21
4.09601644752237
 31
0.0
  0
CIRCLE
  5
43BF
330
1E
100
AcDbEntity
  8
OBJECT
 62
     7
100
AcDbCircle
 10
9.751547953033345
 20
4.293543417826834
 30
0.0
 40
0.2370468337040843
  0
CIRCLE
  5
43C0
330
1E
100
AcDbEntity
  8
OBJECT
 62
     7
100
AcDbCircle
 10
9.751547953033345
 20
4.293543417826834
 30
0.0
 40
0.2963085421301054
  0
ARC
  5
43C2
330
1E
100
AcDbEntity
  8
OBJECT
 62
     7
100
AcDbCircle
 10
9.554008924946611
 20
4.09601644752237
 30
0.0
 40
0.1975390280867369
100
AcDbArc
 50
180.0
 51
270.0
  0
LINE
  5
43C3
330
1E
100
AcDbEntity
  8
OBJECT
 62
     7
100
AcDbLine
 10
9.554008924946611
 20
3.898477419435642
 30
0.0
 11
9.949086981120087
 21
3.898477419435642
 31
0.0
  0
CIRCLE
  5
43C8
330
1E
100
AcDbEntity
  8
OBJECT
 62
     7
100
AcDbCircle
 10
9.751547953033345
 20
4.293543417826834
 30
0.0
 40
0.1185234168520421
  0
LINE
  5
43C9
330
1E
100
AcDbEntity
  8
OBJECT
 62
     7
100
AcDbLine
 10
9.322888021087514
 20
5.064864057420736
 30
0.0
 11
9.322888021087514
 21
4.491092694238353
 31
0.0
  0
LINE
  5
43CA
330
1E
100
AcDbEntity
  8
OBJECT
 62
     7
100
AcDbLine
 10
9.554008924946611
 20
4.688633531782585
 30
0.0
 11
9.949086981120087
 21
4.688633531782585
 31
0.0
  0
LINE
  5
43CB
330
1E
100
AcDbEntity
  8
OBJECT
 62
     7
100
AcDbLine
 10
9.405854653881563
 20
4.945431858319203
 30
0.0
 11
10.09724125218514
 21
4.945431858319203
 31
0.0
  0
LINE
  5
43CC
330
1E
100
AcDbEntity
  8
OBJECT
 62
     7
100
AcDbLine
 10
9.593516730563958
 20
4.89406375019382
 30
0.0
 11
9.909579175502738
 21
4.89406375019382
 31
0.0
  0
LINE
  5
43CD
330
1E
100
AcDbEntity
  8
OBJECT
 62
     7
100
AcDbLine
 10
9.405854653881563
 20
4.937530415719146
 30
0.0
 11
9.534255022137937
 21
4.937530415719146
 31
0.0
  0
LINE
  5
43CE
330
1E
100
AcDbEntity
  8
OBJECT
 62
     7
100
AcDbLine
 10
9.534255022137937
 20
4.781466567396865
 30
0.0
 11
9.593516730563958
 21
4.781466567396865
 31
0.0
  0
LINE
  5
43CF
330
1E
100
AcDbEntity
  8
OBJECT
 62
     7
100
AcDbLine
 10
9.534255022137937
 20
4.761712664588191
 30
0.0
 11
9.593516730563958
 21
4.761712664588191
 31
0.0
  0
ARC
  5
43D0
330
1E
100
AcDbEntity
  8
OBJECT
 62
     7
100
AcDbCircle
 10
9.554008924946611
 20
4.491094503695848
 30
0.0
 40
0.1975390280867369
100
AcDbArc
 50
90.0
 51
180.0
  0
LINE
  5
43D1
330
1E
100
AcDbEntity
  8
OBJECT
 62
     7
100
AcDbLine
 10
9.322888021087514
 20
4.491092694238353
 30
0.0
 11
9.356469896859882
 21
4.491092694238353
 31
0.0
  0
LINE
  5
43D2
330
1E
100
AcDbEntity
  8
OBJECT
 62
     7
100
AcDbLine
 10
9.554008924946611
 20
4.834802041767797
 30
0.0
 11
9.554008924946611
 21
4.781466567396865
 31
0.0
  0
LINE
  5
43D3
330
1E
100
AcDbEntity
  8
OBJECT
 62
     7
100
AcDbLine
 10
9.593516730563958
 20
4.89406375019382
 30
0.0
 11
9.554008924946611
 21
4.834802041767797
 31
0.0
  0
LINE
  5
43D4
330
1E
100
AcDbEntity
  8
OBJECT
 62
     7
100
AcDbLine
 10
9.593516730563958
 20
4.781466567396865
 30
0.0
 11
9.593516730563958
 21
4.688633531782585
 31
0.0
  0
LINE
  5
43D5
330
1E
100
AcDbEntity
  8
OBJECT
 62
     7
100
AcDbLine
 10
9.405854653881563
 20
4.945431858319203
 30
0.0
 11
9.405854653881563
 21
4.621754319404702
 31
0.0
  0
LINE
  5
43D6
330
1E
100
AcDbEntity
  8
OBJECT
 62
     7
100
AcDbLine
 10
9.534255022137948
 20
4.937530415719146
 30
0.0
 11
9.534255022137948
 21
4.687642458724765
 31
0.0
  0
LINE
  5
43D7
330
1E
100
AcDbEntity
  8
OBJECT
 62
     7
100
AcDbLine
 10
9.968840883928763
 20
4.937530415719146
 30
0.0
 11
10.09724125218514
 21
4.937530415719146
 31
0.0
  0
LINE
  5
43D8
330
1E
100
AcDbEntity
  8
OBJECT
 62
     7
100
AcDbLine
 10
9.909579175502738
 20
4.781466567396865
 30
0.0
 11
9.968840883928763
 21
4.781466567396865
 31
0.0
  0
LINE
  5
43D9
330
1E
100
AcDbEntity
  8
OBJECT
 62
     7
100
AcDbLine
 10
9.909579175502738
 20
4.761712664588191
 30
0.0
 11
9.968840883928763
 21
4.761712664588191
 31
0.0
  0
LINE
  5
43DA
330
1E
100
AcDbEntity
  8
OBJECT
 62
     7
100
AcDbLine
 10
9.949086981120087
 20
4.834802041767797
 30
0.0
 11
9.949086981120087
 21
4.781466567396865
 31
0.0
  0
LINE
  5
43DB
330
1E
100
AcDbEntity
  8
OBJECT
 62
     7
100
AcDbLine
 10
9.909579175502738
 20
4.89406375019382
 30
0.0
 11
9.949086981120087
 21
4.834802041767797
 31
0.0
  0
LINE
  5
43DC
330
1E
100
AcDbEntity
  8
OBJECT
 62
     7
100
AcDbLine
 10
9.909579175502738
 20
4.781466567396865
 30
0.0
 11
9.909579175502738
 21
4.688633531782585
 31
0.0
  0
LINE
  5
43DD
330
1E
100
AcDbEntity
  8
OBJECT
 62
     7
100
AcDbLine
 10
9.668581320239312
 20
4.688633531782585
 30
0.0
 11
9.810805442025728
 21
4.688633531782585
 31
0.0
  0
LINE
  5
43DE
330
1E
100
AcDbEntity
  8
OBJECT
 62
     7
100
AcDbLine
 10
10.09724125218514
 20
4.945431858319203
 30
0.0
 11
10.09724125218514
 21
4.621754319404702
 31
0.0
  0
LINE
  5
43DF
330
1E
100
AcDbEntity
  8
OBJECT
 62
     7
100
AcDbLine
 10
9.968840883928763
 20
4.937530415719146
 30
0.0
 11
9.968840883928763
 21
4.687642458724765
 31
0.0
  0
ARC
  5
43E2
330
1E
100
AcDbEntity
  8
OBJECT
 62
     7
100
AcDbCircle
 10
9.342641923896195
 20
5.064864057420736
 30
0.0
 40
0.0197539028086737
100
AcDbArc
 50
107.4576034999999
 51
180.0
  0
LINE
  5
4400
330
1E
100
AcDbEntity
  8
OBJECT
 62
     7
100
AcDbLine
 10
10.14662600920682
 20
4.491094503695848
 30
0.0
 11
10.14662600920682
 21
4.09601644752237
 31
0.0
  0
LINE
  5
4405
330
1E
100
AcDbEntity
  8
OBJECT
 62
     7
100
AcDbLine
 10
10.18020728050976
 20
5.064864057420736
 30
0.0
 11
10.18020728050976
 21
4.491092694238353
 31
0.0
  0
LINE
  5
4406
330
1E
100
AcDbEntity
  8
OBJECT
 62
     7
100
AcDbLine
 10
10.14662600920682
 20
4.491092694238353
 30
0.0
 11
10.18020728050976
 21
4.491092694238353
 31
0.0
  0
ARC
  5
4409
330
1E
100
AcDbEntity
  8
OBJECT
 62
     7
100
AcDbCircle
 10
10.16045337770108
 20
5.064864057420736
 30
0.0
 40
0.0197539028086737
100
AcDbArc
 50
0.0
 51
72.54221339999997
  0
LINE
  5
44E5
330
1E
100
AcDbEntity
  8
DIM
 62
     1
100
AcDbLine
 10
9.322888021087514
 20
4.428592694238353
 30
0.0
 11
9.322888021087514
 21
3.163049116941216
 31
0.0
  0
LINE
  5
44E6
330
1E
100
AcDbEntity
  8
DIM
 62
     1
100
AcDbLine
 10
10.18020728050976
 20
4.428592694238353
 30
0.0
 11
10.18020728050976
 21
3.935694950316563
 31
0.0
  0
LINE
  5
44E7
330
1E
100
AcDbEntity
  8
DIM
 62
     1
100
AcDbLine
 10
9.472888021087515
 20
3.225549116941216
 30
0.0
 11
9.564399463864411
 21
3.225549116941216
 31
0.0
  0
SOLID
  5
44E9
330
1E
100
AcDbEntity
  8
DIM
 62
     1
100
AcDbTrace
 10
9.472888021087515
 20
3.250549116941217
 30
0.0
 11
9.472888021087515
 21
3.200549116941216
 31
0.0
 12
9.322888021087514
 22
3.225549116941216
 32
0.0
 13
9.322888021087514
 23
3.225549116941216
 33
0.0
  0
SOLID
  5
44EA
330
1E
100
AcDbEntity
  8
DIM
 62
     1
100
AcDbTrace
 10
10.03020728050976
 20
3.250549116941217
 30
0.0
 11
10.03020728050976
 21
3.200549116941216
 31
0.0
 12
10.18020728050976
 22
3.225549116941216
 32
0.0
 13
10.18020728050976
 23
3.225549116941216
 33
0.0
  0
MTEXT
  5
44EB
330
1E
100
AcDbEntity
  8
DIM
 62
     7
100
AcDbMText
 10
9.770914680619299
 20
3.225549116941216
 30
0.0
 40
0.09
 41
0.0
 71
     5
 72
     1
  1
21.7\P[.854]
 73
     1
 44
1.0
1001
ACAD
1000
MTEXTBEGIN
1070
    73
1070
     1
1070
    44
1040
1.0
1070
    74
1070
     0
1000
MTEXTEND
  0
LINE
  5
44EC
330
1E
100
AcDbEntity
  8
DIM
 62
     1
100
AcDbLine
 10
9.356469896859874
 20
4.03351644752237
 30
0.0
 11
9.356469896859874
 21
3.532714069527109
 31
0.0
  0
LINE
  5
44ED
330
1E
100
AcDbEntity
  8
DIM
 62
     1
100
AcDbLine
 10
10.14662600920682
 20
4.03351644752237
 30
0.0
 11
10.14662600920682
 21
3.935694950316563
 31
0.0
  0
LINE
  5
44EE
330
1E
100
AcDbEntity
  8
DIM
 62
     1
100
AcDbLine
 10
9.506469896859874
 20
3.595214069527109
 30
0.0
 11
9.601547953033348
 21
3.595214069527109
 31
0.0
  0
LINE
  5
44EF
330
1E
100
AcDbEntity
  8
DIM
 62
     1
100
AcDbLine
 10
9.996626009206824
 20
3.595214069527109
 30
0.0
 11
9.901547953033349
 21
3.595214069527109
 31
0.0
  0
SOLID
  5
44F0
330
1E
100
AcDbEntity
  8
DIM
 62
     1
100
AcDbTrace
 10
9.506469896859874
 20
3.62021406952711
 30
0.0
 11
9.506469896859874
 21
3.570214069527109
 31
0.0
 12
9.356469896859874
 22
3.595214069527109
 32
0.0
 13
9.356469896859874
 23
3.595214069527109
 33
0.0
  0
SOLID
  5
44F1
330
1E
100
AcDbEntity
  8
DIM
 62
     1
100
AcDbTrace
 10
9.996626009206824
 20
3.62021406952711
 30
0.0
 11
9.996626009206824
 21
3.570214069527109
 31
0.0
 12
10.14662600920682
 22
3.595214069527109
 32
0.0
 13
10.14662600920682
 23
3.595214069527109
 33
0.0
  0
MTEXT
  5
44F2
330
1E
100
AcDbEntity
  8
DIM
 62
     7
100
AcDbMText
 10
9.751547953033348
 20
3.595214069527109
 30
0.0
 40
0.09
 41
0.0
 71
     5
 72
     1
  1
21\P[.827]
 73
     1
 44
1.0
1001
ACAD
1000
MTEXTBEGIN
1070
    73
1070
     1
1070
    44
1040
1.0
1070
    74
1070
     0
1000
MTEXTEND
  0
LINE
  5
44F3
330
1E
100
AcDbEntity
  8
DIM
 62
     1
100
AcDbLine
 10
9.963652564918945
 20
3.225549116941216
 30
0.0
 11
10.03020728050976
 21
3.225549116941216
 31
0.0
  0
LEADER
  5
44F4
330
1E
100
AcDbEntity
  8
DIM
100
AcDbLeader
  3
Standard
 76
     3
 10
10.07775957526023
 20
3.945422982881577
 30
0.0
 10
10.41371646883248
 20
3.595214069527109
 30
0.0
 10
10.55004678587423
 20
3.595214069527109
 30
0.0
1001
ACAD
1000
DSTYLE
1002
{
1070
   147
1040
0.09
1070
    77
1070
     0
1002
}
  0
MTEXT
  5
44F5
330
1E
100
AcDbEntity
  8
DIM
 62
     7
100
AcDbMText
 10
11.09337565857316
 20
3.51286446873177
 30
0.0
 40
0.09
 41
0.0
 71
     5
 72
     1
  1
SEAL RUBBER\P(NBR)
 73
     1
 44
1.0
1001
ACAD
1000
MTEXTBEGIN
1070
    73
1070
     1
1070
    44
1040
1.0
1070
    74
1070
     0
1000
MTEXTEND
  0
LINE
  5
44F6
330
1E
100
AcDbEntity
  8
DIM
 62
     1
100
AcDbLine
 10
10.14662600920682
 20
3.780046558769356
 30
0.0
 11
10.14662600920682
 21
3.532714069527109
 31
0.0
  0
LINE
  5
44F7
330
1E
100
AcDbEntity
  8
DIM
 62
     1
100
AcDbLine
 10
10.18020728050976
 20
3.755726477356822
 30
0.0
 11
10.18020728050976
 21
3.163049116941216
 31
0.0
  0
LEADER
  5
4513
330
1E
100
AcDbEntity
  8
DIM
100
AcDbLeader
  3
Standard
 76
     3
 10
9.858072017618155
 20
4.23040857420823
 30
0.0
 10
10.42068887412016
 20
3.956715886624046
 30
0.0
 10
10.55278154683174
 20
3.956715886624046
 30
0.0
1001
ACAD
1000
DSTYLE
1002
{
1070
   147
1040
0.09
1070
    77
1070
     0
1002
}
  0
MTEXT
  5
4514
330
1E
100
AcDbEntity
  8
DIM
 62
     7
100
AcDbMText
 10
11.16186814590389
 20
3.962502385181014
 30
0.0
 40
0.09
 41
0.0
 71
     5
 72
     1
  1
INTERNAL \PCABLE OPENING 
 73
     1
 44
1.0
1001
ACAD
1000
MTEXTBEGIN
1070
    73
1070
     1
1070
    44
1040
1.0
1070
    74
1070
     0
1000
MTEXTEND
  0
MTEXT
  5
4515
330
1E
100
AcDbEntity
  8
DIM
 62
     7
100
AcDbMText
 10
12.03626159670349
 20
3.968283237842932
 30
0.0
 40
0.09
 41
0.0
 71
     5
 72
     1
  1
11\P[.433]
 73
     1
 44
1.0
1001
ACAD
1000
MTEXTBEGIN
1070
    73
1070
     1
1070
    44
1040
1.0
1070
    74
1070
     0
1000
MTEXTEND
  0
MTEXT
  5
4516
330
1E
100
AcDbEntity
  8
DIM
 62
     7
100
AcDbMText
 10
12.42897913551925
 20
3.983681018070914
 30
0.0
 40
0.09
 41
0.0
 71
     5
 72
     1
  1
DIA
 73
     1
 44
1.0
1001
ACAD
1000
MTEXTBEGIN
1070
    73
1070
     1
1070
    44
1040
1.0
1070
    74
1070
     0
1000
MTEXTEND
  0
LINE
  5
485F
330
1E
100
AcDbEntity
  8
CENTER
 62
     3
100
AcDbLine
 10
9.190367233653644
 20
4.687775544283899
 30
0.0
 11
10.32628355952276
 21
4.687775544283899
 31
0.0
  0
LINE
  5
49B2
330
1E
100
AcDbEntity
  8
OBJECT
 62
     7
100
AcDbLine
 10
10.14471676525717
 20
5.447442723560742
 30
0.0
 11
9.35837914080951
 21
5.447442723560742
 31
0.0
  0
LINE
  5
49B3
330
1E
100
AcDbEntity
  8
OBJECT
 62
     7
100
AcDbLine
 10
9.338720700198322
 20
5.427784282949549
 30
0.0
 11
9.338720700198322
 21
5.083709177979913
 31
0.0
  0
ARC
  5
49D6
330
1E
100
AcDbEntity
  8
OBJECT
 62
     7
100
AcDbCircle
 10
9.35837914080951
 20
5.427784282949549
 30
0.0
 40
0.0196584406111915
100
AcDbArc
 50
90.0
 51
180.0
  0
LINE
  5
4A1C
330
1E
100
AcDbEntity
  8
OBJECT
 62
     7
100
AcDbLine
 10
10.16437520586836
 20
5.427784282949549
 30
0.0
 11
10.16437520586836
 21
5.083709177979913
 31
0.0
  0
ARC
  5
4A23
330
1E
100
AcDbEntity
  8
OBJECT
 62
     7
100
AcDbCircle
 10
10.14471676525717
 20
5.427784282949549
 30
0.0
 40
0.0196584406111915
100
AcDbArc
 50
0.0
 51
90.0
  0
LEADER
  5
4A31
330
1E
100
AcDbEntity
  8
DIM
100
AcDbLeader
  3
Standard
 76
     3
 10
9.803349259804583
 20
6.783495200293035
 30
0.0
 10
10.30349843237732
 20
7.381428602427003
 30
0.0
 10
10.4428842955158
 20
7.381428602427003
 30
0.0
1001
ACAD
1000
DSTYLE
1002
{
1070
   147
1040
0.09
1070
    77
1070
     0
1002
}
  0
MTEXT
  5
4A32
330
1E
100
AcDbEntity
  8
DIM
 62
     7
100
AcDbMText
 10
11.34244783512333
 20
7.309917253624224
 30
0.0
 40
0.09
 41
0.0
 71
     5
 72
     1
  1
12.7 DIA x 7.5 WIDTH\P[.500 DIA X .295 WIDTH]
 73
     1
 44
1.0
1001
ACAD
1000
MTEXTBEGIN
1070
    73
1070
     1
1070
    44
1040
1.0
1070
    74
1070
     0
1000
MTEXTEND
  0
LINE
  5
4B12
330
1E
100
AcDbEntity
  8
OBJECT
 62
     7
100
AcDbLine
 10
3.416203050878053
 20
5.816371061926394
 30
0.0
 11
4.083651140857217
 21
5.816371061926394
 31
0.0
  0
LINE
  5
4B13
330
1E
100
AcDbEntity
  8
OBJECT
 62
     7
100
AcDbLine
 10
4.083651140857217
 20
5.816371061926394
 30
0.0
 11
6.049948534825989
 21
5.816371061926394
 31
0.0
  0
LINE
  5
4B14
330
1E
100
AcDbEntity
  8
OBJECT
 62
     7
100
AcDbLine
 10
3.400355067154618
 20
5.711434690969023
 30
0.0
 11
3.400355067154618
 21
5.815297153049737
 31
0.0
  0
LINE
  5
4B15
330
1E
100
AcDbEntity
  8
OBJECT
 62
     7
100
AcDbLine
 10
3.737043499598582
 20
5.698777781227061
 30
0.0
 11
4.65468324566267
 21
5.698777781227061
 31
0.0
  0
ARC
  5
4B16
330
1E
100
AcDbEntity
  8
OBJECT
 62
     7
100
AcDbCircle
 10
4.65468324566267
 20
5.718376661343619
 30
0.0
 40
0.0195988801165553
100
AcDbArc
 50
270.0
 51
0.0
  0
ARC
  5
4B17
330
1E
100
AcDbEntity
  8
OBJECT
 62
     7
100
AcDbCircle
 10
4.752677646245448
 20
5.737975541460172
 30
0.0
 40
0.0783955204662213
100
AcDbArc
 50
90.00005339999999
 51
180.0
  0
LINE
  5
4B18
330
1E
100
AcDbEntity
  8
OBJECT
 62
     7
100
AcDbLine
 10
4.674282125779225
 20
5.718376661343619
 30
0.0
 11
4.674282125779225
 21
5.737975541460172
 31
0.0
  0
LINE
  5
4B19
330
1E
100
AcDbEntity
  8
OBJECT
 62
     7
100
AcDbLine
 10
6.402729274552693
 20
5.777173301693288
 30
0.0
 11
4.68478524402921
 21
5.777173301693288
 31
0.0
  0
LINE
  5
4B1A
330
1E
100
AcDbEntity
  8
OBJECT
 62
     7
100
AcDbLine
 10
6.049948534825989
 20
6.118193694208294
 30
0.0
 11
6.049948534825989
 21
5.816371061926394
 31
0.0
  0
LINE
  5
4B1B
330
1E
100
AcDbEntity
  8
OBJECT
 62
     7
100
AcDbLine
 10
6.402729274552693
 20
5.941803773159292
 30
0.0
 11
6.402729274552693
 21
5.777173301693288
 31
0.0
  0
ARC
  5
4B1C
330
1E
100
AcDbEntity
  8
OBJECT
 62
     7
100
AcDbCircle
 10
6.226339353503696
 20
6.118193694208294
 30
0.0
 40
0.1763899210489978
100
AcDbArc
 50
180.0
 51
270.0
  0
ARC
  5
4B1D
330
1E
100
AcDbEntity
  8
OBJECT
 62
     7
100
AcDbCircle
 10
6.226339353503696
 20
6.118193694208294
 30
0.0
 40
0.1763899210489978
100
AcDbArc
 50
180.0
 51
270.0
  0
LINE
  5
4B1E
330
1E
100
AcDbEntity
  8
OBJECT
 62
     7
100
AcDbLine
 10
6.226339353503696
 20
5.941803773159292
 30
0.0
 11
6.453686480449018
 21
5.941803773159292
 31
0.0
  0
LINE
  5
4B1F
330
1E
100
AcDbEntity
  8
OBJECT
 62
     7
100
AcDbLine
 10
6.226339353503696
 20
5.941803773159292
 30
0.0
 11
6.453686480449018
 21
5.941803773159292
 31
0.0
  0
LINE
  5
4B20
330
1E
100
AcDbEntity
  8
CENTER
 62
     3
100
AcDbLine
 10
5.972337733920755
 20
6.510171296539398
 30
0.0
 11
6.492441341269478
 21
6.510171296539398
 31
0.0
  0
ARC
  5
4B21
330
1E
100
AcDbEntity
  8
OBJECT
 62
     7
100
AcDbCircle
 10
6.226339353503696
 20
6.510171296539398
 30
0.0
 40
0.1763899210489978
100
AcDbArc
 50
0.0
 51
180.0
  0
ARC
  5
4B22
330
1E
100
AcDbEntity
  8
OBJECT
 62
     7
100
AcDbCircle
 10
6.226339353503696
 20
6.510171296539398
 30
0.0
 40
0.246945897308149
100
AcDbArc
 50
315.5846863
 51
224.4152985
  0
ARC
  5
4B23
330
1E
100
AcDbEntity
  8
OBJECT
 62
     7
100
AcDbCircle
 10
6.226339353503696
 20
6.510171296539398
 30
0.0
 40
0.2273470171915938
100
AcDbArc
 50
320.8833008
 51
219.1166992
  0
LINE
  5
4B24
330
1E
100
AcDbEntity
  8
OBJECT
 62
     7
100
AcDbLine
 10
6.049948534825989
 20
6.353380255606954
 30
0.0
 11
6.402729274552693
 21
6.353380255606954
 31
0.0
  0
LINE
  5
4B25
330
1E
100
AcDbEntity
  8
OBJECT
 62
     7
100
AcDbLine
 10
6.049948534825989
 20
6.298503630386937
 30
0.0
 11
6.402729274552693
 21
6.298503630386937
 31
0.0
  0
LINE
  5
4B26
330
1E
100
AcDbEntity
  8
OBJECT
 62
     7
100
AcDbLine
 10
6.049948534825989
 20
6.298503630386937
 30
0.0
 11
6.402729274552693
 21
6.298503630386937
 31
0.0
  0
CIRCLE
  5
4B27
330
1E
100
AcDbEntity
  8
OBJECT
 62
     7
100
AcDbCircle
 10
6.226339353503696
 20
6.510171296539398
 30
0.0
 40
0.1175932806993319
  0
ARC
  5
4B28
330
1E
100
AcDbEntity
  8
OBJECT
 62
     7
100
AcDbCircle
 10
6.05379699981704
 20
6.81267961303128
 30
0.0
 40
0.2966313166548555
100
AcDbArc
 50
343.8315687676057
 51
255.5672349323945
  0
LINE
  5
4B29
330
1E
100
AcDbEntity
  8
OBJECT
 62
     7
100
AcDbLine
 10
6.049948534825989
 20
6.118193694208294
 30
0.0
 11
6.049948534825989
 21
6.510171296539398
 31
0.0
  0
CIRCLE
  5
4B2A
330
1E
100
AcDbEntity
  8
OBJECT
 62
     7
100
AcDbCircle
 10
6.226339353503696
 20
6.118193694208294
 30
0.0
 40
0.1175932806993319
  0
CIRCLE
  5
4B2B
330
1E
100
AcDbEntity
  8
OBJECT
 62
     7
100
AcDbCircle
 10
6.226339353503696
 20
6.118193694208294
 30
0.0
 40
0.1175932806993319
  0
LINE
  5
4B2D
330
1E
100
AcDbEntity
  8
OBJECT
 62
     7
100
AcDbLine
 10
6.402729274552693
 20
6.255385855024174
 30
0.0
 11
6.402729274552693
 21
6.510171296539398
 31
0.0
  0
LINE
  5
4B2E
330
1E
100
AcDbEntity
  8
OBJECT
 62
     7
100
AcDbLine
 10
6.402729274552693
 20
6.255385855024174
 30
0.0
 11
6.453686480449018
 21
6.255385855024174
 31
0.0
  0
LINE
  5
4B2F
330
1E
100
AcDbEntity
  8
OBJECT
 62
     7
100
AcDbLine
 10
6.402729274552693
 20
6.255385855024174
 30
0.0
 11
6.453686480449018
 21
6.255385855024174
 31
0.0
  0
LINE
  5
4B30
330
1E
100
AcDbEntity
  8
OBJECT
 62
     7
100
AcDbLine
 10
6.453686480449018
 20
5.941803773159292
 30
0.0
 11
6.453686480449018
 21
6.255385855024174
 31
0.0
  0
LINE
  5
4B31
330
1E
100
AcDbEntity
  8
OBJECT
 62
     7
100
AcDbLine
 10
6.453686480449018
 20
5.941803773159292
 30
0.0
 11
6.453686480449018
 21
6.255385855024174
 31
0.0
  0
LINE
  5
4B32
330
1E
100
AcDbEntity
  8
CENTER
 62
     3
100
AcDbLine
 10
5.834360853543882
 20
6.480878982585347
 30
0.0
 11
5.834360853543882
 21
5.765182820309492
 31
0.0
  0
ARC
  5
4B33
330
1E
100
AcDbEntity
  8
OBJECT
 62
     7
100
AcDbCircle
 10
5.834360853543882
 20
6.118193694208294
 30
0.0
 40
0.246945897308149
100
AcDbArc
 50
29.18899919999999
 51
330.8110045999999
  0
LINE
  5
4B34
330
1E
100
AcDbEntity
  8
OBJECT
 62
     7
100
AcDbLine
 10
5.774731641007536
 20
5.777173301693288
 30
0.0
 11
5.774731641007536
 21
5.816371061926394
 31
0.0
  0
CIRCLE
  5
4B35
330
1E
100
AcDbEntity
  8
OBJECT
 62
     7
100
AcDbCircle
 10
5.834360853543882
 20
6.118193694208294
 30
0.0
 40
0.1175932806993319
  0
LINE
  5
4B36
330
1E
100
AcDbEntity
  8
CENTER
 62
     3
100
AcDbLine
 10
6.22646223626991
 20
7.199752000113099
 30
0.0
 11
6.226339353503696
 21
5.993255019786043
 31
0.0
  0
LINE
  5
4B37
330
1E
100
AcDbEntity
  8
CENTER
 62
     3
100
AcDbLine
 10
4.521238245693357
 20
6.118193694208294
 30
0.0
 11
6.492441341269478
 21
6.118193694208294
 31
0.0
  0
LINE
  5
4B3A
330
1E
100
AcDbEntity
  8
FORM
 62
     1
100
AcDbLine
 10
3.517948347853952
 20
5.581184500527733
 30
0.0
 11
3.904899285228731
 21
5.890622426965654
 31
0.0
  0
CIRCLE
  5
4B3B
330
1E
100
AcDbEntity
  8
OBJECT
 62
     7
100
AcDbCircle
 10
3.517948347853952
 20
5.581184500527733
 30
0.0
 40
0.058796640349666
  0
ARC
  5
4B3E
330
1E
100
AcDbEntity
  8
OBJECT
 62
     7
100
AcDbCircle
 10
3.416203050878053
 20
5.698777781227061
 30
0.0
 40
0.1175932806993319
100
AcDbArc
 50
90.0
 51
181.4999999999999
  0
LINE
  5
4B3F
330
1E
100
AcDbEntity
  8
OBJECT
 62
     7
100
AcDbLine
 10
3.306289058262855
 20
5.401306100331042
 30
0.0
 11
3.298576126741112
 21
5.695696911748486
 31
0.0
  0
LINE
  5
4B40
330
1E
100
AcDbEntity
  8
OBJECT
 62
     7
100
AcDbLine
 10
3.345472762179145
 20
5.402333054210719
 30
0.0
 11
3.306289058262855
 21
5.401306100331042
 31
0.0
  0
LINE
  5
4B41
330
1E
100
AcDbEntity
  8
OBJECT
 62
     7
100
AcDbLine
 10
3.381392280451574
 20
5.669571753504605
 30
0.0
 11
3.34178376688898
 21
5.36125393867858
 31
0.0
  0
ARC
  5
4B42
330
1E
100
AcDbEntity
  8
OBJECT
 62
     7
100
AcDbCircle
 10
3.459151707504286
 20
5.659580020993955
 30
0.0
 40
0.0783955204662213
100
AcDbArc
 50
90.0
 51
172.759201
  0
LINE
  5
4B43
330
1E
100
AcDbEntity
  8
OBJECT
 62
     7
100
AcDbLine
 10
3.459151707504286
 20
5.737975541460172
 30
0.0
 11
3.596343868320174
 21
5.737975541460172
 31
0.0
  0
ARC
  5
4B44
330
1E
100
AcDbEntity
  8
OBJECT
 62
     7
100
AcDbCircle
 10
3.416130527182069
 20
5.698777781227061
 30
0.0
 40
0.0783955204662213
100
AcDbArc
 50
101.610199
 51
181.4999999999999
  0
LINE
  5
4B45
330
1E
100
AcDbEntity
  8
OBJECT
 62
     7
100
AcDbLine
 10
3.337831452804902
 20
5.696723869547935
 30
0.0
 11
3.400355067154618
 21
5.760906191998786
 31
0.0
  0
ARC
  5
4B46
330
1E
100
AcDbEntity
  8
OBJECT
 62
     7
100
AcDbCircle
 10
3.517948347853952
 20
5.581184500527733
 30
0.0
 40
0.1567910409324425
100
AcDbArc
 50
152.0164032
 51
193.3415069999999
  0
LINE
  5
4B47
330
1E
100
AcDbEntity
  8
OBJECT
 62
     7
100
AcDbLine
 10
3.345472762179145
 20
5.402333054210719
 30
0.0
 11
3.337764016978194
 21
5.696653290060861
 31
0.0
  0
LINE
  5
4B49
330
1E
100
AcDbEntity
  8
OBJECT
 62
     7
100
AcDbLine
 10
4.064052260740661
 20
5.850316216454315
 30
0.0
 11
4.007073577232622
 21
5.817421640296164
 31
0.0
  0
LINE
  5
4B4A
330
1E
100
AcDbEntity
  8
OBJECT
 62
     7
100
AcDbLine
 10
4.083651140857217
 20
5.816371061926394
 30
0.0
 11
4.064052260740661
 21
5.850316216454315
 31
0.0
  0
LINE
  5
4B4B
330
1E
100
AcDbEntity
  8
OBJECT
 62
     7
100
AcDbLine
 10
9.987662116589923
 20
6.298128821990733
 30
0.0
 11
9.987662116589923
 21
5.940022100547185
 31
0.0
  0
LINE
  5
4B4C
330
1E
100
AcDbEntity
  8
OBJECT
 62
     7
100
AcDbLine
 10
9.515433789476762
 20
6.298128821990733
 30
0.0
 11
9.515433789476762
 21
5.940022100547185
 31
0.0
  0
LINE
  5
4B4D
330
1E
100
AcDbEntity
  8
OBJECT
 62
     7
100
AcDbLine
 10
9.59413851066229
 20
5.821965018768894
 30
0.0
 11
9.908957395404398
 21
5.821965018768894
 31
0.0
  0
LINE
  5
4B4E
330
1E
100
AcDbEntity
  8
OBJECT
 62
     7
100
AcDbLine
 10
9.997500206738115
 20
5.782612658176136
 30
0.0
 11
9.505595699328573
 21
5.782612658176136
 31
0.0
  0
LINE
  5
4B4F
330
1E
100
AcDbEntity
  8
OBJECT
 62
     7
100
AcDbLine
 10
9.836155288258385
 20
5.751130946787542
 30
0.0
 11
9.666940015717186
 21
5.751130946787542
 31
0.0
  0
LINE
  5
4B50
330
1E
100
AcDbEntity
  8
OBJECT
 62
     7
100
AcDbLine
 10
9.847815203810691
 20
5.756805384034636
 30
0.0
 11
9.651053400846874
 21
5.713513942656964
 31
0.0
  0
LINE
  5
4B51
330
1E
100
AcDbEntity
  8
OBJECT
 62
     7
100
AcDbLine
 10
9.655280104100119
 20
5.69429832271278
 30
0.0
 11
9.852041907063934
 21
5.737585860336277
 31
0.0
  0
LINE
  5
4B52
330
1E
100
AcDbEntity
  8
OBJECT
 62
     7
100
AcDbLine
 10
9.847815203810691
 20
5.670230308787633
 30
0.0
 11
9.651053400846874
 21
5.626942775099372
 31
0.0
  0
LINE
  5
4B53
330
1E
100
AcDbEntity
  8
OBJECT
 62
     7
100
AcDbLine
 10
9.655280104100119
 20
5.607726852142011
 30
0.0
 11
9.852041907063934
 21
5.651010486011344
 31
0.0
  0
LINE
  5
4B54
330
1E
100
AcDbEntity
  8
OBJECT
 62
     7
100
AcDbLine
 10
9.847815203810691
 20
5.583654938397934
 30
0.0
 11
9.651053400846874
 21
5.540367400774433
 31
0.0
  0
LINE
  5
4B55
330
1E
100
AcDbEntity
  8
OBJECT
 62
     7
100
AcDbLine
 10
9.655280104100119
 20
5.52114787707608
 30
0.0
 11
9.852041907063934
 21
5.564435414699577
 31
0.0
  0
LINE
  5
4B56
330
1E
100
AcDbEntity
  8
OBJECT
 62
     7
100
AcDbLine
 10
9.997500206738115
 20
5.782612658176136
 30
0.0
 11
9.505595699328573
 21
5.782612658176136
 31
0.0
  0
LINE
  5
4B57
330
1E
100
AcDbEntity
  8
OBJECT
 62
     7
100
AcDbLine
 10
9.515433789476762
 20
5.940022100547185
 30
0.0
 11
9.987662116589923
 21
5.940022100547185
 31
0.0
  0
LINE
  5
4B58
330
1E
100
AcDbEntity
  8
OBJECT
 62
     7
100
AcDbLine
 10
9.547879551059917
 20
5.684231756694229
 30
0.0
 11
9.948309755997163
 21
5.684231756694229
 31
0.0
  0
LINE
  5
4B59
330
1E
100
AcDbEntity
  8
OBJECT
 62
     7
100
AcDbLine
 10
9.810576493922491
 20
5.856044056790853
 30
0.0
 11
9.692519412144198
 21
5.856044056790853
 31
0.0
  0
LINE
  5
4B5A
330
1E
100
AcDbEntity
  8
OBJECT
 62
     7
100
AcDbLine
 10
9.666940015717186
 20
5.782612658176136
 30
0.0
 11
9.666940015717186
 21
5.751130946787542
 31
0.0
  0
CIRCLE
  5
4B5B
330
1E
100
AcDbEntity
  8
OBJECT
 62
     7
100
AcDbCircle
 10
9.653167051551433
 20
5.772774568027942
 30
0.0
 40
0.0098380901481909
  0
ARC
  5
4B5C
330
1E
100
AcDbEntity
  8
OBJECT
 62
     7
100
AcDbCircle
 10
9.751547953033345
 20
5.314319807171648
 30
0.0
 40
0.4682930753129412
100
AcDbArc
 50
100.4088973999999
 51
100.9108963
  0
ARC
  5
4B5D
330
1E
100
AcDbEntity
  8
OBJECT
 62
     7
100
AcDbCircle
 10
9.59413851066229
 20
5.841641199065279
 30
0.0
 40
0.0196761802963818
100
AcDbArc
 50
180.0
 51
270.0
  0
ARC
  5
4B5E
330
1E
100
AcDbEntity
  8
OBJECT
 62
     7
100
AcDbCircle
 10
9.692519412144198
 20
5.816691995276036
 30
0.0
 40
0.0393523605927635
100
AcDbArc
 50
90.0
 51
172.3007965
  0
CIRCLE
  5
4B5F
330
1E
100
AcDbEntity
  8
OBJECT
 62
     7
100
AcDbCircle
 10
9.653167051551433
 20
5.617332861743605
 30
0.0
 40
0.0098380901481909
  0
CIRCLE
  5
4B60
330
1E
100
AcDbEntity
  8
OBJECT
 62
     7
100
AcDbCircle
 10
9.653167051551433
 20
5.703907936990603
 30
0.0
 40
0.0098380901481909
  0
LINE
  5
4B61
330
1E
100
AcDbEntity
  8
OBJECT
 62
     7
100
AcDbLine
 10
9.610866986647529
 20
5.684231756694229
 30
0.0
 11
9.610866986647529
 21
5.712128660859379
 31
0.0
  0
LINE
  5
4B62
330
1E
100
AcDbEntity
  8
OBJECT
 62
     7
100
AcDbLine
 10
9.5731515071698
 20
5.684231756694229
 30
0.0
 11
9.565651041686484
 21
5.782612658176136
 31
0.0
  0
ARC
  5
4B63
330
1E
100
AcDbEntity
  8
OBJECT
 62
     7
100
AcDbCircle
 10
9.673823196137007
 20
5.712128660859379
 30
0.0
 40
0.0629637769484216
100
AcDbArc
 50
118.9710999
 51
180.0
  0
ARC
  5
4B64
330
1E
100
AcDbEntity
  8
OBJECT
 62
     7
100
AcDbCircle
 10
9.505595699328573
 20
5.755066123818281
 30
0.0
 40
0.0275466524149344
100
AcDbArc
 50
90.0
 51
180.0
  0
LINE
  5
4B65
330
1E
100
AcDbEntity
  8
OBJECT
 62
     7
100
AcDbLine
 10
9.505595699328573
 20
5.821965018768894
 30
0.0
 11
9.535109969773143
 21
5.821965018768894
 31
0.0
  0
LINE
  5
4B66
330
1E
100
AcDbEntity
  8
OBJECT
 62
     7
100
AcDbLine
 10
9.37770052740209
 20
5.743260297583367
 30
0.0
 11
9.417052887994856
 21
5.743260297583367
 31
0.0
  0
ARC
  5
4B67
330
1E
100
AcDbEntity
  8
OBJECT
 62
     7
100
AcDbCircle
 10
9.505595699328573
 20
5.755066123818281
 30
0.0
 40
0.0668990130076979
100
AcDbArc
 50
90.0
 51
180.0
  0
LINE
  5
4B68
330
1E
100
AcDbEntity
  8
OBJECT
 62
     7
100
AcDbLine
 10
9.516819071274351
 20
5.655229082678301
 30
0.0
 11
9.497906086724068
 21
5.585846951458146
 31
0.0
  0
LINE
  5
4B69
330
1E
100
AcDbEntity
  8
OBJECT
 62
     7
100
AcDbLine
 10
9.513997467667488
 20
5.64487939610146
 30
0.0
 11
9.478052769646952
 21
5.64487939610146
 31
0.0
  0
LINE
  5
4B6A
330
1E
100
AcDbEntity
  8
OBJECT
 62
     7
100
AcDbLine
 10
9.456405248587616
 20
5.585846951458146
 30
0.0
 11
9.497906086724068
 21
5.585846951458146
 31
0.0
  0
LINE
  5
4B6B
330
1E
100
AcDbEntity
  8
OBJECT
 62
     7
100
AcDbLine
 10
9.438700409054188
 20
5.64487939610146
 30
0.0
 11
9.436729068291237
 21
5.64487939610146
 31
0.0
  0
ARC
  5
4B6C
330
1E
100
AcDbEntity
  8
OBJECT
 62
     7
100
AcDbCircle
 10
9.456405248587616
 20
5.605523131754527
 30
0.0
 40
0.0196761802963818
100
AcDbArc
 50
180.0
 51
270.0
  0
LINE
  5
4B6D
330
1E
100
AcDbEntity
  8
OBJECT
 62
     7
100
AcDbLine
 10
9.438700409054188
 20
5.703907936990603
 30
0.0
 11
9.478052769646952
 21
5.703907936990603
 31
0.0
  0
ARC
  5
4B6E
330
1E
100
AcDbEntity
  8
OBJECT
 62
     7
100
AcDbCircle
 10
9.417052887994856
 20
5.723584117286987
 30
0.0
 40
0.0196761802963818
100
AcDbArc
 50
0.0
 51
90.0
  0
LINE
  5
4B6F
330
1E
100
AcDbEntity
  8
OBJECT
 62
     7
100
AcDbLine
 10
9.438700409054188
 20
5.755066123818281
 30
0.0
 11
9.438700409054188
 21
5.596948429466985
 31
0.0
  0
LINE
  5
4B70
330
1E
100
AcDbEntity
  8
OBJECT
 62
     7
100
AcDbLine
 10
9.478052769646952
 20
5.755066123818281
 30
0.0
 11
9.478052769646952
 21
5.585846951458146
 31
0.0
  0
ARC
  5
4B71
330
1E
100
AcDbEntity
  8
OBJECT
 62
     7
100
AcDbCircle
 10
9.37770052740209
 20
5.723584117286987
 30
0.0
 40
0.0196761802963818
100
AcDbArc
 50
90.0
 51
180.0
  0
ARC
  5
4B72
330
1E
100
AcDbEntity
  8
OBJECT
 62
     7
100
AcDbCircle
 10
9.554786150069528
 20
5.64487939610146
 30
0.0
 40
0.0393523605927635
100
AcDbArc
 50
90.0
 51
164.8361053
  0
ARC
  5
4B73
330
1E
100
AcDbEntity
  8
OBJECT
 62
     7
100
AcDbCircle
 10
9.574462330365907
 20
5.821965018768894
 30
0.0
 40
0.0393523605927635
100
AcDbArc
 50
180.0
 51
270.0
  0
LINE
  5
4B74
330
1E
100
AcDbEntity
  8
OBJECT
 62
     7
100
AcDbLine
 10
9.59413851066229
 20
5.940022100547185
 30
0.0
 11
9.59413851066229
 21
5.821965018768894
 31
0.0
  0
LINE
  5
4B75
330
1E
100
AcDbEntity
  8
OBJECT
 62
     7
100
AcDbLine
 10
9.574462330365907
 20
5.940022100547185
 30
0.0
 11
9.574462330365907
 21
5.841641199065279
 31
0.0
  0
LINE
  5
4B76
330
1E
100
AcDbEntity
  8
OBJECT
 62
     7
100
AcDbLine
 10
9.535109969773143
 20
5.940022100547185
 30
0.0
 11
9.535109969773143
 21
5.821965018768894
 31
0.0
  0
CIRCLE
  5
4B77
330
1E
100
AcDbEntity
  8
OBJECT
 62
     7
100
AcDbCircle
 10
9.653167051551433
 20
5.530757790431847
 30
0.0
 40
0.0098380901481909
  0
LINE
  5
4B78
330
1E
100
AcDbEntity
  8
OBJECT
 62
     7
100
AcDbLine
 10
10.08604301807183
 20
5.743260297583367
 30
0.0
 11
10.1253953786646
 21
5.743260297583367
 31
0.0
  0
ARC
  5
4B79
330
1E
100
AcDbEntity
  8
OBJECT
 62
     7
100
AcDbCircle
 10
10.04669065747907
 20
5.605523131754527
 30
0.0
 40
0.0196761802963818
100
AcDbArc
 50
270.0
 51
0.0
  0
LINE
  5
4B7A
330
1E
100
AcDbEntity
  8
OBJECT
 62
     7
100
AcDbLine
 10
10.06636683777545
 20
5.64487939610146
 30
0.0
 11
10.0643990977535
 21
5.64487939610146
 31
0.0
  0
LINE
  5
4B7B
330
1E
100
AcDbEntity
  8
OBJECT
 62
     7
100
AcDbLine
 10
10.02504673716073
 20
5.703907936990603
 30
0.0
 11
10.0643990977535
 21
5.703907936990603
 31
0.0
  0
ARC
  5
4B7C
330
1E
100
AcDbEntity
  8
OBJECT
 62
     7
100
AcDbCircle
 10
10.08604301807183
 20
5.723584117286987
 30
0.0
 40
0.0196761802963818
100
AcDbArc
 50
90.0
 51
180.0
  0
LINE
  5
4B7D
330
1E
100
AcDbEntity
  8
OBJECT
 62
     7
100
AcDbLine
 10
10.02504673716073
 20
5.755066123818281
 30
0.0
 11
10.02504673716073
 21
5.585846951458146
 31
0.0
  0
ARC
  5
4B7E
330
1E
100
AcDbEntity
  8
OBJECT
 62
     7
100
AcDbCircle
 10
10.1253953786646
 20
5.723584117286987
 30
0.0
 40
0.0196761802963818
100
AcDbArc
 50
0.0
 51
90.0
  0
LINE
  5
4B7F
330
1E
100
AcDbEntity
  8
OBJECT
 62
     7
100
AcDbLine
 10
10.0643990977535
 20
5.755066123818281
 30
0.0
 11
10.0643990977535
 21
5.596948429466985
 31
0.0
  0
LINE
  5
4B80
330
1E
100
AcDbEntity
  8
OBJECT
 62
     7
100
AcDbLine
 10
9.967985936293542
 20
5.821965018768894
 30
0.0
 11
9.997500206738115
 21
5.821965018768894
 31
0.0
  0
ARC
  5
4B81
330
1E
100
AcDbEntity
  8
OBJECT
 62
     7
100
AcDbCircle
 10
9.908957395404398
 20
5.841641199065279
 30
0.0
 40
0.0196761802963818
100
AcDbArc
 50
270.0
 51
0.0
  0
ARC
  5
4B82
330
1E
100
AcDbEntity
  8
OBJECT
 62
     7
100
AcDbCircle
 10
9.928633575700779
 20
5.821965018768894
 30
0.0
 40
0.0393523605927635
100
AcDbArc
 50
270.0
 51
0.0
  0
LINE
  5
4B83
330
1E
100
AcDbEntity
  8
OBJECT
 62
     7
100
AcDbLine
 10
9.836155288258385
 20
5.782612658176136
 30
0.0
 11
9.836155288258385
 21
5.751130946787542
 31
0.0
  0
CIRCLE
  5
4B84
330
1E
100
AcDbEntity
  8
OBJECT
 62
     7
100
AcDbCircle
 10
9.849928854515251
 20
5.772774568027942
 30
0.0
 40
0.0098380901481909
  0
CIRCLE
  5
4B85
330
1E
100
AcDbEntity
  8
OBJECT
 62
     7
100
AcDbCircle
 10
9.849928854515251
 20
5.747195773692045
 30
0.0
 40
0.0098380901481909
  0
ARC
  5
4B86
330
1E
100
AcDbEntity
  8
OBJECT
 62
     7
100
AcDbCircle
 10
9.751547953033345
 20
5.314319807171648
 30
0.0
 40
0.4682930753129412
100
AcDbArc
 50
79.08914950000005
 51
79.59107969999999
  0
ARC
  5
4B87
330
1E
100
AcDbEntity
  8
OBJECT
 62
     7
100
AcDbCircle
 10
9.810576493922491
 20
5.816691995276036
 30
0.0
 40
0.0393523605927635
100
AcDbArc
 50
7.699182999999986
 51
90.0
  0
ARC
  5
4B88
330
1E
100
AcDbEntity
  8
OBJECT
 62
     7
100
AcDbCircle
 10
9.948309755997163
 20
5.64487939610146
 30
0.0
 40
0.0393523605927635
100
AcDbArc
 50
15.16388989999999
 51
90.0
  0
LINE
  5
4B89
330
1E
100
AcDbEntity
  8
OBJECT
 62
     7
100
AcDbLine
 10
9.986280435533332
 20
5.655229082678301
 30
0.0
 11
10.00519342008361
 21
5.585846951458146
 31
0.0
  0
CIRCLE
  5
4B8A
330
1E
100
AcDbEntity
  8
OBJECT
 62
     7
100
AcDbCircle
 10
9.849928854515251
 20
5.660620399367111
 30
0.0
 40
0.0098380901481909
  0
LINE
  5
4B8B
330
1E
100
AcDbEntity
  8
OBJECT
 62
     7
100
AcDbLine
 10
9.892232520160156
 20
5.684231756694229
 30
0.0
 11
9.892232520160156
 21
5.712128660859379
 31
0.0
  0
LINE
  5
4B8C
330
1E
100
AcDbEntity
  8
OBJECT
 62
     7
100
AcDbLine
 10
9.937444262289089
 20
5.782612658176136
 30
0.0
 11
9.929943800741009
 21
5.684231756694229
 31
0.0
  0
ARC
  5
4B8D
330
1E
100
AcDbEntity
  8
OBJECT
 62
     7
100
AcDbCircle
 10
9.829268503162335
 20
5.712128660859379
 30
0.0
 40
0.0629637769484216
100
AcDbArc
 50
0.0
 51
61.02658080000002
  0
ARC
  5
4B8E
330
1E
100
AcDbEntity
  8
OBJECT
 62
     7
100
AcDbCircle
 10
9.997500206738115
 20
5.755066123818281
 30
0.0
 40
0.0275466524149344
100
AcDbArc
 50
0.0
 51
90.0
  0
LINE
  5
4B8F
330
1E
100
AcDbEntity
  8
OBJECT
 62
     7
100
AcDbLine
 10
10.02504673716073
 20
5.64487939610146
 30
0.0
 11
9.989098438399201
 21
5.64487939610146
 31
0.0
  0
LINE
  5
4B90
330
1E
100
AcDbEntity
  8
OBJECT
 62
     7
100
AcDbLine
 10
10.00519342008361
 20
5.585846951458146
 30
0.0
 11
10.04669065747907
 21
5.585846951458146
 31
0.0
  0
ARC
  5
4B91
330
1E
100
AcDbEntity
  8
OBJECT
 62
     7
100
AcDbCircle
 10
9.997500206738115
 20
5.755066123818281
 30
0.0
 40
0.0668990130076979
100
AcDbArc
 50
0.0
 51
90.0
  0
LINE
  5
4B92
330
1E
100
AcDbEntity
  8
OBJECT
 62
     7
100
AcDbLine
 10
9.908957395404398
 20
5.940022100547185
 30
0.0
 11
9.908957395404398
 21
5.821965018768894
 31
0.0
  0
LINE
  5
4B93
330
1E
100
AcDbEntity
  8
OBJECT
 62
     7
100
AcDbLine
 10
9.928633575700779
 20
5.940022100547185
 30
0.0
 11
9.928633575700779
 21
5.841641199065279
 31
0.0
  0
LINE
  5
4B94
330
1E
100
AcDbEntity
  8
OBJECT
 62
     7
100
AcDbLine
 10
9.967985936293542
 20
5.940022100547185
 30
0.0
 11
9.967985936293542
 21
5.821965018768894
 31
0.0
  0
CIRCLE
  5
4B95
330
1E
100
AcDbEntity
  8
OBJECT
 62
     7
100
AcDbCircle
 10
9.849928854515251
 20
5.574045324120113
 30
0.0
 40
0.0098380901481909
  0
LINE
  5
4B96
330
1E
100
AcDbEntity
  8
OBJECT
 62
     7
100
AcDbLine
 10
9.889281215108015
 20
6.719198958340985
 30
0.0
 11
9.889281215108015
 21
6.302063696008294
 31
0.0
  0
LINE
  5
4B97
330
1E
100
AcDbEntity
  8
OBJECT
 62
     7
100
AcDbLine
 10
9.967985936293542
 20
6.628688410920549
 30
0.0
 11
9.967985936293542
 21
6.392574247363967
 31
0.0
  0
LINE
  5
4B98
330
1E
100
AcDbEntity
  8
OBJECT
 62
     7
100
AcDbLine
 10
9.928633575700779
 20
6.687716951809697
 30
0.0
 11
9.928633575700779
 21
6.353221886771208
 31
0.0
  0
LINE
  5
4B99
330
1E
100
AcDbEntity
  8
OBJECT
 62
     7
100
AcDbLine
 10
9.849928854515251
 20
6.758551318933749
 30
0.0
 11
9.849928854515251
 21
6.262711335415525
 31
0.0
  0
LINE
  5
4B9A
330
1E
100
AcDbEntity
  8
OBJECT
 62
     7
100
AcDbLine
 10
9.535109969773143
 20
6.628688410920549
 30
0.0
 11
9.535109969773143
 21
6.392574247363967
 31
0.0
  0
LINE
  5
4B9B
330
1E
100
AcDbEntity
  8
OBJECT
 62
     7
100
AcDbLine
 10
9.574462330365907
 20
6.687716951809697
 30
0.0
 11
9.574462330365907
 21
6.353221886771208
 31
0.0
  0
LINE
  5
4B9C
330
1E
100
AcDbEntity
  8
OBJECT
 62
     7
100
AcDbLine
 10
9.613814690958674
 20
6.719198958340985
 30
0.0
 11
9.613814690958674
 21
6.302063696008294
 31
0.0
  0
LINE
  5
4B9D
330
1E
100
AcDbEntity
  8
OBJECT
 62
     7
100
AcDbLine
 10
9.653167051551433
 20
6.758551318933749
 30
0.0
 11
9.653167051551433
 21
6.262711335415525
 31
0.0
  0
LINE
  5
4B9F
330
1E
100
AcDbEntity
  8
OBJECT
 62
     7
100
AcDbLine
 10
9.653167051551433
 20
6.262711335415525
 30
0.0
 11
9.849928854515251
 21
6.262711335415525
 31
0.0
  0
LINE
  5
4BA0
330
1E
100
AcDbEntity
  8
CENTER
 62
     3
100
AcDbLine
 10
9.445323584492335
 20
6.510631329142258
 30
0.0
 11
10.04778050929997
 21
6.510631329142258
 31
0.0
  0
LINE
  5
4BA1
330
1E
100
AcDbEntity
  8
OBJECT
 62
     7
100
AcDbLine
 10
9.987662116589923
 20
6.254840985289296
 30
0.0
 11
9.515433789476762
 21
6.254840985289296
 31
0.0
  0
LINE
  5
4BA2
330
1E
100
AcDbEntity
  8
CENTER
 62
     3
100
AcDbLine
 10
10.08801435883478
 20
6.125048927266105
 30
0.0
 11
9.4150851479729
 21
6.125048927266105
 31
0.0
  0
LINE
  5
4BA3
330
1E
100
AcDbEntity
  8
OBJECT
 62
     7
100
AcDbLine
 10
9.653167051551433
 20
6.262711335415525
 30
0.0
 11
9.613814690958674
 21
6.302063696008294
 31
0.0
  0
LINE
  5
4BA4
330
1E
100
AcDbEntity
  8
OBJECT
 62
     7
100
AcDbLine
 10
9.59413851066229
 20
6.291792666929806
 30
0.0
 11
9.59413851066229
 21
6.254840985289296
 31
0.0
  0
LINE
  5
4BA5
330
1E
100
AcDbEntity
  8
OBJECT
 62
     7
100
AcDbLine
 10
9.554786150069528
 20
6.291792666929806
 30
0.0
 11
9.59413851066229
 21
6.291792666929806
 31
0.0
  0
LINE
  5
4BA6
330
1E
100
AcDbEntity
  8
OBJECT
 62
     7
100
AcDbLine
 10
9.613814690958674
 20
6.346886333801389
 30
0.0
 11
9.554786150069528
 21
6.291792666929806
 31
0.0
  0
LINE
  5
4BA7
330
1E
100
AcDbEntity
  8
OBJECT
 62
     7
100
AcDbLine
 10
9.554786150069528
 20
6.291792666929806
 30
0.0
 11
9.554786150069528
 21
6.254840985289296
 31
0.0
  0
LINE
  5
4BA8
330
1E
100
AcDbEntity
  8
OBJECT
 62
     7
100
AcDbLine
 10
9.495757609180383
 20
6.235164804992916
 30
0.0
 11
9.515433789476762
 21
6.235164804992916
 31
0.0
  0
LINE
  5
4BA9
330
1E
100
AcDbEntity
  8
OBJECT
 62
     7
100
AcDbLine
 10
9.574462330365907
 20
6.353221886771208
 30
0.0
 11
9.515433789476762
 21
6.298128821990733
 31
0.0
  0
LINE
  5
4BAA
330
1E
100
AcDbEntity
  8
OBJECT
 62
     7
100
AcDbLine
 10
9.574462330365907
 20
6.392574247363967
 30
0.0
 11
9.535109969773143
 21
6.392574247363967
 31
0.0
  0
LINE
  5
4BAB
330
1E
100
AcDbEntity
  8
OBJECT
 62
     7
100
AcDbLine
 10
9.495757609180383
 20
5.999050641436333
 30
0.0
 11
9.515433789476762
 21
5.999050641436333
 31
0.0
  0
LINE
  5
4BAC
330
1E
100
AcDbEntity
  8
OBJECT
 62
     7
100
AcDbLine
 10
9.495757609180383
 20
6.235164804992916
 30
0.0
 11
9.495757609180383
 21
5.999050641436333
 31
0.0
  0
LINE
  5
4BAD
330
1E
100
AcDbEntity
  8
OBJECT
 62
     7
100
AcDbLine
 10
9.928633575700779
 20
6.392574247363967
 30
0.0
 11
9.967985936293542
 21
6.392574247363967
 31
0.0
  0
LINE
  5
4BAE
330
1E
100
AcDbEntity
  8
OBJECT
 62
     7
100
AcDbLine
 10
9.908957395404398
 20
6.291792666929806
 30
0.0
 11
9.908957395404398
 21
6.254840985289296
 31
0.0
  0
LINE
  5
4BAF
330
1E
100
AcDbEntity
  8
OBJECT
 62
     7
100
AcDbLine
 10
9.948309755997163
 20
6.291792666929806
 30
0.0
 11
9.908957395404398
 21
6.291792666929806
 31
0.0
  0
LINE
  5
4BB0
330
1E
100
AcDbEntity
  8
OBJECT
 62
     7
100
AcDbLine
 10
9.948309755997163
 20
6.291792666929806
 30
0.0
 11
9.948309755997163
 21
6.254840985289296
 31
0.0
  0
LINE
  5
4BB1
330
1E
100
AcDbEntity
  8
OBJECT
 62
     7
100
AcDbLine
 10
9.928633575700779
 20
6.353221886771208
 30
0.0
 11
9.987662116589923
 21
6.298128821990733
 31
0.0
  0
LINE
  5
4BB2
330
1E
100
AcDbEntity
  8
OBJECT
 62
     7
100
AcDbLine
 10
9.987662116589923
 20
6.235164804992916
 30
0.0
 11
10.00733829688631
 21
6.235164804992916
 31
0.0
  0
LINE
  5
4BB3
330
1E
100
AcDbEntity
  8
OBJECT
 62
     7
100
AcDbLine
 10
9.849928854515251
 20
6.262711335415525
 30
0.0
 11
9.889281215108015
 21
6.302063696008294
 31
0.0
  0
LINE
  5
4BB4
330
1E
100
AcDbEntity
  8
OBJECT
 62
     7
100
AcDbLine
 10
9.889281215108015
 20
6.346886333801389
 30
0.0
 11
9.948309755997163
 21
6.291792666929806
 31
0.0
  0
LINE
  5
4BB5
330
1E
100
AcDbEntity
  8
OBJECT
 62
     7
100
AcDbLine
 10
9.987662116589923
 20
5.999050641436333
 30
0.0
 11
10.00733829688631
 21
5.999050641436333
 31
0.0
  0
LINE
  5
4BB6
330
1E
100
AcDbEntity
  8
OBJECT
 62
     7
100
AcDbLine
 10
10.00733829688631
 20
6.235164804992916
 30
0.0
 11
10.00733829688631
 21
5.999050641436333
 31
0.0
  0
LINE
  5
4BB8
330
1E
100
AcDbEntity
  8
OBJECT
 62
     7
100
AcDbLine
 10
9.653167051551433
 20
6.758551318933749
 30
0.0
 11
9.849928854515251
 21
6.758551318933749
 31
0.0
  0
LINE
  5
4BB9
330
1E
100
AcDbEntity
  8
OBJECT
 62
     7
100
AcDbLine
 10
9.653167051551433
 20
6.758551318933749
 30
0.0
 11
9.613814690958674
 21
6.719198958340985
 31
0.0
  0
LINE
  5
4BBA
330
1E
100
AcDbEntity
  8
OBJECT
 62
     7
100
AcDbLine
 10
9.613814690958674
 20
6.687716951809697
 30
0.0
 11
9.574462330365907
 21
6.687716951809697
 31
0.0
  0
LINE
  5
4BBB
330
1E
100
AcDbEntity
  8
OBJECT
 62
     7
100
AcDbLine
 10
9.574462330365907
 20
6.628688410920549
 30
0.0
 11
9.535109969773143
 21
6.628688410920549
 31
0.0
  0
LINE
  5
4BBC
330
1E
100
AcDbEntity
  8
OBJECT
 62
     7
100
AcDbLine
 10
9.849928854515251
 20
6.758551318933749
 30
0.0
 11
9.869605034811634
 21
6.738875138637364
 31
0.0
  0
LINE
  5
4BBD
330
1E
100
AcDbEntity
  8
OBJECT
 62
     7
100
AcDbLine
 10
9.849928854515251
 20
6.758551318933749
 30
0.0
 11
9.889281215108015
 21
6.719198958340985
 31
0.0
  0
LINE
  5
4BBE
330
1E
100
AcDbEntity
  8
OBJECT
 62
     7
100
AcDbLine
 10
9.928633575700779
 20
6.628688410920549
 30
0.0
 11
9.967985936293542
 21
6.628688410920549
 31
0.0
  0
LINE
  5
4BBF
330
1E
100
AcDbEntity
  8
OBJECT
 62
     7
100
AcDbLine
 10
9.889281215108015
 20
6.687716951809697
 30
0.0
 11
9.928633575700779
 21
6.687716951809697
 31
0.0
  0
LINE
  5
4BC0
330
1E
100
AcDbEntity
  8
OBJECT
 62
     7
100
AcDbLine
 10
10.14507155896098
 20
5.723584117286987
 30
0.0
 11
10.14507155896098
 21
5.448117593137645
 31
0.0
  0
LINE
  5
4BC1
330
1E
100
AcDbEntity
  8
OBJECT
 62
     7
100
AcDbLine
 10
10.06636683777545
 20
5.723584117286987
 30
0.0
 11
10.06636683777545
 21
5.467793773434025
 31
0.0
  0
LINE
  5
4BC2
330
1E
100
AcDbEntity
  8
OBJECT
 62
     7
100
AcDbLine
 10
9.436729068291237
 20
5.723584117286987
 30
0.0
 11
9.436729068291237
 21
5.467793773434025
 31
0.0
  0
LINE
  5
4BC3
330
1E
100
AcDbEntity
  8
OBJECT
 62
     7
100
AcDbLine
 10
9.358024347105709
 20
5.723584117286987
 30
0.0
 11
9.358024347105709
 21
5.448117593137645
 31
0.0
  0
LINE
  5
4BC4
330
1E
100
AcDbEntity
  8
OBJECT
 62
     7
100
AcDbLine
 10
9.928633575700779
 20
5.487469953730405
 30
0.0
 11
9.574462330365907
 21
5.487469953730405
 31
0.0
  0
LINE
  5
4BC5
330
1E
100
AcDbEntity
  8
OBJECT
 62
     7
100
AcDbLine
 10
9.554786150069528
 20
5.467793773434025
 30
0.0
 11
9.554786150069528
 21
5.448117593137645
 31
0.0
  0
ARC
  5
4BC7
330
1E
100
AcDbEntity
  8
OBJECT
 62
     7
100
AcDbCircle
 10
9.456405248587616
 20
5.467793773434025
 30
0.0
 40
0.0196761802963818
100
AcDbArc
 50
180.0
 51
270.0
  0
ARC
  5
4BC8
330
1E
100
AcDbEntity
  8
OBJECT
 62
     7
100
AcDbCircle
 10
9.574462330365907
 20
5.467793773434025
 30
0.0
 40
0.0196761802963818
100
AcDbArc
 50
90.0
 51
180.0
  0
LINE
  5
4BC9
330
1E
100
AcDbEntity
  8
OBJECT
 62
     7
100
AcDbLine
 10
9.663005141699628
 20
5.772774568027942
 30
0.0
 11
9.663005141699628
 21
5.487469953730405
 31
0.0
  0
LINE
  5
4BCA
330
1E
100
AcDbEntity
  8
OBJECT
 62
     7
100
AcDbLine
 10
9.643328961403245
 20
5.772774568027942
 30
0.0
 11
9.643328961403245
 21
5.487469953730405
 31
0.0
  0
LINE
  5
4BCB
330
1E
100
AcDbEntity
  8
OBJECT
 62
     7
100
AcDbLine
 10
9.653167051551433
 20
5.477997848406202
 30
0.0
 11
9.653167051551433
 21
5.792679224194689
 31
0.0
  0
ARC
  5
4BCC
330
1E
100
AcDbEntity
  8
OBJECT
 62
     7
100
AcDbCircle
 10
10.04669065747907
 20
5.467793773434025
 30
0.0
 40
0.0196761802963818
100
AcDbArc
 50
270.0
 51
0.0
  0
LINE
  5
4BCD
330
1E
100
AcDbEntity
  8
OBJECT
 62
     7
100
AcDbLine
 10
9.948309755997163
 20
5.467793773434025
 30
0.0
 11
9.948309755997163
 21
5.448117593137645
 31
0.0
  0
ARC
  5
4BCE
330
1E
100
AcDbEntity
  8
OBJECT
 62
     7
100
AcDbCircle
 10
9.928633575700779
 20
5.467793773434025
 30
0.0
 40
0.0196761802963818
100
AcDbArc
 50
0.0
 51
90.0
  0
CIRCLE
  5
4BCF
330
1E
100
AcDbEntity
  8
OBJECT
 62
     7
100
AcDbCircle
 10
9.849928854515251
 20
5.497308043878597
 30
0.0
 40
0.0098380901481909
  0
LINE
  5
4BD0
330
1E
100
AcDbEntity
  8
OBJECT
 62
     7
100
AcDbLine
 10
9.840090764367065
 20
5.772774568027942
 30
0.0
 11
9.840090764367065
 21
5.487469953730405
 31
0.0
  0
LINE
  5
4BD1
330
1E
100
AcDbEntity
  8
OBJECT
 62
     7
100
AcDbLine
 10
9.859766944663444
 20
5.772774568027942
 30
0.0
 11
9.859766944663444
 21
5.487469953730405
 31
0.0
  0
LINE
  5
4BD2
330
1E
100
AcDbEntity
  8
OBJECT
 62
     7
100
AcDbLine
 10
9.849928854515251
 20
5.792679224194689
 30
0.0
 11
9.849928854515251
 21
5.477997848406202
 31
0.0
  0
LINE
  5
4CDC
330
1E
100
AcDbEntity
  8
DIM
100
AcDbLine
 10
5.012759118315056
 20
4.474612297969157
 30
0.0
 11
5.449803946824303
 21
3.862234826833712
 31
0.0
1001
ACAD
1000
DSTYLE
1002
{
1070
   147
1040
0.09
1070
    77
1070
     0
1002
}
  0
MTEXT
  5
4CDD
330
1E
100
AcDbEntity
  8
DIM
 62
     7
100
AcDbMText
 10
1.413985882904845
 20
4.296927018324343
 30
0.0
 40
0.09
 41
0.0
 71
     5
 72
     1
  1
22\P[.866]
 73
     1
 44
1.0
1001
ACAD
1000
MTEXTBEGIN
1070
    73
1070
     1
1070
    44
1040
1.0
1070
    74
1070
     0
1000
MTEXTEND
  0
LINE
  5
4CDE
330
1E
100
AcDbEntity
  8
DIM
 62
     1
100
AcDbLine
 10
2.193044624393273
 20
4.185112423885367
 30
0.0
 11
2.193044624393273
 21
4.130852515603284
 31
0.0
  0
MTEXT
  5
4CDF
330
1E
100
AcDbEntity
  8
DIM
 62
     7
100
AcDbMText
 10
2.599881397313171
 20
4.194464236953583
 30
0.0
 40
0.09
 41
0.0
 71
     5
 72
     1
  1
5\P[.197]
 73
     1
 44
1.0
1001
ACAD
1000
MTEXTBEGIN
1070
    73
1070
     1
1070
    44
1040
1.0
1070
    74
1070
     0
1000
MTEXTEND
  0
SOLID
  5
4CE0
330
1E
100
AcDbEntity
  8
DIM
 62
     1
100
AcDbTrace
 10
6.59157562605046
 20
4.146914960542062
 30
0.0
 11
6.641575626050461
 21
4.146914960542062
 31
0.0
 12
6.616575626050461
 22
4.296914960542062
 32
0.0
 13
6.616575626050461
 23
4.296914960542062
 33
0.0
  0
LINE
  5
4CE1
330
1E
100
AcDbEntity
  8
DIM
 62
     1
100
AcDbLine
 10
4.876921372993562
 20
4.487275528289678
 30
0.0
 11
4.876921372993562
 21
3.590452680943119
 31
0.0
  0
LINE
  5
4CE2
330
1E
100
AcDbEntity
  8
DIM
 62
     1
100
AcDbLine
 10
3.873422296452144
 20
4.487275528289678
 30
0.0
 11
3.873422296452144
 21
3.590452680943119
 31
0.0
  0
LINE
  5
4CE3
330
1E
100
AcDbEntity
  8
OBJECT
 62
     7
100
AcDbLine
 10
5.457686297304475
 20
4.00060159450889
 30
0.0
 11
5.457686297304475
 21
4.940901958434375
 31
0.0
  0
LINE
  5
4CE4
330
1E
100
AcDbEntity
  8
OBJECT
 62
     7
100
AcDbLine
 10
5.825105088894903
 20
4.65249726888047
 30
0.0
 11
5.825105088894903
 21
3.941356767768214
 31
0.0
  0
LINE
  5
4CE5
330
1E
100
AcDbEntity
  8
OBJECT
 62
     7
100
AcDbLine
 10
6.062151922598991
 20
4.079634087428924
 30
0.0
 11
6.062151922598991
 21
4.51421994921975
 31
0.0
  0
LINE
  5
4CE6
330
1E
100
AcDbEntity
  8
OBJECT
 62
     7
100
AcDbLine
 10
5.469534838338775
 20
3.901848962150871
 30
0.0
 11
5.469534838338775
 21
4.692005074497814
 31
0.0
  0
LINE
  5
4CE7
330
1E
100
AcDbEntity
  8
OBJECT
 62
     7
100
AcDbLine
 10
3.292664155631456
 20
4.040114224029311
 30
0.0
 11
3.292664155631456
 21
4.87768139010037
 31
0.0
  0
LINE
  5
4CE8
330
1E
100
AcDbEntity
  8
DIM
 62
     1
100
AcDbLine
 10
3.245153892575217
 20
3.901848962150871
 30
0.0
 11
1.356121740882457
 21
3.901848962150872
 31
0.0
  0
LINE
  5
4CE9
330
1E
100
AcDbEntity
  8
DIM
 62
     1
100
AcDbLine
 10
3.289425864057474
 20
3.980852515603284
 30
0.0
 11
2.130544624393273
 21
3.980852515603284
 31
0.0
  0
SOLID
  5
4CEA
330
1E
100
AcDbEntity
  8
DIM
 62
     1
100
AcDbTrace
 10
1.393621740882457
 20
4.051848962150872
 30
0.0
 11
1.443621740882457
 21
4.051848962150872
 31
0.0
 12
1.418621740882457
 22
3.901848962150872
 32
0.0
 13
1.418621740882457
 23
3.901848962150872
 33
0.0
  0
LINE
  5
4CEB
330
1E
100
AcDbEntity
  8
DIM
 62
     1
100
AcDbLine
 10
1.418621740882457
 20
4.051848962150872
 30
0.0
 11
1.418621740882457
 21
4.161927018324344
 31
0.0
  0
SOLID
  5
4CEC
330
1E
100
AcDbEntity
  8
DIM
 62
     1
100
AcDbTrace
 10
2.168044624393273
 20
4.130852515603284
 30
0.0
 11
2.218044624393273
 21
4.130852515603284
 31
0.0
 12
2.193044624393273
 22
3.980852515603284
 32
0.0
 13
2.193044624393273
 23
3.980852515603284
 33
0.0
  0
LINE
  5
4CED
330
1E
100
AcDbEntity
  8
DIM
100
AcDbLine
 10
5.618673704193071
 20
3.625618287241014
 30
0.0
 11
6.010079858926147
 21
3.625618287241014
 31
0.0
1001
ACAD
1000
DSTYLE
1002
{
1070
   147
1040
0.09
1070
    77
1070
     0
1002
}
  0
MTEXT
  5
4CEE
330
1E
100
AcDbEntity
  8
DIM
 62
     7
100
AcDbMText
 10
5.795109626353359
 20
3.229989546723221
 30
0.0
 40
0.09
 41
0.0
 71
     5
 72
     1
  1
15\P[.59]
 73
     1
 44
1.0
1001
ACAD
1000
MTEXTBEGIN
1070
    73
1070
     1
1070
    44
1040
1.0
1070
    74
1070
     0
1000
MTEXTEND
  0
LINE
  5
4CEF
330
1E
100
AcDbEntity
  8
OBJECT
 62
     7
100
AcDbLine
 10
5.469534838338775
 20
3.901848962150871
 30
0.0
 11
5.785597283277564
 21
3.901848962150871
 31
0.0
  0
LINE
  5
4CF0
330
1E
100
AcDbEntity
  8
DIM
 62
     1
100
AcDbLine
 10
4.816713283427795
 20
3.901848962150871
 30
0.0
 11
3.926626523472734
 21
3.901848962150871
 31
0.0
  0
MTEXT
  5
4CF1
330
1E
100
AcDbEntity
  8
DIM
 62
     7
100
AcDbMText
 10
4.375171834722853
 20
3.652952680943119
 30
0.0
 40
0.09
 41
0.0
 71
     5
 72
     1
  1
25.4%%P0.15\P[1.00±0.59]
 73
     1
 44
1.0
1001
ACAD
1000
MTEXTBEGIN
1070
    73
1070
     1
1070
    44
1040
1.0
1070
    74
1070
     0
1000
MTEXTEND
  0
MTEXT
  5
4CF2
330
1E
100
AcDbEntity
  8
DIM
 62
     7
100
AcDbMText
 10
4.375177184079733
 20
3.22935174187263
 30
0.0
 40
0.09
 41
0.0
 71
     5
 72
     1
  1
55\P[2.165]
 73
     1
 44
1.0
1001
ACAD
1000
MTEXTBEGIN
1070
    73
1070
     1
1070
    44
1040
1.0
1070
    74
1070
     0
1000
MTEXTEND
  0
LINE
  5
4CF3
330
1E
100
AcDbEntity
  8
OBJECT
 62
     7
100
AcDbLine
 10
3.351925864057474
 20
3.980852515603284
 30
0.0
 11
5.43793630971934
 21
3.980852515603284
 31
0.0
  0
LINE
  5
4CF4
330
1E
100
AcDbEntity
  8
DIM
 62
     1
100
AcDbLine
 10
3.292664155631452
 20
3.977614224029311
 30
0.0
 11
3.292664155631452
 21
3.16685174187263
 31
0.0
  0
LINE
  5
4CF5
330
1E
100
AcDbEntity
  8
DIM
 62
     1
100
AcDbLine
 10
3.442664155631453
 20
3.22935174187263
 30
0.0
 11
4.111837113117118
 21
3.22935174187263
 31
0.0
  0
SOLID
  5
4CF6
330
1E
100
AcDbEntity
  8
DIM
 62
     1
100
AcDbTrace
 10
3.442664155631453
 20
3.25435174187263
 30
0.0
 11
3.442664155631453
 21
3.204351741872629
 31
0.0
 12
3.292664155631452
 22
3.22935174187263
 32
0.0
 13
3.292664155631452
 23
3.22935174187263
 33
0.0
  0
LINE
  5
4CF7
330
1E
100
AcDbEntity
  8
DIM
 62
     1
100
AcDbLine
 10
3.810729813999927
 20
3.901848962150871
 30
0.0
 11
3.337871260153463
 21
3.901848962150871
 31
0.0
  0
LINE
  5
4CF8
330
1E
100
AcDbEntity
  8
DIM
 62
     1
100
AcDbLine
 10
3.723422296452143
 20
3.652952680943119
 30
0.0
 11
3.573422296452143
 21
3.652952680943119
 31
0.0
  0
ARC
  5
4CF9
330
1E
100
AcDbEntity
  8
OBJECT
 62
     7
100
AcDbCircle
 10
3.351925864057474
 20
4.040114224029311
 30
0.0
 40
0.0592617084260211
100
AcDbArc
 50
180.0
 51
270.0
  0
SOLID
  5
4CFA
330
1E
100
AcDbEntity
  8
DIM
 62
     1
100
AcDbTrace
 10
3.723422296452143
 20
3.67795268094312
 30
0.0
 11
3.723422296452143
 21
3.627952680943119
 31
0.0
 12
3.873422296452144
 22
3.652952680943119
 32
0.0
 13
3.873422296452144
 23
3.652952680943119
 33
0.0
  0
LINE
  5
4CFB
330
1E
100
AcDbEntity
  8
DIM
 62
     1
100
AcDbLine
 10
5.457690212528009
 20
3.938106418411957
 30
0.0
 11
5.457690212528009
 21
3.167489546723221
 31
0.0
  0
LINE
  5
4CFC
330
1E
100
AcDbEntity
  8
DIM
 62
     1
100
AcDbLine
 10
5.457690212528014
 20
3.938106418411957
 30
0.0
 11
5.457690212528014
 21
3.16685174187263
 31
0.0
  0
LINE
  5
4CFD
330
1E
100
AcDbEntity
  8
DIM
 62
     1
100
AcDbLine
 10
5.307690212528013
 20
3.22935174187263
 30
0.0
 11
4.638517203035856
 21
3.22935174187263
 31
0.0
  0
SOLID
  5
4CFE
330
1E
100
AcDbEntity
  8
DIM
 62
     1
100
AcDbTrace
 10
5.307690212528013
 20
3.25435174187263
 30
0.0
 11
5.307690212528013
 21
3.204351741872629
 31
0.0
 12
5.457690212528014
 22
3.22935174187263
 32
0.0
 13
5.457690212528014
 23
3.22935174187263
 33
0.0
  0
LINE
  5
4CFF
330
1E
100
AcDbEntity
  8
DIM
 62
     1
100
AcDbLine
 10
5.407034838338775
 20
3.901848962150871
 30
0.0
 11
4.965061050750392
 21
3.901848962150871
 31
0.0
  0
SOLID
  5
4D00
330
1E
100
AcDbEntity
  8
DIM
 62
     1
100
AcDbTrace
 10
5.026921372993562
 20
3.67795268094312
 30
0.0
 11
5.026921372993562
 21
3.627952680943119
 31
0.0
 12
4.876921372993562
 22
3.652952680943119
 32
0.0
 13
4.876921372993562
 23
3.652952680943119
 33
0.0
  0
LINE
  5
4D01
330
1E
100
AcDbEntity
  8
DIM
100
AcDbLine
 10
5.488106814035245
 20
3.808565703142486
 30
0.0
 11
5.618673704193071
 21
3.625618287241014
 31
0.0
1001
ACAD
1000
DSTYLE
1002
{
1070
   147
1040
0.09
1070
    77
1070
     0
1002
}
  0
LINE
  5
4D02
330
1E
100
AcDbEntity
  8
DIM
 62
     1
100
AcDbLine
 10
5.026921372993562
 20
3.652952680943119
 30
0.0
 11
5.176921372993561
 21
3.652952680943119
 31
0.0
  0
ARC
  5
4D03
330
1E
100
AcDbEntity
  8
OBJECT
 62
     7
100
AcDbCircle
 10
5.43793630971934
 20
4.000606418411957
 30
0.0
 40
0.0197539028086737
100
AcDbArc
 50
270.0
 51
0.0
  0
LINE
  5
4D04
330
1E
100
AcDbEntity
  8
OBJECT
 62
     7
100
AcDbLine
 10
5.469534838338775
 20
4.012451648692152
 30
0.0
 11
5.457690212528009
 21
4.000606418411957
 31
0.0
  0
MTEXT
  5
4D05
330
1E
100
AcDbEntity
  8
DIM
 62
     7
100
AcDbMText
 10
7.084436017683608
 20
3.563638595984699
 30
0.0
 40
0.09
 41
0.0
 71
     5
 72
     1
  1
TOW 4.3±0.1\P[.169±.039]\PMOUNTING HOLES
 73
     1
 44
1.0
1001
ACAD
1000
MTEXTBEGIN
1070
    73
1070
     1
1070
    44
1040
1.0
1070
    74
1070
     0
1000
MTEXTEND
  0
LINE
  5
4D06
330
1E
100
AcDbEntity
  8
DIM
 62
     1
100
AcDbLine
 10
6.062151922598991
 20
4.017134087428924
 30
0.0
 11
6.062151922598991
 21
3.167489546723221
 31
0.0
  0
LINE
  5
4D07
330
1E
100
AcDbEntity
  8
DIM
 62
     1
100
AcDbLine
 10
6.368102512981336
 20
3.229989546723221
 30
0.0
 11
6.212151922598991
 21
3.229989546723221
 31
0.0
  0
SOLID
  5
4D08
330
1E
100
AcDbEntity
  8
DIM
 62
     1
100
AcDbTrace
 10
6.212151922598991
 20
3.254989546723221
 30
0.0
 11
6.212151922598991
 21
3.20498954672322
 31
0.0
 12
6.062151922598991
 22
3.229989546723221
 32
0.0
 13
6.062151922598991
 23
3.229989546723221
 33
0.0
  0
LINE
  5
4D09
330
1E
100
AcDbEntity
  8
DIM
100
AcDbLine
 10
6.122761059503979
 20
3.625618287241014
 30
0.0
 11
6.641499317422564
 21
3.625618287241014
 31
0.0
1001
ACAD
1000
DSTYLE
1002
{
1070
   147
1040
0.09
1070
    77
1070
     0
1002
}
  0
LINE
  5
4D0A
330
1E
100
AcDbEntity
  8
OBJECT
 62
     7
100
AcDbLine
 10
5.825105088894903
 20
4.059880184620251
 30
0.0
 11
6.04239801979031
 21
4.059880184620251
 31
0.0
  0
ARC
  5
4D0B
330
1E
100
AcDbEntity
  8
OBJECT
 62
     7
100
AcDbCircle
 10
5.785597283277564
 20
3.941356767768214
 30
0.0
 40
0.0395078056173474
100
AcDbArc
 50
270.0
 51
0.0
  0
ARC
  5
4D0C
330
1E
100
AcDbEntity
  8
OBJECT
 62
     7
100
AcDbCircle
 10
6.04239801979031
 20
4.079634087428924
 30
0.0
 40
0.0197539028086737
100
AcDbArc
 50
270.0
 51
0.0
  0
LINE
  5
4D0D
330
1E
100
AcDbEntity
  8
DIM
 62
     1
100
AcDbLine
 10
6.616575626050461
 20
4.146914960542062
 30
0.0
 11
6.616575626050461
 21
3.996914960542063
 31
0.0
  0
MTEXT
  5
4D0E
330
1E
100
AcDbEntity
  8
DIM
 62
     7
100
AcDbMText
 10
7.68748094657316
 20
3.640066870105467
 30
0.0
 40
0.09
 41
0.0
 71
     5
 72
     1
  1
DIA
 73
     1
 44
1.0
1001
ACAD
1000
MTEXTBEGIN
1070
    73
1070
     1
1070
    44
1040
1.0
1070
    74
1070
     0
1000
MTEXTEND
  0
LINE
  5
4D0F
330
1E
100
AcDbEntity
  8
DIM
 62
     1
100
AcDbLine
 10
3.608407175791139
 20
4.692005074497814
 30
0.0
 11
2.132952482717755
 21
4.692005074497814
 31
0.0
  0
LINE
  5
4D10
330
1E
100
AcDbEntity
  8
DIM
 62
     1
100
AcDbLine
 10
3.36836399476757
 20
5.579378268680645
 30
0.0
 11
2.132952482717755
 21
5.579378268680645
 31
0.0
  0
LINE
  5
4D11
330
1E
100
AcDbEntity
  8
DIM
 62
     1
100
AcDbLine
 10
3.608407175791139
 20
4.692005074497814
 30
0.0
 11
1.356121740882457
 21
4.692005074497815
 31
0.0
  0
LINE
  5
4D12
330
1E
100
AcDbEntity
  8
DIM
 62
     1
100
AcDbLine
 10
3.608407175791139
 20
4.692005074497814
 30
0.0
 11
2.130544624393273
 21
4.692005074497814
 31
0.0
  0
LINE
  5
4D13
330
1E
100
AcDbEntity
  8
DIM
 62
     1
100
AcDbLine
 10
3.257813017809278
 20
4.494464236953582
 30
0.0
 11
2.807381397313172
 21
4.494464236953582
 31
0.0
  0
LINE
  5
4D14
330
1E
100
AcDbEntity
  8
DIM
 62
     1
100
AcDbLine
 10
3.608407175791139
 20
4.692005074497814
 30
0.0
 11
2.807381397313172
 21
4.692005074497814
 31
0.0
  0
LINE
  5
4D15
330
1E
100
AcDbEntity
  8
DIM
 62
     1
100
AcDbLine
 10
3.608407175791139
 20
4.692005074497814
 30
0.0
 11
2.808771478622169
 21
4.692005074497814
 31
0.0
  0
LINE
  5
4D16
330
1E
100
AcDbEntity
  8
DIM
 62
     1
100
AcDbLine
 10
3.608407175791139
 20
4.692005074497814
 30
0.0
 11
2.128042384425405
 21
4.692005074497815
 31
0.0
  0
MTEXT
  5
4D17
330
1E
100
AcDbEntity
  8
DIM
 62
     7
100
AcDbMText
 10
1.707668473909988
 20
4.369074930223231
 30
0.0
 40
0.09
 41
0.0
 71
     5
 72
     1
  1
MAX
 73
     1
 44
1.0
1001
ACAD
1000
MTEXTBEGIN
1070
    73
1070
     1
1070
    44
1040
1.0
1070
    74
1070
     0
1000
MTEXTEND
  0
SOLID
  5
4D18
330
1E
100
AcDbEntity
  8
DIM
 62
     1
100
AcDbTrace
 10
1.393621740882457
 20
4.542005074497815
 30
0.0
 11
1.443621740882457
 21
4.542005074497815
 31
0.0
 12
1.418621740882457
 22
4.692005074497815
 32
0.0
 13
1.418621740882457
 23
4.692005074497815
 33
0.0
  0
LINE
  5
4D19
330
1E
100
AcDbEntity
  8
DIM
 62
     1
100
AcDbLine
 10
1.418621740882457
 20
4.542005074497815
 30
0.0
 11
1.418621740882457
 21
4.431927018324343
 31
0.0
  0
MTEXT
  5
4D1A
330
1E
100
AcDbEntity
  8
DIM
 62
     7
100
AcDbMText
 10
2.195452482717754
 20
5.13569167158923
 30
0.0
 40
0.09
 41
0.0
 71
     5
 72
     1
  1
22.5\P[.886]
 73
     1
 44
1.0
1001
ACAD
1000
MTEXTBEGIN
1070
    73
1070
     1
1070
    44
1040
1.0
1070
    74
1070
     0
1000
MTEXTEND
  0
MTEXT
  5
4D1B
330
1E
100
AcDbEntity
  8
DIM
 62
     7
100
AcDbMText
 10
2.190006520773414
 20
4.344913098825704
 30
0.0
 40
0.09
 41
0.0
 71
     5
 72
     1
  1
18.3\P[.720]
 73
     1
 44
1.0
1001
ACAD
1000
MTEXTBEGIN
1070
    73
1070
     1
1070
    44
1040
1.0
1070
    74
1070
     0
1000
MTEXTEND
  0
SOLID
  5
4D1C
330
1E
100
AcDbEntity
  8
DIM
 62
     1
100
AcDbTrace
 10
2.168044624393273
 20
4.542005074497814
 30
0.0
 11
2.218044624393273
 21
4.542005074497814
 31
0.0
 12
2.193044624393273
 22
4.692005074497814
 32
0.0
 13
2.193044624393273
 23
4.692005074497814
 33
0.0
  0
LINE
  5
4D1D
330
1E
100
AcDbEntity
  8
DIM
 62
     1
100
AcDbLine
 10
2.193044624393273
 20
4.542005074497814
 30
0.0
 11
2.193044624393273
 21
4.481507695747087
 31
0.0
  0
SOLID
  5
4D1E
330
1E
100
AcDbEntity
  8
DIM
 62
     1
100
AcDbTrace
 10
2.170452482717754
 20
4.842005074497814
 30
0.0
 11
2.220452482717755
 21
4.842005074497814
 31
0.0
 12
2.195452482717755
 22
4.692005074497814
 32
0.0
 13
2.195452482717755
 23
4.692005074497814
 33
0.0
  0
LINE
  5
4D1F
330
1E
100
AcDbEntity
  8
DIM
 62
     1
100
AcDbLine
 10
2.195452482717755
 20
4.842005074497814
 30
0.0
 11
2.195452482717755
 21
4.920239361442707
 31
0.0
  0
SOLID
  5
4D20
330
1E
100
AcDbEntity
  8
DIM
 62
     1
100
AcDbTrace
 10
2.844881397313171
 20
4.344464236953582
 30
0.0
 11
2.894881397313172
 21
4.344464236953582
 31
0.0
 12
2.869881397313172
 22
4.494464236953582
 32
0.0
 13
2.869881397313172
 23
4.494464236953582
 33
0.0
  0
LINE
  5
4D21
330
1E
100
AcDbEntity
  8
DIM
 62
     1
100
AcDbLine
 10
2.869881397313172
 20
4.194464236953582
 30
0.0
 11
2.719881397313171
 21
4.194464236953582
 31
0.0
  0
LINE
  5
4D22
330
1E
100
AcDbEntity
  8
DIM
 62
     1
100
AcDbLine
 10
2.869881397313172
 20
4.344464236953582
 30
0.0
 11
2.869881397313172
 21
4.194464236953582
 31
0.0
  0
SOLID
  5
4D23
330
1E
100
AcDbEntity
  8
DIM
 62
     1
100
AcDbTrace
 10
2.844881397313171
 20
4.846349725761379
 30
0.0
 11
2.894881397313172
 21
4.846349725761379
 31
0.0
 12
2.869881397313172
 22
4.696349725761379
 32
0.0
 13
2.869881397313172
 23
4.696349725761379
 33
0.0
  0
LINE
  5
4D24
330
1E
100
AcDbEntity
  8
DIM
 62
     1
100
AcDbLine
 10
2.869881397313172
 20
4.846349725761379
 30
0.0
 11
2.869881397313172
 21
4.996349725761379
 31
0.0
  0
SOLID
  5
4D25
330
1E
100
AcDbEntity
  8
DIM
 62
     1
100
AcDbTrace
 10
2.170452482717754
 20
5.429378268680645
 30
0.0
 11
2.220452482717755
 21
5.429378268680645
 31
0.0
 12
2.195452482717755
 22
5.579378268680645
 32
0.0
 13
2.195452482717755
 23
5.579378268680645
 33
0.0
  0
LINE
  5
4D26
330
1E
100
AcDbEntity
  8
DIM
 62
     1
100
AcDbLine
 10
2.195452482717755
 20
5.429378268680645
 30
0.0
 11
2.195452482717755
 21
5.320974365430807
 31
0.0
  0
MTEXT
  5
4D29
330
1E
100
AcDbEntity
  8
DIM
 62
     7
100
AcDbMText
 10
4.198892683880565
 20
8.413683007491332
 30
0.0
 40
0.09
 41
0.0
 71
     5
 72
     1
  1
34.6\P[1.362]
 73
     1
 44
1.0
1001
ACAD
1000
MTEXTBEGIN
1070
    73
1070
     1
1070
    44
1040
1.0
1070
    74
1070
     0
1000
MTEXTEND
  0
LINE
  5
4D2A
330
1E
100
AcDbEntity
  8
DIM
 62
     1
100
AcDbLine
 10
3.520863994767569
 20
5.731878268680645
 30
0.0
 11
3.520863994767569
 21
8.476183007491332
 31
0.0
  0
LINE
  5
4D2B
330
1E
100
AcDbEntity
  8
DIM
 62
     1
100
AcDbLine
 10
3.320313017809278
 20
5.129826817886467
 30
0.0
 11
3.320313017809278
 21
8.858966247161752
 31
0.0
  0
LINE
  5
4D30
330
1E
100
AcDbEntity
  8
DIM
 62
     1
100
AcDbLine
 10
5.712607963347508
 20
8.41517717505264
 30
0.0
 11
5.580030951895748
 21
8.41517717505264
 31
0.0
  0
LINE
  5
4D31
330
1E
100
AcDbEntity
  8
DIM
 62
     1
100
AcDbLine
 10
5.158154207606877
 20
4.692005074497814
 30
0.0
 11
7.911331577723558
 21
4.692005074497814
 31
0.0
  0
LINE
  5
4D32
330
1E
100
AcDbEntity
  8
DIM
 62
     1
100
AcDbLine
 10
5.374417746285594
 20
5.480342734225756
 30
0.0
 11
5.968104208962238
 21
5.480342734225754
 31
0.0
  0
LINE
  5
4D33
330
1E
100
AcDbEntity
  8
OBJECT
 62
     7
100
AcDbLine
 10
5.469534838338775
 20
4.692005074497814
 30
0.0
 11
5.785597283277564
 21
4.692005074497814
 31
0.0
  0
LINE
  5
4D34
330
1E
100
AcDbEntity
  8
CENTER
 62
     3
100
AcDbLine
 10
6.130341509814781
 20
4.296914960542062
 30
0.0
 11
5.235506831314033
 21
4.296914960542062
 31
0.0
  0
LINE
  5
4D39
330
1E
100
AcDbEntity
  8
DIM
 62
     1
100
AcDbLine
 10
6.236497265375724
 20
5.849980735244592
 30
0.0
 11
6.236497265375724
 21
5.956112775340876
 31
0.0
  0
LINE
  5
4D3A
330
1E
100
AcDbEntity
  8
DIM
 62
     1
100
AcDbLine
 10
6.236497265375728
 20
5.849980735244592
 30
0.0
 11
6.236497265375727
 21
5.983362732962568
 31
0.0
  0
LINE
  5
4D3B
330
1E
100
AcDbEntity
  8
CENTER
 62
     3
100
AcDbLine
 10
3.956389683845273
 20
6.100633530267916
 30
0.0
 11
3.956389683845273
 21
5.229056168500676
 31
0.0
  0
LINE
  5
4D3C
330
1E
100
AcDbEntity
  8
OBJECT
 62
     7
100
AcDbLine
 10
5.411346908064373
 20
5.087080720695141
 30
0.0
 11
3.340066920617953
 21
5.087080720695141
 31
0.0
  0
LINE
  5
4D3D
330
1E
100
AcDbEntity
  8
OBJECT
 62
     7
100
AcDbLine
 10
5.237422156079265
 20
5.403306998435395
 30
0.0
 11
3.49818428109274
 21
5.403306998435395
 31
0.0
  0
LINE
  5
4D3E
330
1E
100
AcDbEntity
  8
OBJECT
 62
     7
100
AcDbLine
 10
5.237422156079265
 20
5.10684599701724
 30
0.0
 11
3.49818428109274
 21
5.10684599701724
 31
0.0
  0
LINE
  5
4D3F
330
1E
100
AcDbEntity
  8
OBJECT
 62
     7
100
AcDbLine
 10
4.23842029323991
 20
5.482364471088308
 30
0.0
 11
4.604972019720523
 21
5.482364471088308
 31
0.0
  0
LINE
  5
4D41
330
1E
100
AcDbEntity
  8
OBJECT
 62
     7
100
AcDbLine
 10
4.269002182414729
 20
5.442836337565887
 30
0.0
 11
5.379722468320707
 21
5.442836337565887
 31
0.0
  0
LINE
  5
4D42
330
1E
100
AcDbEntity
  8
OBJECT
 62
     7
100
AcDbLine
 10
4.530535891836496
 20
5.699635604323134
 30
0.0
 11
4.332089715966654
 21
5.666621205197913
 31
0.0
  0
LINE
  5
4D43
330
1E
100
AcDbEntity
  8
OBJECT
 62
     7
100
AcDbLine
 10
3.738889960794518
 20
5.699768901094998
 30
0.0
 11
4.664264220004158
 21
5.699768901094998
 31
0.0
  0
LINE
  5
4D44
330
1E
100
AcDbEntity
  8
OBJECT
 62
     7
100
AcDbLine
 10
4.331978432412345
 20
5.482499574295873
 30
0.0
 11
4.530424912648811
 21
5.515512767813026
 31
0.0
  0
LINE
  5
4D45
330
1E
100
AcDbEntity
  8
OBJECT
 62
     7
100
AcDbLine
 10
4.528294579467942
 20
5.623039896392235
 30
0.0
 11
4.329737424410426
 21
5.579559008809773
 31
0.0
  0
LINE
  5
4D46
330
1E
100
AcDbEntity
  8
OBJECT
 62
     7
100
AcDbLine
 10
4.532777200252228
 20
5.602574968153978
 30
0.0
 11
4.334219744780895
 21
5.559093475791076
 31
0.0
  0
LINE
  5
4D47
330
1E
100
AcDbEntity
  8
OBJECT
 62
     7
100
AcDbLine
 10
4.526924222087799
 20
5.536167992391682
 30
0.0
 11
4.328675576206803
 21
5.501980161094716
 31
0.0
  0
LINE
  5
4D48
330
1E
100
AcDbEntity
  8
OBJECT
 62
     7
100
AcDbLine
 10
4.335590106113851
 20
5.645965680205437
 30
0.0
 11
4.53383874804204
 21
5.680154717110474
 31
0.0
  0
LINE
  5
4D49
330
1E
100
AcDbEntity
  8
OBJECT
 62
     7
100
AcDbLine
 10
3.320313017809278
 20
4.494464236953582
 30
0.0
 11
5.430030951895753
 21
4.494464236953582
 31
0.0
  0
LINE
  5
4D4A
330
1E
100
AcDbEntity
  8
OBJECT
 62
     7
100
AcDbLine
 10
4.120345931430906
 20
5.087080720695142
 30
0.0
 11
4.111117634982317
 21
4.533310425104159
 31
0.0
  0
LINE
  5
4D4B
330
1E
100
AcDbEntity
  8
OBJECT
 62
     7
100
AcDbLine
 10
3.320313017809278
 20
4.494464236953582
 30
0.0
 11
3.320313017809278
 21
5.067326817886467
 31
0.0
  0
LINE
  5
4D4C
330
1E
100
AcDbEntity
  8
OBJECT
 62
     7
100
AcDbLine
 10
3.626498511343726
 20
5.087080720695142
 30
0.0
 11
3.635726653711873
 21
4.533310425104159
 31
0.0
  0
LINE
  5
4D4D
330
1E
100
AcDbEntity
  8
CENTER
 62
     3
100
AcDbLine
 10
3.670907175791139
 20
4.692005074497814
 30
0.0
 11
4.074153612607346
 21
4.692005074497814
 31
0.0
  0
ARC
  5
4D4E
330
1E
100
AcDbEntity
  8
OBJECT
 62
     7
100
AcDbCircle
 10
3.675229789506591
 20
4.533972042570926
 30
0.0
 40
0.0395078056173474
100
AcDbArc
 50
180.9548035
 51
270.0
  0
LINE
  5
4D4F
330
1E
100
AcDbEntity
  8
OBJECT
 62
     7
100
AcDbLine
 10
3.292659481858056
 20
4.620891506381815
 30
0.0
 11
3.292659481858056
 21
4.940901958434375
 31
0.0
  0
LINE
  5
4D50
330
1E
100
AcDbEntity
  8
OBJECT
 62
     7
100
AcDbLine
 10
3.292659481858056
 20
4.618906954240822
 30
0.0
 11
3.320313017809278
 21
4.618906954240822
 31
0.0
  0
LINE
  5
4D51
330
1E
100
AcDbEntity
  8
OBJECT
 62
     7
100
AcDbLine
 10
3.292659481858056
 20
4.940901958434375
 30
0.0
 11
3.320313017809278
 21
4.940901958434375
 31
0.0
  0
CIRCLE
  5
4D52
330
1E
100
AcDbEntity
  8
OBJECT
 62
     7
100
AcDbCircle
 10
3.873422296452144
 20
4.692003265040316
 30
0.0
 40
0.1580312224693895
  0
CIRCLE
  5
4D53
330
1E
100
AcDbEntity
  8
OBJECT
 62
     7
100
AcDbCircle
 10
3.873422296452144
 20
4.692003265040316
 30
0.0
 40
0.1027202906543226
  0
CIRCLE
  5
4D54
330
1E
100
AcDbEntity
  8
OBJECT
 62
     7
100
AcDbCircle
 10
3.873422296452144
 20
4.692005074497814
 30
0.0
 40
0.1027202906543226
  0
CIRCLE
  5
4D55
330
1E
100
AcDbEntity
  8
OBJECT
 62
     7
100
AcDbCircle
 10
3.873422296452144
 20
4.692003265040316
 30
0.0
 40
0.0849417860280775
  0
LINE
  5
4D56
330
1E
100
AcDbEntity
  8
CENTER
 62
     3
100
AcDbLine
 10
3.873422296452144
 20
4.507678048254267
 30
0.0
 11
3.873422296452144
 21
4.897171935847156
 31
0.0
  0
ARC
  5
4D57
330
1E
100
AcDbEntity
  8
OBJECT
 62
     7
100
AcDbCircle
 10
4.071614653268031
 20
4.533972042570926
 30
0.0
 40
0.0395078056173474
100
AcDbArc
 50
270.0
 51
359.0451965
  0
LINE
  5
4D58
330
1E
100
AcDbEntity
  8
OBJECT
 62
     7
100
AcDbLine
 10
4.269002182414729
 20
5.442836337565887
 30
0.0
 11
3.646458207409306
 21
5.728491576603967
 31
0.0
  0
LINE
  5
4D5A
330
1E
100
AcDbEntity
  8
CENTER
 62
     3
100
AcDbLine
 10
3.517948347853952
 20
5.460056009994767
 30
0.0
 11
3.517948347853952
 21
5.704656843360421
 31
0.0
  0
LINE
  5
4D5E
330
1E
100
AcDbEntity
  8
OBJECT
 62
     7
100
AcDbLine
 10
3.458656147570319
 20
5.442826684795685
 30
0.0
 11
3.351015023806844
 21
5.442826684795685
 31
0.0
  0
LINE
  5
4D5F
330
1E
100
AcDbEntity
  8
OBJECT
 62
     7
100
AcDbLine
 10
3.340071747003058
 20
5.087083736691727
 30
0.0
 11
3.340071747003058
 21
5.355873961573335
 31
0.0
  0
ARC
  5
4D60
330
1E
100
AcDbEntity
  8
OBJECT
 62
     7
100
AcDbCircle
 10
3.340066920617953
 20
5.067326817886467
 30
0.0
 40
0.0197539028086737
100
AcDbArc
 50
90.0
 51
180.0
  0
LINE
  5
4D62
330
1E
100
AcDbEntity
  8
OBJECT
 62
     7
100
AcDbLine
 10
3.478425036763818
 20
5.126610063778452
 30
0.0
 11
3.478420214331531
 21
5.383542931674186
 31
0.0
  0
LINE
  5
4D63
330
1E
100
AcDbEntity
  8
OBJECT
 62
     7
100
AcDbLine
 10
3.458656147570319
 20
5.087074087874341
 30
0.0
 11
3.458656147570319
 21
5.442826684795685
 31
0.0
  0
ARC
  5
4D64
330
1E
100
AcDbEntity
  8
OBJECT
 62
     7
100
AcDbCircle
 10
3.49818910352503
 20
5.126610063778452
 30
0.0
 40
0.0197640667612105
100
AcDbArc
 50
180.0009002999999
 51
270.0
  0
ARC
  5
4D65
330
1E
100
AcDbEntity
  8
OBJECT
 62
     7
100
AcDbCircle
 10
3.49818428109274
 20
5.383542931674186
 30
0.0
 40
0.0197640667612105
100
AcDbArc
 50
90.0
 51
180.0009002999999
  0
LINE
  5
4D6D
330
1E
100
AcDbEntity
  8
CENTER
 62
     3
100
AcDbLine
 10
3.407727847359979
 20
5.581184500527733
 30
0.0
 11
3.634261580453419
 21
5.581184500527733
 31
0.0
  0
ARC
  5
4D70
330
1E
100
AcDbEntity
  8
OBJECT
 62
     7
100
AcDbCircle
 10
3.597004614898793
 20
5.620712634050158
 30
0.0
 40
0.1185844005672628
100
AcDbArc
 50
65.35111239999995
 51
90.0
  0
LINE
  5
4D71
330
1E
100
AcDbEntity
  8
OBJECT
 62
     7
100
AcDbLine
 10
3.752130339974508
 20
5.680004834333786
 30
0.0
 11
4.154350028711844
 21
5.680004834333786
 31
0.0
  0
ARC
  5
4D73
330
1E
100
AcDbEntity
  8
OBJECT
 62
     7
100
AcDbCircle
 10
3.739107096737587
 20
5.660240767572577
 30
0.0
 40
0.039528133522421
100
AcDbArc
 50
90.0
 51
119.0655975
  0
LINE
  5
4D75
330
1E
100
AcDbEntity
  8
OBJECT
 62
     7
100
AcDbLine
 10
4.33472639267951
 20
5.699768901094998
 30
0.0
 11
4.330147263957226
 21
5.482364471088308
 31
0.0
  0
LINE
  5
4D76
330
1E
100
AcDbEntity
  8
OBJECT
 62
     7
100
AcDbLine
 10
4.340029297337835
 20
5.482364471088308
 30
0.0
 11
4.344608426060108
 21
5.699768901094998
 31
0.0
  0
LINE
  5
4D77
330
1E
100
AcDbEntity
  8
OBJECT
 62
     7
100
AcDbLine
 10
4.3248443592989
 20
5.699768901094998
 30
0.0
 11
4.320265230576627
 21
5.482364471088308
 31
0.0
  0
ARC
  5
4D78
330
1E
100
AcDbEntity
  8
OBJECT
 62
     7
100
AcDbCircle
 10
4.154350028711844
 20
5.640476700811365
 30
0.0
 40
0.039528133522421
100
AcDbArc
 50
15.16388990000005
 51
90.0
  0
CIRCLE
  5
4D79
330
1E
100
AcDbEntity
  8
OBJECT
 62
     7
100
AcDbCircle
 10
4.331978432412345
 20
5.569327147494681
 30
0.0
 40
0.0104749553834416
  0
LINE
  5
4D7A
330
1E
100
AcDbEntity
  8
OBJECT
 62
     7
100
AcDbLine
 10
4.192488803680332
 20
5.650872619691829
 30
0.0
 11
4.23842029323991
 21
5.482364471088308
 31
0.0
  0
CIRCLE
  5
4D7B
330
1E
100
AcDbEntity
  8
OBJECT
 62
     7
100
AcDbCircle
 10
4.3303547510829
 20
5.492244089299958
 30
0.0
 40
0.0098794008069126
  0
CIRCLE
  5
4D7C
330
1E
100
AcDbEntity
  8
OBJECT
 62
     7
100
AcDbCircle
 10
4.33380960086747
 20
5.656288317879165
 30
0.0
 40
0.0104749553834416
  0
LINE
  5
4D7E
330
1E
100
AcDbEntity
  8
DIM
 62
     1
100
AcDbLine
 10
4.876921372993562
 20
4.959671935847159
 30
0.0
 11
4.876921372993562
 21
5.739453058224671
 31
0.0
  0
LINE
  5
4D7F
330
1E
100
AcDbEntity
  8
OBJECT
 62
     7
100
AcDbLine
 10
5.430030951895744
 20
4.494464236953582
 30
0.0
 11
5.430030951895744
 21
5.067326817886467
 31
0.0
  0
LINE
  5
4D80
330
1E
100
AcDbEntity
  8
OBJECT
 62
     7
100
AcDbLine
 10
4.639225580123628
 20
4.533310425104159
 30
0.0
 11
4.629997587885142
 21
5.087080720695142
 31
0.0
  0
LINE
  5
4D81
330
1E
100
AcDbEntity
  8
OBJECT
 62
     7
100
AcDbLine
 10
5.123845158101982
 20
5.087080720695142
 30
0.0
 11
5.114614451677253
 21
4.533248030426742
 31
0.0
  0
SOLID
  5
4D82
330
1E
100
AcDbEntity
  8
DIM
100
AcDbTrace
 10
4.992410004868212
 20
4.460089433860193
 30
0.0
 11
4.925621933661268
 21
4.596706978650225
 31
0.0
 12
5.0331082317619
 22
4.489135162078122
 32
0.0
 13
5.0331082317619
 23
4.489135162078122
 33
0.0
1001
ACAD
1000
DSTYLE
1002
{
1070
   147
1040
0.09
1070
    77
1070
     0
1002
}
  0
LINE
  5
4D83
330
1E
100
AcDbEntity
  8
CENTER
 62
     3
100
AcDbLine
 10
4.669905923252064
 20
4.692005074497814
 30
0.0
 11
5.095654207606877
 21
4.692005074497814
 31
0.0
  0
CIRCLE
  5
4D84
330
1E
100
AcDbEntity
  8
OBJECT
 62
     7
100
AcDbCircle
 10
4.876921372993562
 20
4.692003265040316
 30
0.0
 40
0.1580312224693895
  0
CIRCLE
  5
4D85
330
1E
100
AcDbEntity
  8
OBJECT
 62
     7
100
AcDbCircle
 10
4.876921372993562
 20
4.692003265040316
 30
0.0
 40
0.0849417860280775
  0
CIRCLE
  5
4D86
330
1E
100
AcDbEntity
  8
OBJECT
 62
     7
100
AcDbCircle
 10
4.876921372993562
 20
4.692003265040316
 30
0.0
 40
0.1027202906543226
  0
CIRCLE
  5
4D87
330
1E
100
AcDbEntity
  8
OBJECT
 62
     7
100
AcDbCircle
 10
4.876921372993562
 20
4.692005074497814
 30
0.0
 40
0.1027202906543226
  0
LINE
  5
4D88
330
1E
100
AcDbEntity
  8
CENTER
 62
     3
100
AcDbLine
 10
4.876921372993562
 20
4.507678048254267
 30
0.0
 11
4.876921372993562
 21
4.897171935847159
 31
0.0
  0
ARC
  5
4D89
330
1E
100
AcDbEntity
  8
OBJECT
 62
     7
100
AcDbCircle
 10
4.678728866048013
 20
4.533972042570926
 30
0.0
 40
0.0395078056173474
100
AcDbArc
 50
180.9548035
 51
270.0
  0
LINE
  5
4D8A
330
1E
100
AcDbEntity
  8
OBJECT
 62
     7
100
AcDbLine
 10
5.457690212528009
 20
4.87768139010037
 30
0.0
 11
5.457690212528009
 21
4.593223502672174
 31
0.0
  0
ARC
  5
4D8B
330
1E
100
AcDbEntity
  8
OBJECT
 62
     7
100
AcDbCircle
 10
5.075113879939111
 20
4.533972042570926
 30
0.0
 40
0.0395078056173474
100
AcDbArc
 50
270.0
 51
359.0451049999998
  0
LINE
  5
4D8C
330
1E
100
AcDbEntity
  8
OBJECT
 62
     7
100
AcDbLine
 10
5.457690212528009
 20
4.593223502672174
 30
0.0
 11
5.469534838338775
 21
4.581381290788325
 31
0.0
  0
LINE
  5
4D8D
330
1E
100
AcDbEntity
  8
OBJECT
 62
     7
100
AcDbLine
 10
5.430030951895744
 20
4.618906954240822
 30
0.0
 11
5.457686297304475
 21
4.618906954240822
 31
0.0
  0
LINE
  5
4D8E
330
1E
100
AcDbEntity
  8
OBJECT
 62
     7
100
AcDbLine
 10
5.430030951895744
 20
4.940901958434375
 30
0.0
 11
5.457686297304475
 21
4.940901958434375
 31
0.0
  0
LINE
  5
4D90
330
1E
100
AcDbEntity
  8
OBJECT
 62
     7
100
AcDbLine
 10
4.604972019720523
 20
5.482364471088308
 30
0.0
 11
4.624736086481737
 21
5.442836337565887
 31
0.0
  0
LINE
  5
4D92
330
1E
100
AcDbEntity
  8
OBJECT
 62
     7
100
AcDbLine
 10
4.532367060291612
 20
5.699768901094998
 30
0.0
 11
4.527787931569333
 21
5.482364471088308
 31
0.0
  0
LINE
  5
4D93
330
1E
100
AcDbEntity
  8
OBJECT
 62
     7
100
AcDbLine
 10
4.537669964949941
 20
5.482364471088308
 30
0.0
 11
4.542249093672214
 21
5.699768901094998
 31
0.0
  0
LINE
  5
4D94
330
1E
100
AcDbEntity
  8
OBJECT
 62
     7
100
AcDbLine
 10
4.522485026911008
 20
5.699768901094998
 30
0.0
 11
4.517905898188724
 21
5.482364471088308
 31
0.0
  0
CIRCLE
  5
4D95
330
1E
100
AcDbEntity
  8
OBJECT
 62
     7
100
AcDbCircle
 10
4.532159573165937
 20
5.689889282883348
 30
0.0
 40
0.0098794008069126
  0
CIRCLE
  5
4D96
330
1E
100
AcDbEntity
  8
OBJECT
 62
     7
100
AcDbCircle
 10
4.528705023795188
 20
5.525845659084587
 30
0.0
 40
0.0104749553834416
  0
CIRCLE
  5
4D97
330
1E
100
AcDbEntity
  8
OBJECT
 62
     7
100
AcDbCircle
 10
4.530535891836496
 20
5.612806829469071
 30
0.0
 40
0.0104749553834416
  0
ARC
  5
4D9B
330
1E
100
AcDbEntity
  8
OBJECT
 62
     7
100
AcDbCircle
 10
5.314524211494958
 20
5.344016003759834
 30
0.0
 40
0.1383484673284733
100
AcDbArc
 50
51.33200070000003
 51
134.4149932999999
  0
LINE
  5
4D9C
330
1E
100
AcDbEntity
  8
DIM
 62
     1
100
AcDbLine
 10
5.430030951895748
 20
5.129826817886467
 30
0.0
 11
5.430030951895749
 21
5.742440293439297
 31
0.0
  0
LINE
  5
4D9D
330
1E
100
AcDbEntity
  8
DIM
 62
     1
100
AcDbLine
 10
5.430030951895744
 20
5.129826817886467
 30
0.0
 11
5.430030951895744
 21
5.745427528653923
 31
0.0
  0
LINE
  5
4D9E
330
1E
100
AcDbEntity
  8
OBJECT
 62
     7
100
AcDbLine
 10
5.411346908064373
 20
5.087080119867513
 30
0.0
 11
5.268621972754186
 21
5.087080119867513
 31
0.0
  0
LINE
  5
4D9F
330
1E
100
AcDbEntity
  8
OBJECT
 62
     7
100
AcDbLine
 10
5.257191045272763
 20
5.126610063778452
 30
0.0
 11
5.257186222840473
 21
5.383542931674186
 31
0.0
  0
LINE
  5
4DA0
330
1E
100
AcDbEntity
  8
OBJECT
 62
     7
100
AcDbLine
 10
5.292762507497108
 20
5.087080119867513
 30
0.0
 11
5.292762507497108
 21
5.442833922396934
 31
0.0
  0
ARC
  5
4DA1
330
1E
100
AcDbEntity
  8
OBJECT
 62
     7
100
AcDbCircle
 10
5.237426978511551
 20
5.126610063778452
 30
0.0
 40
0.0197640667612105
100
AcDbArc
 50
270.0
 51
0.0008742999999719
  0
ARC
  5
4DA2
330
1E
100
AcDbEntity
  8
OBJECT
 62
     7
100
AcDbCircle
 10
5.237422156079265
 20
5.383542931674186
 30
0.0
 40
0.0197640667612105
100
AcDbArc
 50
0.0008742999999719
 51
90.0
  0
LINE
  5
4DA3
330
1E
100
AcDbEntity
  8
OBJECT
 62
     7
100
AcDbLine
 10
5.411346908064373
 20
5.087083736691727
 30
0.0
 11
5.411346908064373
 21
5.430433128678584
 31
0.0
  0
ARC
  5
4DA4
330
1E
100
AcDbEntity
  8
OBJECT
 62
     7
100
AcDbCircle
 10
5.410277049087074
 20
5.067326817886467
 30
0.0
 40
0.0197539028086737
100
AcDbArc
 50
0.0
 51
90.0
  0
ARC
  5
4DA5
330
1E
100
AcDbEntity
  8
OBJECT
 62
     7
100
AcDbCircle
 10
5.379722468320707
 20
5.411214613404995
 30
0.0
 40
0.0316225068179368
100
AcDbArc
 50
0.0
 51
90.0
  0
ARC
  5
4DA6
330
1E
100
AcDbEntity
  8
OBJECT
 62
     7
100
AcDbCircle
 10
5.383676732355446
 20
5.430433128678584
 30
0.0
 40
0.0276696934656947
100
AcDbArc
 50
0.0
 51
51.33121109999997
  0
MTEXT
  5
4DAA
330
1E
100
AcDbEntity
  8
DIM
 62
     7
100
AcDbMText
 10
4.440644406683906
 20
8.020567376918535
 30
0.0
 40
0.09
 41
0.0
 71
     5
 72
     1
  1
23.3\P[.917]
 73
     1
 44
1.0
1001
ACAD
1000
MTEXTBEGIN
1070
    73
1070
     1
1070
    44
1040
1.0
1070
    74
1070
     0
1000
MTEXTEND
  0
LINE
  5
4DAB
330
1E
100
AcDbEntity
  8
DIM
 62
     1
100
AcDbLine
 10
3.956389683845273
 20
6.163133530267916
 30
0.0
 11
3.956389683845273
 21
8.111305501985118
 31
0.0
  0
LINE
  5
4DAC
330
1E
100
AcDbEntity
  8
DIM
 62
     1
100
AcDbLine
 10
3.670863994767568
 20
8.413683007491332
 30
0.0
 11
3.973892683880565
 21
8.413683007491332
 31
0.0
  0
SOLID
  5
4DAD
330
1E
100
AcDbEntity
  8
DIM
 62
     1
100
AcDbTrace
 10
3.670863994767568
 20
8.438683007491333
 30
0.0
 11
3.670863994767568
 21
8.388683007491332
 31
0.0
 12
3.520863994767569
 22
8.413683007491332
 32
0.0
 13
3.520863994767569
 23
8.413683007491332
 33
0.0
  0
SOLID
  5
4DAE
330
1E
100
AcDbEntity
  8
DIM
 62
     1
100
AcDbTrace
 10
4.106389683845275
 20
8.045567376918535
 30
0.0
 11
4.106389683845275
 21
7.995567376918534
 31
0.0
 12
3.956389683845273
 22
8.020567376918535
 32
0.0
 13
3.956389683845273
 23
8.020567376918535
 33
0.0
  0
LINE
  5
4DAF
330
1E
100
AcDbEntity
  8
DIM
 62
     1
100
AcDbLine
 10
4.106389683845275
 20
8.020567376918535
 30
0.0
 11
4.2381820787975
 21
8.020567376918535
 31
0.0
  0
LINE
  5
4DB6
330
1E
100
AcDbEntity
  8
DIM
 62
     1
100
AcDbLine
 10
6.236497265375727
 20
6.137779280451017
 30
0.0
 11
6.236497265375727
 21
6.472510927940049
 31
0.0
  0
LINE
  5
4DB7
330
1E
100
AcDbEntity
  8
DIM
 62
     1
100
AcDbLine
 10
6.236497265375724
 20
6.137779280451017
 30
0.0
 11
6.236497265375724
 21
6.624253424068765
 31
0.0
  0
MTEXT
  5
4DBC
330
1E
100
AcDbEntity
  8
DIM
 62
     7
100
AcDbMText
 10
5.15981917249342
 20
8.41517717505264
 30
0.0
 40
0.09
 41
0.0
 71
     5
 72
     1
  1
14\P[.551]
 73
     1
 44
1.0
1001
ACAD
1000
MTEXTBEGIN
1070
    73
1070
     1
1070
    44
1040
1.0
1070
    74
1070
     0
1000
MTEXTEND
  0
SOLID
  5
4DBD
330
1E
100
AcDbEntity
  8
DIM
 62
     1
100
AcDbTrace
 10
4.726921372993562
 20
8.045567376918535
 30
0.0
 11
4.726921372993562
 21
7.995567376918534
 31
0.0
 12
4.876921372993562
 22
8.020567376918535
 32
0.0
 13
4.876921372993562
 23
8.020567376918535
 33
0.0
  0
LINE
  5
4DBE
330
1E
100
AcDbEntity
  8
DIM
 62
     1
100
AcDbLine
 10
4.726921372993562
 20
8.413683007491332
 30
0.0
 11
4.423892683880565
 21
8.413683007491332
 31
0.0
  0
LINE
  5
4DBF
330
1E
100
AcDbEntity
  8
DIM
 62
     1
100
AcDbLine
 10
4.641502658966764
 20
8.020567376918535
 30
0.0
 11
4.726921372993562
 21
8.020567376918535
 31
0.0
  0
SOLID
  5
4DC0
330
1E
100
AcDbEntity
  8
DIM
 62
     1
100
AcDbTrace
 10
4.726921372993562
 20
8.438683007491333
 30
0.0
 11
4.726921372993562
 21
8.388683007491332
 31
0.0
 12
4.876921372993562
 22
8.413683007491332
 32
0.0
 13
4.876921372993562
 23
8.413683007491332
 33
0.0
  0
SOLID
  5
4DC1
330
1E
100
AcDbEntity
  8
DIM
 62
     1
100
AcDbTrace
 10
5.580030951895748
 20
8.440177175052641
 30
0.0
 11
5.580030951895748
 21
8.39017717505264
 31
0.0
 12
5.430030951895748
 22
8.41517717505264
 32
0.0
 13
5.430030951895748
 23
8.41517717505264
 33
0.0
  0
MTEXT
  5
4DC2
330
1E
100
AcDbEntity
  8
DIM
 62
     7
100
AcDbMText
 10
7.871562874641012
 20
5.830185175934476
 30
0.0
 40
0.09
 41
0.0
 71
     5
 72
     1
  1
61.2mm\P[2.409]
 73
     1
 44
1.0
1001
ACAD
1000
MTEXTBEGIN
1070
    73
1070
     1
1070
    44
1040
1.0
1070
    74
1070
     0
1000
MTEXTEND
  0
LINE
  5
4DC3
330
1E
100
AcDbEntity
  8
DIM
 62
     1
100
AcDbLine
 10
7.160166792247373
 20
6.750766949431227
 30
0.0
 11
7.160166792247373
 21
5.619879863543131
 31
0.0
  0
MTEXT
  5
4DC4
330
1E
100
AcDbEntity
  8
DIM
 62
     7
100
AcDbMText
 10
5.914502495900526
 20
5.084724223164394
 30
0.0
 40
0.09
 41
0.0
 71
     5
 72
     1
  1
20\P[.787]
 73
     1
 44
1.0
1001
ACAD
1000
MTEXTBEGIN
1070
    73
1070
     1
1070
    44
1040
1.0
1070
    74
1070
     0
1000
MTEXTEND
  0
LINE
  5
4DC5
330
1E
100
AcDbEntity
  8
DIM
 62
     1
100
AcDbLine
 10
7.160166792247373
 20
4.842005074497814
 30
0.0
 11
7.160166792247373
 21
5.242371066961998
 31
0.0
  0
LINE
  5
4DC6
330
1E
100
AcDbEntity
  8
DIM
 62
     1
100
AcDbLine
 10
6.165026257936109
 20
4.296914960542062
 30
0.0
 11
6.679075626050461
 21
4.296914960542062
 31
0.0
  0
LINE
  5
4DC7
330
1E
100
AcDbEntity
  8
OBJECT
 62
     7
100
AcDbLine
 10
5.825105088894903
 20
4.533973852028425
 30
0.0
 11
6.04239801979031
 21
4.533973852028425
 31
0.0
  0
ARC
  5
4DC8
330
1E
100
AcDbEntity
  8
OBJECT
 62
     7
100
AcDbCircle
 10
6.04239801979031
 20
4.51421994921975
 30
0.0
 40
0.0197539028086737
100
AcDbArc
 50
0.0
 51
90.0
  0
LINE
  5
4DC9
330
1E
100
AcDbEntity
  8
DIM
 62
     1
100
AcDbLine
 10
5.848097283277564
 20
4.692005074497814
 30
0.0
 11
6.345293123571373
 21
4.692005074497814
 31
0.0
  0
SOLID
  5
4DCA
330
1E
100
AcDbEntity
  8
DIM
 62
     1
100
AcDbTrace
 10
5.889502495900527
 20
4.842005074497814
 30
0.0
 11
5.939502495900528
 21
4.842005074497814
 31
0.0
 12
5.914502495900528
 22
4.692005074497814
 32
0.0
 13
5.914502495900528
 23
4.692005074497814
 33
0.0
  0
ARC
  5
4DCB
330
1E
100
AcDbEntity
  8
OBJECT
 62
     7
100
AcDbCircle
 10
5.785597283277564
 20
4.65249726888047
 30
0.0
 40
0.0395078056173474
100
AcDbArc
 50
0.0
 51
90.0
  0
LINE
  5
4DCC
330
1E
100
AcDbEntity
  8
DIM
 62
     1
100
AcDbLine
 10
5.914502495900528
 20
4.842005074497814
 30
0.0
 11
5.914502495900528
 21
4.917906250057733
 31
0.0
  0
MTEXT
  5
4DCD
330
1E
100
AcDbEntity
  8
DIM
 62
     7
100
AcDbMText
 10
6.61657562605046
 20
4.49446001751994
 30
0.0
 40
0.09
 41
0.0
 71
     5
 72
     1
  1
10\P[.394]
 73
     1
 44
1.0
1001
ACAD
1000
MTEXTBEGIN
1070
    73
1070
     1
1070
    44
1040
1.0
1070
    74
1070
     0
1000
MTEXTEND
  0
SOLID
  5
4DCE
330
1E
100
AcDbEntity
  8
DIM
 62
     1
100
AcDbTrace
 10
7.135166792247373
 20
4.842005074497814
 30
0.0
 11
7.185166792247374
 21
4.842005074497814
 31
0.0
 12
7.160166792247373
 22
4.692005074497814
 32
0.0
 13
7.160166792247373
 23
4.692005074497814
 33
0.0
  0
MTEXT
  5
4DCF
330
1E
100
AcDbEntity
  8
DIM
 62
     7
100
AcDbMText
 10
7.140033298346954
 20
5.436614040782229
 30
0.0
 40
0.09
 41
0.0
 71
     5
 72
     1
  1
53±1.2mm\P[2.087±.047]
 73
     1
 44
1.0
1001
ACAD
1000
MTEXTBEGIN
1070
    73
1070
     1
1070
    44
1040
1.0
1070
    74
1070
     0
1000
MTEXTEND
  0
SOLID
  5
4DD0
330
1E
100
AcDbEntity
  8
DIM
 62
     1
100
AcDbTrace
 10
5.889502495900527
 20
5.330342734225755
 30
0.0
 11
5.939502495900528
 21
5.330342734225755
 31
0.0
 12
5.914502495900528
 22
5.480342734225754
 32
0.0
 13
5.914502495900528
 23
5.480342734225754
 33
0.0
  0
LINE
  5
4DD1
330
1E
100
AcDbEntity
  8
DIM
 62
     1
100
AcDbLine
 10
5.914502495900528
 20
5.330342734225755
 30
0.0
 11
5.914502495900528
 21
5.264836188054053
 31
0.0
  0
LINE
  5
4DD2
330
1E
100
AcDbEntity
  8
DIM
100
AcDbLine
 10
7.861005264850412
 20
4.692005074497813
 30
0.0
 11
7.861005264850412
 21
5.644679060393418
 31
0.0
  0
SOLID
  5
4DD3
330
1E
100
AcDbEntity
  8
DIM
 62
     1
100
AcDbTrace
 10
7.836005264850411
 20
4.842005074497813
 30
0.0
 11
7.886005264850412
 21
4.842005074497813
 31
0.0
 12
7.861005264850412
 22
4.692005074497813
 32
0.0
 13
7.861005264850412
 23
4.692005074497813
 33
0.0
  0
MTEXT
  5
4DD4
330
1E
100
AcDbEntity
  8
DIM
 62
     7
100
AcDbMText
 10
8.288601143884278
 20
5.851481331259979
 30
0.0
 40
0.09
 41
0.0
 71
     5
 72
     1
  1
MAX
 73
     1
 44
1.0
1001
ACAD
1000
MTEXTBEGIN
1070
    73
1070
     1
1070
    44
1040
1.0
1070
    74
1070
     0
1000
MTEXTEND
  0
MTEXT
  5
4DD5
330
1E
100
AcDbEntity
  8
DIM
 62
     7
100
AcDbMText
 10
6.493092560374379
 20
7.537001671785582
 30
0.0
 40
0.09
 41
0.0
 71
     5
 72
     1
  1
R73\P[2.874]
 73
     1
 44
1.0
1001
ACAD
1000
MTEXTBEGIN
1070
    73
1070
     1
1070
    44
1040
1.0
1070
    74
1070
     0
1000
MTEXTEND
  0
SOLID
  5
4DD6
330
1E
100
AcDbEntity
  8
DIM
 62
     1
100
AcDbTrace
 10
7.135166792247373
 20
6.600766949431227
 30
0.0
 11
7.185166792247374
 21
6.600766949431227
 31
0.0
 12
7.160166792247373
 22
6.750766949431227
 32
0.0
 13
7.160166792247373
 23
6.750766949431227
 33
0.0
  0
LINE
  5
4DD7
330
1E
100
AcDbEntity
  8
DIM
100
AcDbLine
 10
7.861005264850409
 20
7.101005074497814
 30
0.0
 11
7.861005264850412
 21
6.040913135601186
 31
0.0
  0
SOLID
  5
4DD8
330
1E
100
AcDbEntity
  8
DIM
 62
     1
100
AcDbTrace
 10
7.836005264850409
 20
6.951005074497812
 30
0.0
 11
7.886005264850409
 21
6.951005074497812
 31
0.0
 12
7.861005264850409
 22
7.101005074497814
 32
0.0
 13
7.861005264850409
 23
7.101005074497814
 33
0.0
  0
MTEXT
  5
4DD9
330
1E
100
AcDbEntity
  8
DIM
 62
     7
100
AcDbMText
 10
4.375171984852511
 20
8.796466247161752
 30
0.0
 40
0.09
 41
0.0
 71
     5
 72
     1
  1
53.4\P[2.102]
 73
     1
 44
1.0
1001
ACAD
1000
MTEXTBEGIN
1070
    73
1070
     1
1070
    44
1040
1.0
1070
    74
1070
     0
1000
MTEXTEND
  0
LINE
  5
4DDA
330
1E
100
AcDbEntity
  8
DIM
 62
     1
100
AcDbLine
 10
3.470313017809278
 20
8.796466247161752
 30
0.0
 11
4.150171984852512
 21
8.796466247161752
 31
0.0
  0
SOLID
  5
4DDB
330
1E
100
AcDbEntity
  8
DIM
 62
     1
100
AcDbTrace
 10
3.470313017809278
 20
8.821466247161753
 30
0.0
 11
3.470313017809278
 21
8.771466247161752
 31
0.0
 12
3.320313017809278
 22
8.796466247161752
 32
0.0
 13
3.320313017809278
 23
8.796466247161752
 33
0.0
  0
LINE
  5
4DDC
330
1E
100
AcDbEntity
  8
DIM
 62
     1
100
AcDbLine
 10
5.280030951895744
 20
8.796466247161752
 30
0.0
 11
4.600171984852511
 21
8.796466247161752
 31
0.0
  0
SOLID
  5
4DDD
330
1E
100
AcDbEntity
  8
DIM
 62
     1
100
AcDbTrace
 10
5.280030951895744
 20
8.821466247161753
 30
0.0
 11
5.280030951895744
 21
8.771466247161752
 31
0.0
 12
5.430030951895744
 22
8.796466247161752
 32
0.0
 13
5.430030951895744
 23
8.796466247161752
 33
0.0
  0
SOLID
  5
4DE3
330
1E
100
AcDbEntity
  8
DIM
100
AcDbTrace
 10
6.080473382993736
 20
6.999538024336723
 30
0.0
 11
6.226437499820688
 21
6.956882701117597
 31
0.0
 12
6.074529176372776
 22
6.949892617624245
 32
0.0
 13
6.074529176372776
 23
6.949892617624245
 33
0.0
1001
ACAD
1000
DSTYLE
1002
{
1070
   147
1040
0.09
1070
    77
1070
     0
1002
}
  0
SOLID
  5
4DE4
330
1E
100
AcDbEntity
  8
DIM
100
AcDbTrace
 10
5.628240796972987
 20
7.304737138049655
 30
0.0
 11
5.762512803229835
 21
7.376123609707529
 31
0.0
 12
5.658651112443478
 22
7.265048188542454
 32
0.0
 13
5.658651112443478
 23
7.265048188542454
 33
0.0
1001
ACAD
1000
DSTYLE
1002
{
1070
   147
1040
0.09
1070
    77
1070
     0
1002
}
  0
LINE
  5
4DE7
330
1E
100
AcDbEntity
  8
DIM
 62
     1
100
AcDbLine
 10
6.482342341763619
 20
6.750766949431227
 30
0.0
 11
7.222560686564698
 21
6.750766949431227
 31
0.0
  0
LINE
  5
4DEA
330
1E
100
AcDbEntity
  8
FORM
 62
     1
100
AcDbLine
 10
4.05809789629594
 20
6.013132688507912
 30
0.0
 11
6.01845194342613
 21
7.580793683319316
 31
0.0
  0
LINE
  5
4DEB
330
1E
100
AcDbEntity
  8
DIM
 62
     1
100
AcDbLine
 10
4.876921372993562
 20
5.869991916599857
 30
0.0
 11
4.876921372993562
 21
6.577545754250909
 31
0.0
  0
SOLID
  5
4DEF
330
1E
100
AcDbEntity
  8
DIM
 62
     1
100
AcDbTrace
 10
5.230019424113399
 20
6.265660574160524
 30
0.0
 11
5.180185386476342
 21
6.269731040078394
 31
0.0
 12
5.192891007541261
 22
6.118193694208294
 32
0.0
 13
5.192891007541261
 23
6.118193694208294
 33
0.0
  0
LINE
  5
4DF1
330
1E
100
AcDbEntity
  8
DIM
100
AcDbLine
 10
3.097972027036178
 20
8.027926513685985
 30
0.0
 11
2.915325362713673
 21
8.027926513685985
 31
0.0
  0
CIRCLE
  5
4DF2
102
{ACAD_REACTORS
330
4DF6
102
}
330
1E
100
AcDbEntity
  8
DIM
100
AcDbCircle
 10
5.456911256110574
 20
6.736945979965064
 30
0.0
 40
0.0195275697918831
  0
HATCH
  5
4DF6
330
1E
100
AcDbEntity
  8
DIM
100
AcDbHatch
 10
0.0
 20
0.0
 30
0.0
210
0.0
220
0.0
230
1.0
  2
SOLID
 70
     1
 71
     1
 91
        1
 92
        7
 72
     1
 73
     1
 93
        2
 10
5.476438825902457
 20
6.736945979965064
 42
1.0
 10
5.437383686318691
 20
6.736945979965064
 42
1.0
 97
        1
330
4DF2
 75
     0
 76
     1
 47
0.0005824552638178
 98
        1
 10
5.464153332117762
 20
6.730232444686414
  0
MTEXT
  5
4DF7
330
1E
100
AcDbEntity
  8
DIM
 62
     7
100
AcDbMText
 10
2.175983227040529
 20
7.960615786633075
 30
0.0
 40
0.09
 41
0.0
 71
     5
 72
     1
  1
ANGLE OF ROLLER\PSWING: 90°
 73
     1
 44
1.0
1001
ACAD
1000
MTEXTBEGIN
1070
    73
1070
     1
1070
    44
1040
1.0
1070
    74
1070
     0
1000
MTEXTEND
  0
MTEXT
  5
4DF8
330
1E
100
AcDbEntity
  8
DIM
 62
     7
100
AcDbMText
 10
4.337120635490866
 20
9.266739805184467
 30
0.0
 40
0.09
 41
0.0
 71
     5
 72
     1
  1
OPERATING DIRECTION
 73
     1
 44
1.0
1001
ACAD
1000
MTEXTBEGIN
1070
    73
1070
     1
1070
    44
1040
1.0
1070
    74
1070
     0
1000
MTEXTEND
  0
LEADER
  5
4DF9
330
1E
100
AcDbEntity
  8
DIM
100
AcDbLeader
  3
Standard
 76
     2
 10
5.183006632659555
 20
9.14290008735314
 30
0.0
 10
3.516356093988825
 20
9.14290008735314
 30
0.0
1001
ACAD
1000
DSTYLE
1002
{
1070
   147
1040
0.09
1070
    77
1070
     0
1002
}
  0
LINE
  5
4DFA
330
1E
100
AcDbEntity
  8
DIM
100
AcDbLine
 10
5.456911256110574
 20
6.736945979965064
 30
0.0
 11
5.220695720052169
 21
6.866220043092797
 31
0.0
  0
ARC
  5
4E05
330
1E
100
AcDbEntity
  8
DIM
100
AcDbCircle
 10
3.517948347853952
 20
5.581184500527733
 30
0.0
 40
2.873999999999999
100
AcDbArc
 50
9.396077992054607
 51
28.01884022644528
  0
LINE
  5
4E06
330
1E
100
AcDbEntity
  8
DIM
 62
     1
100
AcDbLine
 10
6.332311149495005
 20
7.101005074497814
 30
0.0
 11
7.911331577723558
 21
7.101005074497814
 31
0.0
  0
LINE
  5
4E08
330
1E
100
AcDbEntity
  8
DIM
 62
     1
100
AcDbLine
 10
4.876921372993562
 20
6.725479153960055
 30
0.0
 11
4.876921372993562
 21
6.983517896808965
 31
0.0
  0
LINE
  5
4E09
330
1E
100
AcDbEntity
  8
DIM
 62
     1
100
AcDbLine
 10
5.430030951895744
 20
5.877746887360213
 30
0.0
 11
5.430030951895744
 21
6.652493156248866
 31
0.0
  0
ARC
  5
4E0A
330
1E
100
AcDbEntity
  8
DIM
100
AcDbCircle
 10
3.517948347853952
 20
5.581184500527733
 30
0.0
 40
2.873999999999999
100
AcDbArc
 50
38.64871723482425
 51
40.58682226837177
  0
LINE
  5
4E0D
330
1E
100
AcDbEntity
  8
DIM
100
AcDbLine
 10
6.01845194342613
 20
7.580793683319316
 30
0.0
 11
6.279375667805398
 21
7.580793683319316
 31
0.0
  0
LINE
  5
4E12
330
1E
100
AcDbEntity
  8
DIM
 62
     1
100
AcDbLine
 10
4.876921372993562
 20
7.138510853705945
 30
0.0
 11
4.876921372993562
 21
8.476183007491332
 31
0.0
  0
LINE
  5
4E13
330
1E
100
AcDbEntity
  8
DIM
 62
     1
100
AcDbLine
 10
5.430030951895744
 20
7.194308305746691
 30
0.0
 11
5.430030951895744
 21
8.858966247161752
 31
0.0
  0
LINE
  5
4E14
330
1E
100
AcDbEntity
  8
DIM
 62
     1
100
AcDbLine
 10
5.430030951895744
 20
6.822325214378171
 30
0.0
 11
5.430030951895744
 21
7.039315348849708
 31
0.0
  0
LINE
  5
4E16
330
1E
100
AcDbEntity
  8
DIM
100
AcDbLine
 10
5.127727103097224
 20
6.917099130292887
 30
0.0
 11
4.012682701303484
 21
7.527331305504556
 31
0.0
  0
LINE
  5
4E17
330
1E
100
AcDbEntity
  8
DIM
100
AcDbLine
 10
3.881508792217911
 20
7.599119065474956
 30
0.0
 11
3.581335624682114
 21
7.763395326286525
 31
0.0
  0
LINE
  5
4E18
330
1E
100
AcDbEntity
  8
DIM
100
AcDbLine
 10
3.474040035007816
 20
7.82211515930146
 30
0.0
 11
3.369355375269548
 21
7.879406104415943
 31
0.0
  0
LINE
  5
4E19
330
1E
100
AcDbEntity
  8
DIM
100
AcDbLine
 10
3.262506019439891
 20
7.93788172630419
 30
0.0
 11
3.097972027036178
 21
8.027926513685985
 31
0.0
  0
ARC
  5
4E1B
330
1E
100
AcDbEntity
  8
DIM
100
AcDbCircle
 10
6.049948534825989
 20
6.118193694208294
 30
0.0
 40
0.857057527284728
100
AcDbArc
 50
78.11638839812158
 51
180.0
  0
ARC
  5
4E1C
330
1E
100
AcDbEntity
  8
DIM
100
AcDbCircle
 10
3.517948347853952
 20
5.581184500527733
 30
0.0
 40
2.873999999999999
100
AcDbArc
 50
30.42116165473102
 51
39.35790992921901
  0
ENDSEC
  0
SECTION
  2
OBJECTS
  0
DICTIONARY
  5
C
330
0
100
AcDbDictionary
281
     1
  3
ACAD_COLOR
350
4E23
  3
ACAD_GROUP
350
D
  3
ACAD_LAYOUT
350
19
  3
ACAD_MATERIAL
350
4E22
  3
ACAD_MLINESTYLE
350
16
  3
ACAD_PLOTSETTINGS
350
18
  3
ACAD_PLOTSTYLENAME
350
E
  3
ACAD_TABLESTYLE
350
4E24
  3
AcadDim
350
44BB
  3
ACDBHEADERROUNDTRIPXREC
350
4EE0
  3
AcDbVariableDictionary
350
3CD
  3
AcmDictionary
350
4E83
  3
AMG
350
4E2B
  3
AMGSNAPSETTINGS
350
4ED6
  3
ASE_INDEX_DICTIONARY
350
3E2
  0
DICTIONARY
  5
4E23
102
{ACAD_REACTORS
330
C
102
}
330
C
100
AcDbDictionary
281
     1
  0
DICTIONARY
  5
D
102
{ACAD_REACTORS
330
C
102
}
330
C
100
AcDbDictionary
281
     1
  0
DICTIONARY
  5
19
102
{ACAD_REACTORS
330
C
102
}
330
C
100
AcDbDictionary
281
     1
  3
Layout1
350
1D
  3
Model
350
21
  0
DICTIONARY
  5
4E22
102
{ACAD_REACTORS
330
C
102
}
330
C
100
AcDbDictionary
281
     1
  0
DICTIONARY
  5
16
102
{ACAD_REACTORS
330
C
102
}
330
C
100
AcDbDictionary
281
     1
  3
Standard
350
17
  0
DICTIONARY
  5
18
102
{ACAD_REACTORS
330
C
102
}
330
C
100
AcDbDictionary
281
     1
  0
ACDBDICTIONARYWDFLT
  5
E
102
{ACAD_REACTORS
330
C
102
}
330
C
100
AcDbDictionary
281
     1
  3
Normal
350
F
100
AcDbDictionaryWithDefault
340
F
  0
DICTIONARY
  5
4E24
102
{ACAD_REACTORS
330
C
102
}
330
C
100
AcDbDictionary
281
     1
  3
Standard
350
4E25
  0
XRECORD
  5
44BB
102
{ACAD_REACTORS
330
C
102
}
330
C
100
AcDbXrecord
280
     1
 90
   990106
  3

 60
     0
 61
     0
 62
     1
 63
     3
 64
     0
 65
     0
 66
     0
 67
     3
 68
     1
 69
     0
 70
     0
 71
     0
 72
     0
 40
0.0
170
     0
  0
DICTIONARY
  5
4EE0
102
{ACAD_REACTORS
330
C
102
}
330
C
100
AcDbDictionary
281
     1
  0
DICTIONARY
  5
3CD
102
{ACAD_REACTORS
330
C
102
}
330
C
100
AcDbDictionary
281
     1
  3
CTABLESTYLE
350
4EDD
  3
DIMASSOC
350
3CF
  3
HIDETEXT
350
3CE
  3
PROJECTNAME
350
4EDE
  0
DICTIONARY
  5
4E83
102
{ACAD_REACTORS
330
C
102
}
330
C
100
AcDbDictionary
281
     1
  3
AcmStdDictionary
350
4E8E
  3
AMDTSECTSYM_ARROWCOLOR
350
4EAC
  0
DICTIONARY
  5
4E2B
102
{ACAD_REACTORS
330
C
102
}
330
C
100
AcDbDictionary
281
     1
  0
DICTIONARY
  5
4ED6
102
{ACAD_REACTORS
330
C
102
}
330
C
100
AcDbDictionary
281
     1
  0
DICTIONARY
  5
3E2
102
{ACAD_REACTORS
330
C
102
}
330
C
100
AcDbDictionary
281
     1
  3
ASEBlockHierarchyIndexRecord
350
3E4
1001
DCO15
1040
1464945035.036
  0
LAYOUT
  5
1D
102
{ACAD_XDICTIONARY
360
4EE1
102
}
102
{ACAD_REACTORS
330
19
102
}
330
19
100
AcDbPlotSettings
  1

  2
C:\Program Files\AutoCAD 2002\plotters\DWF ePlot (optimized for plotting).pc3
  4

  6

 40
0.0
 41
0.0
 42
0.0
 43
0.0
 44
0.0
 45
0.0
 46
0.0
 47
0.0
 48
0.0
 49
0.0
140
0.0
141
0.0
142
1.0
143
1.0
 70
   688
 72
     0
 73
     0
 74
     5
  7
standard.ctb
 75
    16
147
1.0
148
0.0
149
0.0
100
AcDbLayout
  1
Layout1
 70
     1
 71
     1
 10
0.0
 20
0.0
 11
12.0
 21
9.0
 12
0.0
 22
0.0
 32
0.0
 14
1.000000000000000E+20
 24
1.000000000000000E+20
 34
1.000000000000000E+20
 15
-1.000000000000000E+20
 25
-1.000000000000000E+20
 35
-1.000000000000000E+20
146
0.0
 13
0.0
 23
0.0
 33
0.0
 16
1.0
 26
0.0
 36
0.0
 17
0.0
 27
1.0
 37
0.0
 76
     0
330
1A
  0
LAYOUT
  5
21
102
{ACAD_XDICTIONARY
360
4EE3
102
}
102
{ACAD_REACTORS
330
19
102
}
330
19
100
AcDbPlotSettings
  1

  2
\\USCHMMGMT015\USCHMPD0026
  4
Tabloid
  6

 40
5.027083396911621
 41
5.027085304260253
 42
5.027099609375
 43
5.027069091796875
 44
279.3999938964844
 45
431.7999877929687
 46
0.0
 47
0.0
 48
0.0
 49
0.0
140
0.0
141
0.0
142
1.0
143
0.9914069849915843
 70
 11952
 72
     0
 73
     1
 74
     1
  7
standard.ctb
 75
     0
147
1.008667494922368
148
-2.622321565056127
149
-7.644107715091882
100
AcDbLayout
  1
Model
 70
     1
 71
     0
 10
0.0
 20
0.0
 11
12.0
 21
9.0
 12
0.0
 22
0.0
 32
0.0
 14
0.0
 24
0.0
 34
0.0
 15
0.0
 25
0.0
 35
0.0
146
0.0
 13
0.0
 23
0.0
 33
0.0
 16
1.0
 26
0.0
 36
0.0
 17
0.0
 27
1.0
 37
0.0
 76
     0
330
1E
  0
MLINESTYLE
  5
17
102
{ACAD_REACTORS
330
16
102
}
330
16
100
AcDbMlineStyle
  2
STANDARD
 70
     0
  3

 62
   256
 51
90.0
 52
90.0
 71
     2
 49
0.5
 62
   256
  6
BYLAYER
 49
-0.5
 62
   256
  6
BYLAYER
  0
ACDBPLACEHOLDER
  5
F
102
{ACAD_REACTORS
330
E
102
}
330
E
  0
TABLESTYLE
  5
4E25
102
{ACAD_REACTORS
330
4E24
102
}
330
4E24
100
AcDbTableStyle
  3
Standard
 70
     0
 71
     0
 40
0.06
 41
0.06
280
     0
281
     0
  7
STANDARD
140
0.18
170
     2
 62
     0
 63
     7
283
     0
274
    -2
284
     1
 64
     0
275
    -2
285
     1
 65
     0
276
    -2
286
     1
 66
     0
277
    -2
287
     1
 67
     0
278
    -2
288
     1
 68
     0
279
    -2
289
     1
 69
     0
  7
STANDARD
140
0.25
170
     5
 62
     0
 63
     7
283
     0
274
    -2
284
     1
 64
     0
275
    -2
285
     1
 65
     0
276
    -2
286
     1
 66
     0
277
    -2
287
     1
 67
     0
278
    -2
288
     1
 68
     0
279
    -2
289
     1
 69
     0
  7
STANDARD
140
0.18
170
     5
 62
     0
 63
     7
283
     0
274
    -2
284
     1
 64
     0
275
    -2
285
     1
 65
     0
276
    -2
286
     1
 66
     0
277
    -2
287
     1
 67
     0
278
    -2
288
     1
 68
     0
279
    -2
289
     1
 69
     0
  0
DICTIONARYVAR
  5
4EDD
102
{ACAD_REACTORS
330
3CD
102
}
330
3CD
100
DictionaryVariables
280
     0
  1
STANDARD
  0
DICTIONARYVAR
  5
3CF
102
{ACAD_REACTORS
330
3CD
102
}
330
3CD
100
DictionaryVariables
280
     0
  1
0
  0
DICTIONARYVAR
  5
3CE
102
{ACAD_REACTORS
330
3CD
102
}
330
3CD
100
DictionaryVariables
280
     0
  1
1
  0
DICTIONARYVAR
  5
4EDE
102
{ACAD_REACTORS
330
3CD
102
}
330
3CD
100
DictionaryVariables
280
     0
  1

  0
DICTIONARY
  5
4E8E
102
{ACAD_REACTORS
330
4E83
102
}
330
4E83
100
AcDbDictionary
281
     1
  0
XRECORD
  5
4EAC
102
{ACAD_REACTORS
330
4E83
102
}
330
4E83
100
AcDbXrecord
280
     1
 90
-1023410169
  0
XRECORD
  5
3E4
102
{ACAD_REACTORS
330
3E2
102
}
330
3E2
100
AcDbXrecord
280
     1
330
0
330
0
  0
DICTIONARY
  5
4EE1
330
1D
100
AcDbDictionary
280
     1
281
     1
  3
ACAD_XREC_ROUNDTRIP
360
4EE2
  0
DICTIONARY
  5
4EE3
330
21
100
AcDbDictionary
280
     1
281
     1
  3
ACAD_XREC_ROUNDTRIP
360
4EE4
  0
XRECORD
  5
4EE2
102
{ACAD_REACTORS
330
4EE1
102
}
330
4EE1
100
AcDbXrecord
280
     1
102
SHADEPLOT
 70
     0
102
SHADEPLOTRESLEVEL
 70
     2
102
SHADEPLOTCUSTOMDPI
 70
   300
  0
XRECORD
  5
4EE4
102
{ACAD_REACTORS
330
4EE3
102
}
330
4EE3
100
AcDbXrecord
280
     1
102
SHADEPLOT
 70
     0
102
SHADEPLOTRESLEVEL
 70
     2
102
SHADEPLOTCUSTOMDPI
 70
   300
  0
ENDSEC
  0
EOF
