  0
SECTION
  2
HEADER
  9
$ACADVER
  1
AC1015
  9
$ACADMAINTVER
 70
    20
  9
$DWGCODEPAGE
  3
ANSI_1252
  9
$INSBASE
 10
0.0
 20
0.0
 30
0.0
  9
$EXTMIN
 10
0.1042494754821988
 20
0.3013358716206689
 30
0.0
  9
$EXTMAX
 10
16.5642494754822
 20
10.76133587162067
 30
0.0
  9
$LIMMIN
 10
0.0
 20
0.0
  9
$LIMMAX
 10
17.0
 20
11.0
  9
$ORTHOMODE
 70
     0
  9
$REGENMODE
 70
     1
  9
$FILLMODE
 70
     1
  9
$QTEXTMODE
 70
     0
  9
$MIRRTEXT
 70
     1
  9
$LTSCALE
 40
0.25
  9
$ATTMODE
 70
     1
  9
$TEXTSIZE
 40
0.09375
  9
$TRACEWID
 40
0.05
  9
$TEXTSTYLE
  7
ROMANS
  9
$CLAYER
  8
DIM
  9
$CELTYPE
  6
ByLayer
  9
$CECOLOR
 62
   256
  9
$CELTSCALE
 40
1.0
  9
$DISPSILH
 70
     0
  9
$DIMSCALE
 40
1.0
  9
$DIMASZ
 40
0.15
  9
$DIMEXO
 40
0.0625
  9
$DIMDLI
 40
0.38
  9
$DIMRND
 40
0.0
  9
$DIMDLE
 40
0.0
  9
$DIMEXE
 40
0.0625
  9
$DIMTP
 40
0.0
  9
$DIMTM
 40
0.0
  9
$DIMTXT
 40
0.09
  9
$DIMCEN
 40
0.09
  9
$DIMTSZ
 40
0.0
  9
$DIMTOL
 70
     0
  9
$DIMLIM
 70
     0
  9
$DIMTIH
 70
     1
  9
$DIMTOH
 70
     1
  9
$DIMSE1
 70
     0
  9
$DIMSE2
 70
     0
  9
$DIMTAD
 70
     0
  9
$DIMZIN
 70
     0
  9
$DIMBLK
  1

  9
$DIMASO
 70
     0
  9
$DIMSHO
 70
     1
  9
$DIMPOST
  1

  9
$DIMAPOST
  1

  9
$DIMALT
 70
     0
  9
$DIMALTD
 70
     2
  9
$DIMALTF
 40
25.4
  9
$DIMLFAC
 40
1.0
  9
$DIMTOFL
 70
     0
  9
$DIMTVP
 40
0.0
  9
$DIMTIX
 70
     0
  9
$DIMSOXD
 70
     0
  9
$DIMSAH
 70
     0
  9
$DIMBLK1
  1

  9
$DIMBLK2
  1

  9
$DIMSTYLE
  2
Standard
  9
$DIMCLRD
 70
     1
  9
$DIMCLRE
 70
     1
  9
$DIMCLRT
 70
     7
  9
$DIMTFAC
 40
1.0
  9
$DIMGAP
 40
0.09
  9
$DIMJUST
 70
     0
  9
$DIMSD1
 70
     0
  9
$DIMSD2
 70
     0
  9
$DIMTOLJ
 70
     1
  9
$DIMTZIN
 70
     0
  9
$DIMALTZ
 70
     0
  9
$DIMALTTZ
 70
     0
  9
$DIMUPT
 70
     0
  9
$DIMDEC
 70
     4
  9
$DIMTDEC
 70
     4
  9
$DIMALTU
 70
     2
  9
$DIMALTTD
 70
     2
  9
$DIMTXSTY
  7
STANDARD
  9
$DIMAUNIT
 70
     0
  9
$DIMADEC
 70
     0
  9
$DIMALTRND
 40
0.0
  9
$DIMAZIN
 70
     0
  9
$DIMDSEP
 70
    46
  9
$DIMATFIT
 70
     3
  9
$DIMFRAC
 70
     0
  9
$DIMLDRBLK
  1

  9
$DIMLUNIT
 70
     2
  9
$DIMLWD
 70
    -2
  9
$DIMLWE
 70
    -2
  9
$DIMTMOVE
 70
     0
  9
$LUNITS
 70
     2
  9
$LUPREC
 70
     4
  9
$SKETCHINC
 40
0.1
  9
$FILLETRAD
 40
0.0
  9
$AUNITS
 70
     0
  9
$AUPREC
 70
     0
  9
$MENU
  1
acad
  9
$ELEVATION
 40
0.0
  9
$PELEVATION
 40
0.0
  9
$THICKNESS
 40
0.0
  9
$LIMCHECK
 70
     0
  9
$CHAMFERA
 40
0.0
  9
$CHAMFERB
 40
0.0
  9
$CHAMFERC
 40
0.0
  9
$CHAMFERD
 40
0.0
  9
$SKPOLY
 70
     0
  9
$TDCREATE
 40
2449766.541135301
  9
$TDUCREATE
 40
2449766.749468635
  9
$TDUPDATE
 40
2455028.606249109
  9
$TDUUPDATE
 40
2455028.814582442
  9
$TDINDWG
 40
2.3188042361
  9
$TDUSRTIMER
 40
2.3188042361
  9
$USRTIMER
 70
     1
  9
$ANGBASE
 50
0.0
  9
$ANGDIR
 70
     0
  9
$PDMODE
 70
     0
  9
$PDSIZE
 40
0.0
  9
$PLINEWID
 40
0.0
  9
$SPLFRAME
 70
     0
  9
$SPLINETYPE
 70
     6
  9
$SPLINESEGS
 70
     8
  9
$HANDSEED
  5
4ECB
  9
$SURFTAB1
 70
     6
  9
$SURFTAB2
 70
     6
  9
$SURFTYPE
 70
     6
  9
$SURFU
 70
     6
  9
$SURFV
 70
     6
  9
$UCSBASE
  2

  9
$UCSNAME
  2

  9
$UCSORG
 10
0.0
 20
0.0
 30
0.0
  9
$UCSXDIR
 10
1.0
 20
0.0
 30
0.0
  9
$UCSYDIR
 10
0.0
 20
1.0
 30
0.0
  9
$UCSORTHOREF
  2

  9
$UCSORTHOVIEW
 70
     0
  9
$UCSORGTOP
 10
0.0
 20
0.0
 30
0.0
  9
$UCSORGBOTTOM
 10
0.0
 20
0.0
 30
0.0
  9
$UCSORGLEFT
 10
0.0
 20
0.0
 30
0.0
  9
$UCSORGRIGHT
 10
0.0
 20
0.0
 30
0.0
  9
$UCSORGFRONT
 10
0.0
 20
0.0
 30
0.0
  9
$UCSORGBACK
 10
0.0
 20
0.0
 30
0.0
  9
$PUCSBASE
  2

  9
$PUCSNAME
  2

  9
$PUCSORG
 10
0.0
 20
0.0
 30
0.0
  9
$PUCSXDIR
 10
1.0
 20
0.0
 30
0.0
  9
$PUCSYDIR
 10
0.0
 20
1.0
 30
0.0
  9
$PUCSORTHOREF
  2

  9
$PUCSORTHOVIEW
 70
     0
  9
$PUCSORGTOP
 10
0.0
 20
0.0
 30
0.0
  9
$PUCSORGBOTTOM
 10
0.0
 20
0.0
 30
0.0
  9
$PUCSORGLEFT
 10
0.0
 20
0.0
 30
0.0
  9
$PUCSORGRIGHT
 10
0.0
 20
0.0
 30
0.0
  9
$PUCSORGFRONT
 10
0.0
 20
0.0
 30
0.0
  9
$PUCSORGBACK
 10
0.0
 20
0.0
 30
0.0
  9
$USERI1
 70
     0
  9
$USERI2
 70
     0
  9
$USERI3
 70
     0
  9
$USERI4
 70
     0
  9
$USERI5
 70
     0
  9
$USERR1
 40
0.0
  9
$USERR2
 40
0.0
  9
$USERR3
 40
0.0
  9
$USERR4
 40
0.0
  9
$USERR5
 40
0.0
  9
$WORLDVIEW
 70
     1
  9
$SHADEDGE
 70
     3
  9
$SHADEDIF
 70
    70
  9
$TILEMODE
 70
     1
  9
$MAXACTVP
 70
    16
  9
$PINSBASE
 10
0.0
 20
0.0
 30
0.0
  9
$PLIMCHECK
 70
     0
  9
$PEXTMIN
 10
1.000000000000000E+20
 20
1.000000000000000E+20
 30
1.000000000000000E+20
  9
$PEXTMAX
 10
-1.000000000000000E+20
 20
-1.000000000000000E+20
 30
-1.000000000000000E+20
  9
$PLIMMIN
 10
0.0
 20
0.0
  9
$PLIMMAX
 10
12.0
 20
9.0
  9
$UNITMODE
 70
     0
  9
$VISRETAIN
 70
     0
  9
$PLINEGEN
 70
     0
  9
$PSLTSCALE
 70
     1
  9
$TREEDEPTH
 70
  3020
  9
$CMLSTYLE
  2
Standard
  9
$CMLJUST
 70
     0
  9
$CMLSCALE
 40
1.0
  9
$PROXYGRAPHICS
 70
     1
  9
$MEASUREMENT
 70
     0
  9
$CELWEIGHT
370
    -1
  9
$ENDCAPS
280
     0
  9
$JOINSTYLE
280
     0
  9
$LWDISPLAY
290
     0
  9
$INSUNITS
 70
     0
  9
$HYPERLINKBASE
  1

  9
$STYLESHEET
  1
standard.ctb
  9
$XEDIT
290
     1
  9
$CEPSNTYPE
380
     0
  9
$PSTYLEMODE
290
     1
  9
$FINGERPRINTGUID
  2
{15A91E55-5219-469D-BD62-5FAE47C117F2}
  9
$VERSIONGUID
  2
{844BC4CC-AE97-4281-BE9A-A24CFA83C5A3}
  9
$EXTNAMES
290
     1
  9
$PSVPSCALE
 40
0.0
  9
$OLESTARTUP
290
     0
  0
ENDSEC
  0
SECTION
  2
CLASSES
  0
CLASS
  1
ACDBDICTIONARYWDFLT
  2
AcDbDictionaryWithDefault
  3
ObjectDBX Classes
 90
        0
280
     0
281
     0
  0
CLASS
  1
ACDBPLACEHOLDER
  2
AcDbPlaceHolder
  3
ObjectDBX Classes
 90
        0
280
     0
281
     0
  0
CLASS
  1
LAYOUT
  2
AcDbLayout
  3
ObjectDBX Classes
 90
        0
280
     0
281
     0
  0
CLASS
  1
DICTIONARYVAR
  2
AcDbDictionaryVar
  3
ObjectDBX Classes
 90
        0
280
     0
281
     0
  0
CLASS
  1
DIMASSOC
  2
AcDbDimAssoc
  3
"AcDbDimAssoc|Product Desc:     AcDim ARX App For Dimension|Company:          Autodesk, Inc.|WEB Address:      www.autodesk.com"
 90
    32768
280
     0
281
     0
  0
CLASS
  1
TABLESTYLE
  2
AcDbTableStyle
  3
ObjectDBX Classes
 90
     2047
280
     0
281
     0
  0
CLASS
  1
ACME_DOCUMENT
  2
AcMeDbDoc
  3
AcMeServices
 90
        0
280
     0
281
     0
  0
CLASS
  1
AMGSETTINGSOBJ
  2
AmgSettingsObj
  3
"AcadM|Product Description: AutoCAD Mechanical 2000|Company: Autodesk"
 90
        0
280
     0
281
     0
  0
CLASS
  1
ACMESCOPE
  2
AcMeScope
  3
AcMeServices
 90
        0
280
     0
281
     0
  0
CLASS
  1
ACMECOMMANDHISTORY
  2
AcMeCommandHistory
  3
AcMeServices
 90
        0
280
     0
281
     0
  0
CLASS
  1
ACIMSYSVARMAN
  2
AcImSysVarManager
  3
AcMeServices
 90
        0
280
     0
281
     0
  0
CLASS
  1
ACIMINTSYSVAR
  2
AcImIntSysVar
  3
AcMeServices
 90
        0
280
     0
281
     0
  0
CLASS
  1
ACMEDRAWINGMAN
  2
AcMeDrawingMan
  3
AcMeServices
 90
        0
280
     0
281
     0
  0
CLASS
  1
ACMEVIEW
  2
AcMeView
  3
AcMeServices
 90
        0
280
     0
281
     0
  0
CLASS
  1
ACDBENTITYCACHE
  2
AcMeEntityCache
  3
AcMeServices
 90
        0
280
     0
281
     0
  0
CLASS
  1
GSMANAGER
  2
AcMeGSManager
  3
AcMeServices
 90
        0
280
     0
281
     0
  0
CLASS
  1
AMDTINTERNALREACTOR
  2
AmdtInternalReactor
  3
AcMeServices
 90
        0
280
     0
281
     0
  0
CLASS
  1
ACMESTATEMGR
  2
AcMeStateMgr
  3
AcMeServices
 90
        0
280
     0
281
     0
  0
CLASS
  1
ACGREFMASTER
  2
AcGrefMaster
  3
AcAttribServices
 90
        0
280
     0
281
     0
  0
CLASS
  1
AM_DRAWING_MGR
  2
AcDmDwgMgr
  3
AcMechDwgViewMgmt
 90
        0
280
     0
281
     0
  0
CLASS
  1
AM_DWG_DOCUMENT
  2
AcDmDwgDocument
  3
AcMechDwgViewMgmt
 90
        0
280
     0
281
     0
  0
CLASS
  1
AM_DWG_SHEET
  2
AcDmSheet
  3
AcMechDwgViewMgmt
 90
        0
280
     0
281
     0
  0
CLASS
  1
AM_VIEWDIMPARMAP
  2
AcDmViewDimParMap
  3
AcMechDwgViewMgmt
 90
        0
280
     0
281
     0
  0
CLASS
  1
ACIMREALSYSVAR
  2
AcImRealSysVar
  3
AcMeServices
 90
        0
280
     0
281
     0
  0
CLASS
  1
AM_DWGMGR_NAME
  2
AcDmDwgMgrName
  3
AcMechDwgViewMgmt
 90
        0
280
     0
281
     0
  0
CLASS
  1
ACME_DATABASE
  2
AcMeDbDatabase
  3
AcMeServices
 90
        0
280
     0
281
     0
  0
CLASS
  1
ACRFINSADJUSTERMGR
  2
AcRfInsAdjusterMgr
  3
AcMeServices
 90
        0
280
     0
281
     0
  0
CLASS
  1
ACGREFACADMASTER
  2
AcGrefacadMaster
  3
AcGrefServices
 90
        0
280
     0
281
     0
  0
CLASS
  1
AMDTMENUSTATEMGR
  2
AmdtMenuStateMgr
  3
McadcomServices
 90
        0
280
     0
281
     0
  0
CLASS
  1
AMDTMCOMMENUSTATE
  2
AmdtMcomMenuState
  3
McadcomServices
 90
        0
280
     0
281
     0
  0
CLASS
  1
AMIMASTER
  2
AmiMaster
  3
AmiServices
 90
        0
280
     0
281
     0
  0
CLASS
  1
MAPIAMMOUDLE
  2
MApiAmModule
  3
MApiAmServices
 90
        0
280
     0
281
     0
  0
CLASS
  1
ACIMSTRSYSVAR
  2
AcImStrSysVar
  3
AcMeServices
 90
        0
280
     0
281
     0
  0
CLASS
  1
AMDTADMENUSTATE
  2
AmdtAdMenuState
  3
DesignerServices
 90
        0
280
     0
281
     0
  0
CLASS
  1
ADAPPL
  2
AcAdAppl
  3
DesignerServices
 90
        0
280
     0
281
     0
  0
CLASS
  1
DEPMGR
  2
AcAdDepMgr
  3
DesignerServices
 90
        0
280
     0
281
     0
  0
CLASS
  1
PARAMMGR
  2
AcAdParamMgr
  3
DesignerServices
 90
        0
280
     0
281
     0
  0
CLASS
  1
PARAMSCOPE
  2
AcAdParamScope
  3
DesignerServices
 90
        0
280
     0
281
     0
  0
CLASS
  1
NAMEDAPPL
  2
AcAdNamedAppl
  3
DesignerServices
 90
        0
280
     0
281
     0
  0
CLASS
  1
AMDTDMMENUSTATE
  2
AmdtDmMenuState
  3
AcMechDwgViewMgmt
 90
        0
280
     0
281
     0
  0
CLASS
  1
AMDTAMMENUSTATE
  2
AmdtAmMenuState
  3
DesignerAssemblies
 90
        0
280
     0
281
     0
  0
CLASS
  1
ACAMPROJECT
  2
AcAmProject
  3
DesignerAssemblies
 90
        0
280
     0
281
     0
  0
CLASS
  1
ACAMGRCOMPDEF
  2
AcAmGrCompDef
  3
DesignerAssemblies
 90
        0
280
     0
281
     0
  0
CLASS
  1
ACCMCONTEXT
  2
AcCmContext
  3
DesignerAssemblies
 90
        0
280
     0
281
     0
  0
CLASS
  1
ACAMCOMPDEF
  2
AcAmCompDef
  3
DesignerAssemblies
 90
        0
280
     0
281
     0
  0
CLASS
  1
ACAMCOMPDEFMGR
  2
AcAmCompDefMgr
  3
DesignerAssemblies
 90
        0
280
     0
281
     0
  0
CLASS
  1
AMCONTEXTMGR
  2
AcAmContextMgr
  3
DesignerAssemblies
 90
        0
280
     0
281
     0
  0
CLASS
  1
ACAMCONTEXTMODELER
  2
AcAmContextModeler
  3
DesignerAssemblies
 90
        0
280
     0
281
     0
  0
CLASS
  1
ACMDATADICTIONARY
  2
AcmDataDictionary
  3
"AcmSymBB|Product Description: AutoCAD Mechanical 2004 DX|Company: Autodesk"
 90
        0
280
     0
281
     0
  0
CLASS
  1
CATALOGSTATE
  2
AcAmCatalogState
  3
DesignerAssemblies
 90
        0
280
     0
281
     0
  0
CLASS
  1
ACAMGRCOMPDEFSET
  2
AcAmGrCompDefSet
  3
DesignerAssemblies
 90
        0
280
     0
281
     0
  0
CLASS
  1
AMDTBROWSERDBTAB
  2
AmdtBrowserDbTab
  3
McadcomServices
 90
        0
280
     0
281
     0
  0
CLASS
  1
CBROWSERAPPOBJECT
  2
CBrowserAppObject
  3
McadcomServices
 90
        0
280
     0
281
     0
  0
CLASS
  1
DM_PLACEHOLDER
  2
AcDmSelsetPlaceholder
  3
AcMechDwgViewMgmt
 90
        0
280
     0
281
     0
  0
CLASS
  1
ACMSTANDARDANSI
  2
AcmStandardANSI
  3
"Amdt_StdImp|Product Description: AutoCAD Mechanical 2004 DX|Company: Autodesk"
 90
        0
280
     0
281
     0
  0
CLASS
  1
AMGOBJPROPCFG
  2
AmgObjPropCfg
  3
"AmgLay|Product Description: AutoCAD Mechanical 2000|Company: Autodesk"
 90
        1
280
     0
281
     0
  0
CLASS
  1
ACMSURFSTANDARDANSI
  2
AcmSurfTextStdANSI
  3
"Amdt_StdImp|Product Description: AutoCAD Mechanical 2004 DX|Company: Autodesk"
 90
        0
280
     0
281
     0
  0
CLASS
  1
ACMFCFSTANDARDANSI
  2
AcmFCFStdANSI
  3
"Amdt_StdImp|Product Description: AutoCAD Mechanical 2004 DX|Company: Autodesk"
 90
        0
280
     0
281
     0
  0
CLASS
  1
ACMWELDSTANDARDANSI
  2
AcmWeldingStdANSI
  3
"Amdt_StdImp|Product Description: AutoCAD Mechanical 2004 DX|Company: Autodesk"
 90
        0
280
     0
281
     0
  0
CLASS
  1
ACMIDSTANDARDANSI
  2
AcmIdStdANSI
  3
"Amdt_StdImp|Product Description: AutoCAD Mechanical 2004 DX|Company: Autodesk"
 90
        0
280
     0
281
     0
  0
CLASS
  1
ACMDATUMSTANDARDANSI
  2
AcmDatumStdANSI
  3
"Amdt_StdImp|Product Description: AutoCAD Mechanical 2004 DX|Company: Autodesk"
 90
        0
280
     0
281
     0
  0
CLASS
  1
ACMBOMSTANDARDANSI
  2
AcmBOMStdANSI
  3
"Amdt_StdImp|Product Description: AutoCAD Mechanical 2004 DX|Company: Autodesk"
 90
        0
280
     0
281
     0
  0
CLASS
  1
ACMDETAILSTANDARDANSI
  2
AmdtDetailSymStdANSI
  3
"Amdt_StdImp|Product Description: AutoCAD Mechanical 2004 DX|Company: Autodesk"
 90
        0
280
     0
281
     0
  0
CLASS
  1
ACMSECTIONSTANDARDANSI
  2
AmdtSectionSymStdANSI
  3
"Amdt_StdImp|Product Description: AutoCAD Mechanical 2004 DX|Company: Autodesk"
 90
        0
280
     0
281
     0
  0
CLASS
  1
ACMCENTERLINESTANDARDANSI
  2
AmdtCenterLineStdANSI
  3
"Amdt_StdImp|Product Description: AutoCAD Mechanical 2004 DX|Company: Autodesk"
 90
        0
280
     0
281
     0
  0
CLASS
  1
ACMTHREADLINESTANDARDANSI
  2
AmdtThreadLineStdANSI
  3
"Amdt_StdImp|Product Description: AutoCAD Mechanical 2004 DX|Company: Autodesk"
 90
        0
280
     0
281
     0
  0
CLASS
  1
ACMNOTESTANDARDANSI
  2
AmdtNoteStdANSI
  3
"Amdt_StdImp|Product Description: AutoCAD Mechanical 2004 DX|Company: Autodesk"
 90
        0
280
     0
281
     0
  0
CLASS
  1
AMDTNOTETEMPLATEDB
  2
AmdtNoteTemplateDB
  3
AMDT_STDIMP_MODULE_NAME
 90
        0
280
     0
281
     0
  0
CLASS
  1
ACAMGLAYSTD
  2
AcAmgLayStd
  3
"AcAmgLayStd|Product Description: AutoCAD Mechanical 2000|Company: Autodesk"
 90
        0
280
     0
281
     0
  0
CLASS
  1
ACAMGDIMSTD
  2
AcAmgDimStd
  3
"AcAmgDimStd|Product Description: AutoCAD Mechanical 2000|Company: Autodesk"
 90
        0
280
     0
281
     0
  0
CLASS
  1
ACAMGHOLECHARTSTDANSI
  2
AcAmgHoleChartStdANSI
  3
ACMSYMBB_MODULE_NAME
 90
        0
280
     0
281
     0
  0
CLASS
  1
ACAMGTITLESTD
  2
AcAmgTitleStd
  3
"TITLEAPP"
 90
        0
280
     0
281
     0
  0
CLASS
  1
ACAMGFILTERDAT
  2
AcAmgFilterDat
  3
"AcadM|Product Description: AutoCAD Mechanical 2000|Company: Autodesk"
 90
        0
280
     0
281
     0
  0
ENDSEC
  0
SECTION
  2
TABLES
  0
TABLE
  2
VPORT
  5
8
330
0
100
AcDbSymbolTable
 70
     3
  0
VPORT
  5
4EC5
330
8
100
AcDbSymbolTableRecord
100
AcDbViewportTableRecord
  2
*Active
 70
     0
 10
0.0
 20
0.0
 11
1.0
 21
1.0
 12
8.499999999999998
 22
6.290741664511202
 13
0.0
 23
0.0
 14
0.0625
 24
0.0625
 15
0.5
 25
0.5
 16
0.0
 26
0.0
 36
1.0
 17
0.0
 27
0.0
 37
0.0
 40
12.7221422571389
 41
1.758308157099697
 42
50.0
 43
0.0
 44
0.0
 50
0.0
 51
0.0
 71
     0
 72
   500
 73
     1
 74
     0
 75
     0
 76
     0
 77
     0
 78
     0
281
     0
 65
     1
110
0.0
120
0.0
130
0.0
111
1.0
121
0.0
131
0.0
112
0.0
122
1.0
132
0.0
 79
     0
146
0.0
  0
ENDTAB
  0
TABLE
  2
LTYPE
  5
5
330
0
100
AcDbSymbolTable
 70
    16
  0
LTYPE
  5
13
330
5
100
AcDbSymbolTableRecord
100
AcDbLinetypeTableRecord
  2
ByBlock
 70
     0
  3

 72
    65
 73
     0
 40
0.0
  0
LTYPE
  5
14
330
5
100
AcDbSymbolTableRecord
100
AcDbLinetypeTableRecord
  2
ByLayer
 70
     0
  3

 72
    65
 73
     0
 40
0.0
  0
LTYPE
  5
15
330
5
100
AcDbSymbolTableRecord
100
AcDbLinetypeTableRecord
  2
CONTINUOUS
 70
     0
  3
Solid line
 72
    65
 73
     0
 40
0.0
  0
LTYPE
  5
2C
330
5
100
AcDbSymbolTableRecord
100
AcDbLinetypeTableRecord
  2
CENTER
 70
     0
  3
____ _ ____ _ ____ _ ____ _ ____ _ ____ _ ____ 
 72
    65
 73
     4
 40
2.0
 49
1.25
 74
     0
 49
-0.25
 74
     0
 49
0.25
 74
     0
 49
-0.25
 74
     0
  0
LTYPE
  5
430
330
5
100
AcDbSymbolTableRecord
100
AcDbLinetypeTableRecord
  2
HIDDEN
 70
     0
  3
_ _ _ _ _ _ _ _ _ _ _ _ _ _ _ _ _ _ _ _ _ _ _
 72
    65
 73
     2
 40
0.375
 49
0.25
 74
     0
 49
-0.125
 74
     0
  0
LTYPE
  5
4E43
330
5
100
AcDbSymbolTableRecord
100
AcDbLinetypeTableRecord
  2
PHANTOM2
 70
     0
  3
Phantom (.5x) ___ _ _ ___ _ _ ___ _ _ ___ _ _
 72
    65
 73
     6
 40
1.25
 49
0.625
 74
     0
 49
-0.125
 74
     0
 49
0.125
 74
     0
 49
-0.125
 74
     0
 49
0.125
 74
     0
 49
-0.125
 74
     0
  0
LTYPE
  5
4E77
330
5
100
AcDbSymbolTableRecord
100
AcDbLinetypeTableRecord
  2
AM_ISO02W050
 70
     0
  3
__ __ __ __ __ __ __ __ __ __ __ __ __ __ __
 72
    65
 73
     2
 40
7.5
 49
6.0
 74
     0
 49
-1.5
 74
     0
  0
LTYPE
  5
4E78
330
5
100
AcDbSymbolTableRecord
100
AcDbLinetypeTableRecord
  2
AM_ISO08W050
 70
     0
  3
____ . ____ . ____ . ____ . ____ . ____ . ____
 72
    65
 73
     4
 40
18.0
 49
12.0
 74
     0
 49
-1.5
 74
     0
 49
3.0
 74
     0
 49
-1.5
 74
     0
  0
LTYPE
  5
4E79
330
5
100
AcDbSymbolTableRecord
100
AcDbLinetypeTableRecord
  2
AM_ISO09W050
 70
     0
  3
_____ . . _____ . . _____ . . ____ .. ____
 72
    65
 73
     6
 40
22.5
 49
12.0
 74
     0
 49
-1.5
 74
     0
 49
3.0
 74
     0
 49
-1.5
 74
     0
 49
3.0
 74
     0
 49
-1.5
 74
     0
  0
LTYPE
  5
4E7A
330
5
100
AcDbSymbolTableRecord
100
AcDbLinetypeTableRecord
  2
Amconstr
 70
     0
  3
_______________________
 72
    65
 73
     2
 40
9999.0
 49
9999.0
 74
     0
 49
0.0
 74
     0
  0
LTYPE
  5
4E7B
330
5
100
AcDbSymbolTableRecord
100
AcDbLinetypeTableRecord
  2
AM_ISO08W050x2
 70
     0
  3
__ . __ . __ . __ . __ . __
 72
    65
 73
     4
 40
9.0
 49
6.0
 74
     0
 49
-0.75
 74
     0
 49
1.5
 74
     0
 49
-0.75
 74
     0
  0
LTYPE
  5
4E7C
330
5
100
AcDbSymbolTableRecord
100
AcDbLinetypeTableRecord
  2
AM_ISO02W050x2
 70
     0
  3
 _ _ _ _ _ _ _ _ _ _ _ _
 72
    65
 73
     2
 40
3.75
 49
3.0
 74
     0
 49
-0.75
 74
     0
  0
LTYPE
  5
4E7F
330
5
100
AcDbSymbolTableRecord
100
AcDbLinetypeTableRecord
  2
Amzigzag
 70
     0
  3
/\/-/\/-/\/-/\/-/\/-/\/
 72
    65
 73
     2
 40
11.0001
 49
0.0001
 74
     4
 75
   136
340
4E7E
 46
0.04
 50
0.0
 44
0.0
 45
0.0
 49
-11.0
 74
     0
  0
LTYPE
  5
4E80
330
5
100
AcDbSymbolTableRecord
100
AcDbLinetypeTableRecord
  2
CENTER2
 70
     0
  3
Center (.5x) ___ _ ___ _ ___ _ ___ _ ___ _ ___
 72
    65
 73
     4
 40
1.125
 49
0.75
 74
     0
 49
-0.125
 74
     0
 49
0.125
 74
     0
 49
-0.125
 74
     0
  0
LTYPE
  5
4E81
330
5
100
AcDbSymbolTableRecord
100
AcDbLinetypeTableRecord
  2
HIDDEN2
 70
     0
  3
Hidden (.5x) _ _ _ _ _ _ _ _ _ _ _ _ _ _ _ _ _
 72
    65
 73
     2
 40
0.1875
 49
0.125
 74
     0
 49
-0.0625
 74
     0
  0
LTYPE
  5
4E82
330
5
100
AcDbSymbolTableRecord
100
AcDbLinetypeTableRecord
  2
Amzigzag2
 70
     0
  3
/\/-/\/-/\/-/\/-/\/-/\/
 72
    65
 73
     2
 40
0.4401
 49
0.0001
 74
     4
 75
   136
340
4E7E
 46
0.0016
 50
0.0
 44
0.0
 45
0.0
 49
-0.4400000000000001
 74
     0
  0
LTYPE
  5
4E90
330
5
100
AcDbSymbolTableRecord
100
AcDbLinetypeTableRecord
  2
ACANSTGB
 70
     0
  3
__ . . __ . .
 72
    65
 73
     6
 40
0.35433070866
 49
0.15748031496
 74
     0
 49
-0.03937007874
 74
     0
 49
0.03937007874
 74
     0
 49
-0.03937007874
 74
     0
 49
0.03937007874
 74
     0
 49
-0.03937007874
 74
     0
  0
LTYPE
  5
4E91
330
5
100
AcDbSymbolTableRecord
100
AcDbLinetypeTableRecord
  2
ACANSTGL
 70
     0
  3
_ _ _ _ _
 72
    65
 73
     2
 40
0.11811023622
 49
0.07874015748
 74
     0
 49
-0.03937007874
 74
     0
  0
ENDTAB
  0
TABLE
  2
LAYER
  5
2
330
0
100
AcDbSymbolTable
 70
     9
  0
LAYER
  5
10
330
2
100
AcDbSymbolTableRecord
100
AcDbLayerTableRecord
  2
0
 70
     0
 62
     7
  6
CONTINUOUS
370
    -3
390
F
  0
LAYER
  5
30
330
2
100
AcDbSymbolTableRecord
100
AcDbLayerTableRecord
  2
TEXT
 70
     0
 62
     7
  6
CONTINUOUS
370
    -3
390
F
  0
LAYER
  5
31
330
2
100
AcDbSymbolTableRecord
100
AcDbLayerTableRecord
  2
DEFPOINTS
 70
     0
 62
     7
  6
CONTINUOUS
290
     0
370
    -3
390
F
  0
LAYER
  5
32
330
2
100
AcDbSymbolTableRecord
100
AcDbLayerTableRecord
  2
DIM
 70
     0
 62
     1
  6
CONTINUOUS
370
    -3
390
F
  0
LAYER
  5
33
330
2
100
AcDbSymbolTableRecord
100
AcDbLayerTableRecord
  2
CENTER
 70
     0
 62
     3
  6
CENTER
370
    -3
390
F
  0
LAYER
  5
34
330
2
100
AcDbSymbolTableRecord
100
AcDbLayerTableRecord
  2
OBJ
 70
     0
 62
     7
  6
CONTINUOUS
370
    -3
390
F
  0
LAYER
  5
8BE
330
2
100
AcDbSymbolTableRecord
100
AcDbLayerTableRecord
  2
BORDER
 70
     0
 62
     7
  6
CONTINUOUS
370
    -3
390
F
  0
LAYER
  5
8BF
330
2
100
AcDbSymbolTableRecord
100
AcDbLayerTableRecord
  2
FORM
 70
     0
 62
     7
  6
CONTINUOUS
370
    -3
390
F
  0
LAYER
  5
41C0
330
2
100
AcDbSymbolTableRecord
100
AcDbLayerTableRecord
  2
OBJECT
 70
     0
 62
     7
  6
CONTINUOUS
370
    -3
390
F
  0
ENDTAB
  0
TABLE
  2
STYLE
  5
3
330
0
100
AcDbSymbolTable
 70
     7
  0
STYLE
  5
11
330
3
100
AcDbSymbolTableRecord
100
AcDbTextStyleTableRecord
  2
STANDARD
 70
     0
 40
0.0
 41
1.0
 50
0.0
 71
     0
 42
0.2
  3
txt
  4

  0
STYLE
  5
27
330
3
100
AcDbSymbolTableRecord
100
AcDbTextStyleTableRecord
  2
ROMANS
 70
     0
 40
0.0
 41
1.0
 50
0.0
 71
     0
 42
0.09375
  3
romans
  4

  0
STYLE
  5
29
330
3
100
AcDbSymbolTableRecord
100
AcDbTextStyleTableRecord
  2
HELR
 70
     0
 40
0.0
 41
1.0
 50
0.0
 71
     0
 42
0.2
  3
HELV.shx
  4

  0
STYLE
  5
41C1
330
3
100
AcDbSymbolTableRecord
100
AcDbTextStyleTableRecord
  2
KANJI
 70
     0
 40
0.0
 41
1.0
 50
0.0
 71
     0
 42
2.0
  3
TXT
  4
BIGFONT
  0
STYLE
  5
4E7E
330
3
100
AcDbSymbolTableRecord
100
AcDbTextStyleTableRecord
  2

 70
     1
 40
0.0
 41
1.0
 50
0.0
 71
     0
 42
0.09375
  3
genltshp.shx
  4

  0
STYLE
  5
4E83
330
3
100
AcDbSymbolTableRecord
100
AcDbTextStyleTableRecord
  2
ACANSTS
 70
     0
 40
1.0
 41
1.0
 50
0.0
 71
     0
 42
0.09375
  3
romans.shx
  4

  0
STYLE
  5
4E8F
330
3
100
AcDbSymbolTableRecord
100
AcDbTextStyleTableRecord
  2
ACANSGDT
 70
     0
 40
0.0
 41
1.0
 50
0.0
 71
     0
 42
0.09375
  3
AMGDT
  4

  0
ENDTAB
  0
TABLE
  2
VIEW
  5
6
330
0
100
AcDbSymbolTable
 70
     0
  0
ENDTAB
  0
TABLE
  2
UCS
  5
7
330
0
100
AcDbSymbolTable
 70
     0
  0
ENDTAB
  0
TABLE
  2
APPID
  5
9
330
0
100
AcDbSymbolTable
 70
    11
  0
APPID
  5
12
330
9
100
AcDbSymbolTableRecord
100
AcDbRegAppTableRecord
  2
ACAD
 70
     0
  0
APPID
  5
3E3
330
9
100
AcDbSymbolTableRecord
100
AcDbRegAppTableRecord
  2
DCO15
 70
     0
  0
APPID
  5
4E16
330
9
100
AcDbSymbolTableRecord
100
AcDbRegAppTableRecord
  2
MCAD_NO_VIS
 70
     0
  0
APPID
  5
4E17
330
9
100
AcDbSymbolTableRecord
100
AcDbRegAppTableRecord
  2
ACAD_TEMP_GRAPHIC
 70
     0
  0
APPID
  5
4E45
330
9
100
AcDbSymbolTableRecord
100
AcDbRegAppTableRecord
  2
AD_DRAW
 70
     0
  0
APPID
  5
4E48
330
9
100
AcDbSymbolTableRecord
100
AcDbRegAppTableRecord
  2
ACATTRIBSERVICES
 70
     0
  0
APPID
  5
4E68
330
9
100
AcDbSymbolTableRecord
100
AcDbRegAppTableRecord
  2
DESIGNERASSEMBLIES
 70
     0
  0
APPID
  5
4E6E
330
9
100
AcDbSymbolTableRecord
100
AcDbRegAppTableRecord
  2
ACADM_DIM_EDIT
 70
     0
  0
APPID
  5
4E6F
330
9
100
AcDbSymbolTableRecord
100
AcDbRegAppTableRecord
  2
AMDT_DM_ADJ
 70
     0
  0
APPID
  5
4E9C
330
9
100
AcDbSymbolTableRecord
100
AcDbRegAppTableRecord
  2
ACAD_DSTYLE_DIMARC_LENGTH_SYMBOL
 70
     0
  0
APPID
  5
4E9D
330
9
100
AcDbSymbolTableRecord
100
AcDbRegAppTableRecord
  2
ACAD_DSTYLE_DIMJOGGED_JOGANGLE_SYMBOL
 70
     0
  0
ENDTAB
  0
TABLE
  2
DIMSTYLE
  5
A
330
0
100
AcDbSymbolTable
 70
     7
100
AcDbDimStyleTable
 71
     1
340
3B8
  0
DIMSTYLE
105
3B8
330
A
100
AcDbSymbolTableRecord
100
AcDbDimStyleTableRecord
  2
Standard
 70
     0
 41
0.15
 44
0.0625
140
0.09
176
     1
177
     1
178
     7
340
11
  0
DIMSTYLE
105
4E9B
330
A
100
AcDbSymbolTableRecord
100
AcDbDimStyleTableRecord
  2
AM_ANSI
 70
     0
  4
mm
 41
0.1
 42
0.05
 43
0.5
 44
0.1
 47
0.1
 48
0.1
 78
     7
 79
     2
140
0.12
141
0.0
146
0.71
147
0.06
176
   256
177
   256
178
     2
274
     4
284
     7
340
11
371
    -1
372
    -1
1001
ACAD_DSTYLE_DIMARC_LENGTH_SYMBOL
1070
   379
1070
     1
1001
ACAD_DSTYLE_DIMJOGGED_JOGANGLE_SYMBOL
1070
   384
1040
0.7853981633974483
  0
DIMSTYLE
105
4EA4
330
A
100
AcDbSymbolTableRecord
100
AcDbDimStyleTableRecord
  2
AM_ANSI$3
 70
     0
  4
mm
 41
0.1
 42
0.05
 43
0.5
 44
0.1
 47
0.1
 48
0.1
 78
     7
 79
     2
140
0.12
141
0.0
146
0.71
147
0.06
176
   256
177
   256
178
     2
274
     4
284
     7
288
     1
289
     0
340
11
371
    -1
372
    -1
1001
ACAD_DSTYLE_DIMARC_LENGTH_SYMBOL
1070
   379
1070
     1
1001
ACAD_DSTYLE_DIMJOGGED_JOGANGLE_SYMBOL
1070
   384
1040
0.7853981633974483
  0
DIMSTYLE
105
4EA7
330
A
100
AcDbSymbolTableRecord
100
AcDbDimStyleTableRecord
  2
AM_ANSI$4
 70
     0
  4
mm
 41
0.1
 42
0.05
 43
0.5
 44
0.1
 47
0.1
 48
0.1
 78
     7
 79
     2
140
0.12
141
0.0
146
0.71
147
0.06
176
   256
177
   256
178
     2
274
     4
284
     7
288
     1
289
     0
340
11
371
    -1
372
    -1
1001
ACAD_DSTYLE_DIMARC_LENGTH_SYMBOL
1070
   379
1070
     1
1001
ACAD_DSTYLE_DIMJOGGED_JOGANGLE_SYMBOL
1070
   384
1040
0.7853981633974483
  0
DIMSTYLE
105
4EAC
330
A
100
AcDbSymbolTableRecord
100
AcDbDimStyleTableRecord
  2
AM_ANSI$7
 70
     0
  4
mm
 41
0.1
 42
0.05
 43
0.5
 44
0.1
 47
0.1
 48
0.1
 78
     7
 79
     2
140
0.24
141
0.0
146
0.71
147
0.06
176
   256
177
   256
178
     2
274
     4
284
     7
340
11
371
    -1
372
    -1
1001
ACAD_DSTYLE_DIMARC_LENGTH_SYMBOL
1070
   379
1070
     1
1001
ACAD_DSTYLE_DIMJOGGED_JOGANGLE_SYMBOL
1070
   384
1040
0.7853981633974483
  0
DIMSTYLE
105
4EAF
330
A
100
AcDbSymbolTableRecord
100
AcDbDimStyleTableRecord
  2
AM_ANSI$SF
 70
     0
  4
mm
 41
0.1
 42
0.05
 43
0.5
 44
0.1
 47
0.1
 48
0.1
 75
     1
 76
     1
 78
     7
 79
     2
140
0.12
141
0.0
146
0.71
147
0.06
176
   256
177
   256
178
     2
274
     4
284
     7
340
11
371
    -1
372
    -1
1001
ACAD_DSTYLE_DIMARC_LENGTH_SYMBOL
1070
   379
1070
     1
1001
ACAD_DSTYLE_DIMJOGGED_JOGANGLE_SYMBOL
1070
   384
1040
0.7853981633974483
  0
DIMSTYLE
105
4EB6
330
A
100
AcDbSymbolTableRecord
100
AcDbDimStyleTableRecord
  2
AM_ANSI$SH
 70
     0
  4
mm
 41
0.1
 42
0.05
 43
0.5
 44
0.1
 47
0.1
 48
0.1
 75
     1
 76
     1
 78
     7
 79
     2
140
0.12
141
0.0
146
0.71
147
0.06
173
     1
176
   256
177
   256
178
     2
274
     4
284
     7
340
11
343
4EB0
371
    -1
372
    -1
1001
ACAD_DSTYLE_DIMARC_LENGTH_SYMBOL
1070
   379
1070
     1
1001
ACAD_DSTYLE_DIMJOGGED_JOGANGLE_SYMBOL
1070
   384
1040
0.7853981633974483
  0
ENDTAB
  0
TABLE
  2
BLOCK_RECORD
  5
1
330
0
100
AcDbSymbolTable
 70
     3
  0
BLOCK_RECORD
  5
1E
330
1
100
AcDbSymbolTableRecord
100
AcDbBlockTableRecord
  2
*Model_Space
340
21
  0
BLOCK_RECORD
  5
1A
330
1
100
AcDbSymbolTableRecord
100
AcDbBlockTableRecord
  2
*Paper_Space
340
1D
  0
BLOCK_RECORD
  5
597
330
1
100
AcDbSymbolTableRecord
100
AcDbBlockTableRecord
  2
_OPEN
340
0
  0
BLOCK_RECORD
  5
4EB0
330
1
100
AcDbSymbolTableRecord
100
AcDbBlockTableRecord
  2
GENAXEH
340
0
  0
ENDTAB
  0
ENDSEC
  0
SECTION
  2
BLOCKS
  0
BLOCK
  5
37
330
1E
100
AcDbEntity
  8
0
100
AcDbBlockBegin
  2
*Model_Space
 70
     0
 10
0.0
 20
0.0
 30
0.0
  3
*Model_Space
  1

  0
ENDBLK
  5
38
330
1E
100
AcDbEntity
  8
0
100
AcDbBlockEnd
  0
BLOCK
  5
35
330
1A
100
AcDbEntity
 67
     1
  8
0
100
AcDbBlockBegin
  2
*Paper_Space
 70
     0
 10
0.0
 20
0.0
 30
0.0
  3
*Paper_Space
  1

  0
ENDBLK
  5
36
330
1A
100
AcDbEntity
 67
     1
  8
0
100
AcDbBlockEnd
  0
BLOCK
  5
59B
330
597
100
AcDbEntity
  8
0
100
AcDbBlockBegin
  2
_OPEN
 70
     0
 10
0.0
 20
0.0
 30
0.0
  3
_OPEN
  1

  0
LINE
  5
598
330
597
100
AcDbEntity
  8
0
  6
ByBlock
 62
     0
100
AcDbLine
 10
-1.0
 20
0.1666666666666666
 30
0.0
 11
0.0
 21
0.0
 31
0.0
  0
LINE
  5
599
330
597
100
AcDbEntity
  8
0
  6
ByBlock
 62
     0
100
AcDbLine
 10
0.0
 20
0.0
 30
0.0
 11
-1.0
 21
-0.1666666666666666
 31
0.0
  0
LINE
  5
59A
330
597
100
AcDbEntity
  8
0
  6
ByBlock
 62
     0
100
AcDbLine
 10
0.0
 20
0.0
 30
0.0
 11
-1.0
 21
0.0
 31
0.0
  0
ENDBLK
  5
59C
330
597
100
AcDbEntity
  8
0
100
AcDbBlockEnd
  0
BLOCK
  5
4EB2
330
4EB0
100
AcDbEntity
  8
0
100
AcDbBlockBegin
  2
GENAXEH
 70
     0
 10
0.0
 20
0.0
 30
0.0
  3
GENAXEH
  1

  0
LINE
  5
4EB1
330
4EB0
100
AcDbEntity
  8
0
100
AcDbLine
 10
-1.0
 20
0.0
 30
0.0
 11
1.0
 21
0.0
 31
0.0
  0
ENDBLK
  5
4EB3
330
4EB0
100
AcDbEntity
  8
0
100
AcDbBlockEnd
  0
ENDSEC
  0
SECTION
  2
ENTITIES
  0
TEXT
  5
C7
330
1E
100
AcDbEntity
  8
DIM
 62
     1
100
AcDbText
 10
16.35516340111906
 20
7.313182641180002
 30
0.0
 40
0.125
  1

 50
90.0
100
AcDbText
  0
TEXT
  5
C9
330
1E
100
AcDbEntity
  8
DIM
 62
     1
100
AcDbText
 10
13.34837863483334
 20
7.179439377583786
 30
0.0
 40
0.125
  1

 50
90.0
100
AcDbText
  0
TEXT
  5
DA
330
1E
100
AcDbEntity
  8
DIM
 62
     1
100
AcDbText
 10
13.6904845814324
 20
8.486994831764484
 30
0.0
 40
0.125
  1

 50
90.0
100
AcDbText
  0
TEXT
  5
DB
330
1E
100
AcDbEntity
  8
DIM
 62
     1
100
AcDbText
 10
10.68369981514667
 20
8.353251568168268
 30
0.0
 40
0.125
  1

 50
90.0
100
AcDbText
  0
TEXT
  5
7BB
330
1E
100
AcDbEntity
  8
0
100
AcDbText
 10
14.48805494628117
 20
0.6371003189161656
 30
0.0
 40
0.1213397244080934
  1
802B-SSAR3XSX
  7
HELR
 72
     4
 11
15.25076178541776
 21
0.6977701811202124
 31
0.0
100
AcDbText
  0
TEXT
  5
9B3
330
1E
100
AcDbEntity
  8
DIM
 62
     1
100
AcDbText
 10
25.09672621712861
 20
7.640701491704227
 30
0.0
 40
0.125
  1

 50
90.0
100
AcDbText
  0
TEXT
  5
9B4
330
1E
100
AcDbEntity
  8
DIM
 62
     1
100
AcDbText
 10
22.08994145084288
 20
7.506958228108011
 30
0.0
 40
0.125
  1

 50
90.0
100
AcDbText
  0
TEXT
  5
9B5
330
1E
100
AcDbEntity
  8
DIM
 62
     1
100
AcDbText
 10
22.43204739744194
 20
8.814513682288708
 30
0.0
 40
0.125
  1

 50
90.0
100
AcDbText
  0
TEXT
  5
9B6
330
1E
100
AcDbEntity
  8
DIM
 62
     1
100
AcDbText
 10
19.42526263115621
 20
8.680770418692492
 30
0.0
 40
0.125
  1

 50
90.0
100
AcDbText
  0
TEXT
  5
9B7
330
1E
100
AcDbEntity
  8
0
100
AcDbText
 10
11.51472627349514
 20
1.620220178285536
 30
0.0
 40
0.1213397244080934
  1
OUTLINE DRAWING
  7
HELR
 72
     4
 11
12.3236577695491
 21
1.680890040489583
 31
0.0
100
AcDbText
  0
TEXT
  5
9B8
330
1E
100
AcDbEntity
  8
0
100
AcDbText
 10
12.10986873130627
 20
1.420866795770394
 30
0.0
 40
0.1213397244080934
  1
802B
  7
HELR
 72
     4
 11
12.3236577695491
 21
1.481536657974441
 31
0.0
100
AcDbText
  0
TEXT
  5
9B9
330
1E
100
AcDbEntity
  8
0
100
AcDbText
 10
11.26337970150695
 20
1.221513413255252
 30
0.0
 40
0.1213397244080934
  1
COMPACT LIMIT SWITCH
  7
HELR
 72
     4
 11
12.3236577695491
 21
1.282183275459299
 31
0.0
100
AcDbText
  0
TEXT
  5
3F15
330
1E
100
AcDbEntity
  8
FORM
100
AcDbText
 10
13.37613044214886
 20
10.59631187162067
 30
0.0
 40
0.08
  1
REVISIONS
 72
     4
 11
13.7094637754822
 21
10.63631187162067
 31
0.0
100
AcDbText
  0
TEXT
  5
3F16
330
1E
100
AcDbEntity
  8
FORM
100
AcDbText
 10
13.73530506185902
 20
10.38129937162067
 30
0.0
 40
0.06
  1
DESCRIPTION
 72
     4
 11
14.03530506185902
 21
10.41129937162067
 31
0.0
100
AcDbText
  0
TEXT
  5
3F17
330
1E
100
AcDbEntity
  8
FORM
100
AcDbText
 10
11.7146780754822
 20
10.38129937162067
 30
0.0
 40
0.06
  1
REV.
 72
     4
 11
11.8146780754822
 21
10.41129937162067
 31
0.0
100
AcDbText
  0
TEXT
  5
3F18
330
1E
100
AcDbEntity
  8
FORM
100
AcDbText
 10
16.14906399964001
 20
10.38129937162067
 30
0.0
 40
0.06
  1
DRAFTER
 72
     4
 11
16.34906399964001
 21
10.41129937162067
 31
0.0
100
AcDbText
  0
LINE
  5
3F19
330
1E
100
AcDbEntity
  8
FORM
100
AcDbLine
 10
0.1042494754821988
 20
0.3013358716206689
 30
0.0
 11
0.1042494754821988
 21
10.76133587162067
 31
0.0
  0
LINE
  5
3F1A
330
1E
100
AcDbEntity
  8
FORM
100
AcDbLine
 10
0.1042494754821988
 20
10.76133587162067
 30
0.0
 11
16.5642494754822
 21
10.76133587162067
 31
0.0
  0
LINE
  5
3F1B
330
1E
100
AcDbEntity
  8
FORM
100
AcDbLine
 10
16.5642494754822
 20
10.76133587162067
 30
0.0
 11
16.5642494754822
 21
0.3013358716206689
 31
0.0
  0
LINE
  5
3F1C
330
1E
100
AcDbEntity
  8
FORM
100
AcDbLine
 10
16.5642494754822
 20
0.3013358716206689
 30
0.0
 11
0.1042494754821988
 21
0.3013358716206689
 31
0.0
  0
LINE
  5
3F1D
330
1E
100
AcDbEntity
  8
FORM
100
AcDbLine
 10
16.5642494754822
 20
10.51128787162067
 30
0.0
 11
11.6946780754822
 21
10.51128787162067
 31
0.0
  0
LINE
  5
3F1E
330
1E
100
AcDbEntity
  8
FORM
100
AcDbLine
 10
16.5642494754822
 20
10.31131087162067
 30
0.0
 11
11.6946780754822
 21
10.31131087162067
 31
0.0
  0
LINE
  5
3F1F
330
1E
100
AcDbEntity
  8
FORM
100
AcDbLine
 10
11.6946780754822
 20
10.1116735987442
 30
0.0
 11
11.6946780754822
 21
10.76133587162067
 31
0.0
  0
LINE
  5
3F20
330
1E
100
AcDbEntity
  8
FORM
100
AcDbLine
 10
11.93467807548219
 20
10.1116735987442
 30
0.0
 11
11.93467807548219
 21
10.51128787162067
 31
0.0
  0
LINE
  5
3F21
330
1E
100
AcDbEntity
  8
FORM
100
AcDbLine
 10
16.13593204823584
 20
10.1116735987442
 30
0.0
 11
16.13593204823584
 21
10.51128787162067
 31
0.0
  0
LINE
  5
3F22
330
1E
100
AcDbEntity
  8
FORM
100
AcDbLine
 10
16.54425243591942
 20
10.1116735987442
 30
0.0
 11
11.67468103591941
 21
10.1116735987442
 31
0.0
  0
TEXT
  5
3F23
330
1E
100
AcDbEntity
  8
FORM
100
AcDbText
 10
11.8046780754822
 20
10.1814922222368
 30
0.0
 40
0.06
  1
1
 72
     4
 11
11.8146780754822
 21
10.2114922222368
 31
0.0
100
AcDbText
  0
TEXT
  5
3F24
330
1E
100
AcDbEntity
  8
FORM
100
AcDbText
 10
12.08889710857868
 20
10.1814922222368
 30
0.0
 40
0.06
  1
CREATED
 72
     4
 11
12.28889710857868
 21
10.2114922222368
 31
0.0
100
AcDbText
  0
TEXT
  5
3F25
330
1E
100
AcDbEntity
  8
FORM
100
AcDbText
 10
16.26906399964001
 20
10.1814922222368
 30
0.0
 40
0.06
  1
MJL
 72
     4
 11
16.34906399964001
 21
10.2114922222368
 31
0.0
100
AcDbText
  0
TEXT
  5
3F26
330
1E
100
AcDbEntity
  8
BORDER
100
AcDbText
 10
14.24675382472929
 20
1.832088277798209
 30
0.0
 40
0.08
  1
FOR TECHNICAL SUPPORT CALL
100
AcDbText
  0
LINE
  5
3F27
330
1E
100
AcDbEntity
  8
BORDER
 62
     7
100
AcDbLine
 10
8.164214953796033
 20
0.880152121685807
 30
0.0
 11
10.6742212964188
 21
0.880152121685807
 31
0.0
  0
LINE
  5
3F28
330
1E
100
AcDbEntity
  8
BORDER
 62
     7
100
AcDbLine
 10
8.164214953796033
 20
0.5965697534844594
 30
0.0
 11
10.6742212964188
 21
0.5965697534844594
 31
0.0
  0
LINE
  5
3F29
330
1E
100
AcDbEntity
  8
BORDER
 62
     7
100
AcDbLine
 10
8.164214953796033
 20
2.310664685980217
 30
0.0
 11
16.5642494754822
 21
2.310664685980217
 31
0.0
  0
CIRCLE
  5
3F2A
330
1E
100
AcDbEntity
  8
BORDER
100
AcDbCircle
 10
8.975235392842808
 20
1.629187519764812
 30
0.0
 40
0.1399439102212038
  0
CIRCLE
  5
3F2B
330
1E
100
AcDbEntity
  8
BORDER
100
AcDbCircle
 10
8.975235392842808
 20
1.629187519764812
 30
0.0
 40
0.2350004304560674
  0
LINE
  5
3F2C
330
1E
100
AcDbEntity
  8
BORDER
 62
     7
100
AcDbLine
 10
10.6626304614487
 20
0.5918000678843392
 30
0.0
 11
14.07264668340649
 21
0.5918000678843392
 31
0.0
  0
TEXT
  5
3F2E
330
1E
100
AcDbEntity
  8
BORDER
100
AcDbText
 10
8.252778585122825
 20
2.073417411838359
 30
0.0
 40
0.06
  1
DIMENSIONS ARE IN MM [INCHES]
  7
ROMANS
100
AcDbText
  0
LINE
  5
3F2F
330
1E
100
AcDbEntity
  8
BORDER
 62
     7
100
AcDbLine
 10
10.6742212964188
 20
1.988654942763002
 30
0.0
 11
8.164214953796033
 21
1.988654942763002
 31
0.0
  0
LINE
  5
3F30
330
1E
100
AcDbEntity
  8
BORDER
 62
     7
100
AcDbLine
 10
8.164214953796033
 20
1.163768028334882
 30
0.0
 11
10.6742212964188
 21
1.163768028334882
 31
0.0
  0
TEXT
  5
3F31
330
1E
100
AcDbEntity
  8
BORDER
100
AcDbText
 10
8.231050836667568
 20
2.185660268230411
 30
0.0
 40
0.06
  1
UNLESS OTHERWISE SPECIFIED
  7
ROMANS
 72
     4
 11
8.929622265238997
 21
2.215660268230411
 31
0.0
100
AcDbText
  0
LINE
  5
3F32
330
1E
100
AcDbEntity
  8
BORDER
 62
     7
100
AcDbLine
 10
8.164214953796033
 20
2.310664685980217
 30
0.0
 11
8.164214953796033
 21
0.3013358716206689
 31
0.0
  0
LINE
  5
3F33
330
1E
100
AcDbEntity
  8
BORDER
100
AcDbLine
 10
10.05345745430098
 20
1.86418795022088
 30
0.0
 11
10.05345745430098
 21
1.394187089308745
 31
0.0
  0
LINE
  5
3F34
330
1E
100
AcDbEntity
  8
BORDER
100
AcDbLine
 10
9.469758293584561
 20
1.769131429986016
 30
0.0
 11
9.469758293584561
 21
1.489243609543608
 31
0.0
  0
TEXT
  5
3F35
330
1E
100
AcDbEntity
  8
BORDER
100
AcDbText
 10
14.75034761914786
 20
1.677567584262366
 30
0.0
 40
0.08
  1
+1 440.646.5800
100
AcDbText
  0
TEXT
  5
3F36
330
1E
100
AcDbEntity
  8
BORDER
100
AcDbText
 10
8.849680802323176
 20
1.224269202352133
 30
0.0
 40
0.06
  1
THIRD ANGLE PROJECTION
  7
ROMANS
 72
     4
 11
9.438252230894605
 21
1.254269202352134
 31
0.0
100
AcDbText
  0
LINE
  5
3F37
330
1E
100
AcDbEntity
  8
BORDER
100
AcDbLine
 10
10.05345745430098
 20
1.394187089308745
 30
0.0
 11
9.469758293584561
 21
1.489243609543608
 31
0.0
  0
LINE
  5
3F38
330
1E
100
AcDbEntity
  8
BORDER
100
AcDbLine
 10
10.05345745430098
 20
1.86418795022088
 30
0.0
 11
9.469758293584561
 21
1.769131429986016
 31
0.0
  0
TEXT
  5
3F39
330
1E
100
AcDbEntity
  8
BORDER
100
AcDbText
 10
8.252838918385634
 20
0.9937680024362871
 30
0.0
 40
0.07
  1
MATERIAL:    N/A
  7
ROMANS
 11
8.252838918385634
 21
1.063768002436287
 31
0.0
100
AcDbText
 73
     3
  0
TEXT
  5
3F3A
330
1E
100
AcDbEntity
  8
BORDER
100
AcDbText
 10
8.252838918385634
 20
0.7101520957872121
 30
0.0
 40
0.07
  1
FINISH:    N/A
  7
ROMANS
 11
8.252838918385634
 21
0.7801520957872122
 31
0.0
100
AcDbText
 73
     3
  0
TEXT
  5
3F3B
330
1E
100
AcDbEntity
  8
BORDER
100
AcDbText
 10
8.241657103055366
 20
0.4098107168812891
 30
0.0
 40
0.07
  1
SCALE:    1 : 1
  7
ROMANS
 11
8.241657103055366
 21
0.4798107168812891
 31
0.0
100
AcDbText
 73
     3
  0
LINE
  5
3F3C
330
1E
100
AcDbEntity
  8
BORDER
 62
     7
100
AcDbLine
 10
12.50422129641874
 20
0.5918000678843392
 30
0.0
 11
12.50422129641873
 21
0.3013358716206689
 31
0.0
  0
TEXT
  5
3F3D
330
1E
100
AcDbEntity
  8
BORDER
100
AcDbText
 10
11.16346154336717
 20
0.3816849826689754
 30
0.0
 40
0.09
  1
B. FORTIER
  7
ROMANS
100
AcDbText
  0
LINE
  5
3F3E
330
1E
100
AcDbEntity
  8
BORDER
 62
     7
100
AcDbLine
 10
10.6742212964188
 20
2.310664685980217
 30
0.0
 11
10.6742212964188
 21
0.3013358716206689
 31
0.0
  0
TEXT
  5
3F3F
330
1E
100
AcDbEntity
  8
BORDER
100
AcDbText
 10
10.74583298220857
 20
0.3910254962221138
 30
0.0
 40
0.1
  1
DRW.
  7
ROMANS
 11
10.74583298220857
 21
0.4410254962221139
 31
0.0
100
AcDbText
 73
     2
  0
TEXT
  5
3F40
330
1E
100
AcDbEntity
  8
BORDER
100
AcDbText
 10
12.61209870062048
 20
0.3935679008708526
 30
0.0
 40
0.1
  1
DATE
  7
ROMANS
100
AcDbText
  0
LINE
  5
3F43
330
1E
100
AcDbEntity
  8
BORDER
 62
     7
100
AcDbLine
 10
16.16423529139655
 20
0.7613526737798431
 30
0.0
 11
16.5642494754822
 21
0.7613526737798431
 31
0.0
  0
TEXT
  5
3F44
330
1E
100
AcDbEntity
  8
BORDER
100
AcDbText
 10
16.26023335346775
 20
0.7914822653982334
 30
0.0
 40
0.06
  1
REV.
  7
ROMANS
100
AcDbText
  0
TEXT
  5
3F45
330
1E
100
AcDbEntity
  8
BORDER
100
AcDbText
 10
14.17297786485456
 20
2.008125303149491
 30
0.0
 40
0.12
  1
ROCKWELL AUTOMATION
100
AcDbText
  0
TEXT
  5
3F46
330
1E
100
AcDbEntity
  8
BORDER
100
AcDbText
 10
14.15686668632682
 20
1.240125519652671
 30
0.0
 40
0.06
  1
ROCKWELL AUTOMATION AND MAY NOT COPIED,
100
AcDbText
  0
TEXT
  5
3F47
330
1E
100
AcDbEntity
  8
BORDER
100
AcDbText
 10
14.15686668632682
 20
1.140125519652649
 30
0.0
 40
0.06
  1
USED OR DISCLOSED FOR ANY PURPOSE EXCEPT 
100
AcDbText
  0
LINE
  5
3F48
330
1E
100
AcDbEntity
  8
BORDER
 62
     7
100
AcDbLine
 10
14.08423751837659
 20
0.5013329898443751
 30
0.0
 11
16.5642494754822
 21
0.5013329898443751
 31
0.0
  0
LINE
  5
3F49
330
1E
100
AcDbEntity
  8
BORDER
 62
     7
100
AcDbLine
 10
14.08423751837659
 20
0.8813526737798476
 30
0.0
 11
16.5642494754822
 21
0.8813526737798476
 31
0.0
  0
LINE
  5
3F4A
330
1E
100
AcDbEntity
  8
BORDER
 62
     7
100
AcDbLine
 10
14.08423751837659
 20
1.483895532676335
 30
0.0
 11
16.5642494754822
 21
1.483895532676335
 31
0.0
  0
TEXT
  5
3F4B
330
1E
100
AcDbEntity
  8
BORDER
100
AcDbText
 10
15.20172277357306
 20
0.3513358716206802
 30
0.0
 40
0.0781
  1
1
  7
ROMANS
100
AcDbText
  0
TEXT
  5
3F4C
330
1E
100
AcDbEntity
  8
BORDER
100
AcDbText
 10
16.07672277357307
 20
0.3513358716206802
 30
0.0
 40
0.0781
  1
1
  7
ROMANS
100
AcDbText
  0
TEXT
  5
3F4D
330
1E
100
AcDbEntity
  8
BORDER
100
AcDbText
 10
14.45808700369694
 20
0.3539194570580584
 30
0.0
 40
0.1
  1
B
  7
ROMANS
 72
     1
 11
14.51046795607789
 21
0.3539194570580584
 31
0.0
100
AcDbText
  0
LINE
  5
3F4E
330
1E
100
AcDbEntity
  8
BORDER
 62
     7
100
AcDbLine
 10
14.08423751837659
 20
0.3013358716206689
 30
0.0
 11
14.08423751837659
 21
2.310664685980217
 31
0.0
  0
TEXT
  5
3F4F
330
1E
100
AcDbEntity
  8
BORDER
100
AcDbText
 10
14.13838683215874
 20
0.3538095471564908
 30
0.0
 40
0.08
  1
SIZE   SHEET         OF     
  7
ROMANS
100
AcDbText
  0
TEXT
  5
3F50
330
1E
100
AcDbEntity
  8
BORDER
100
AcDbText
 10
14.15686668632682
 20
1.340125519652666
 30
0.0
 40
0.06
  1
THIS DRAWING IS PROPERTY OF
100
AcDbText
  0
TEXT
  5
3F51
330
1E
100
AcDbEntity
  8
BORDER
100
AcDbText
 10
14.15686668632682
 20
1.040125519652654
 30
0.0
 40
0.06
  1
AS AUTHORIZED IN WRITING BY
100
AcDbText
  0
TEXT
  5
3F52
330
1E
100
AcDbEntity
  8
BORDER
100
AcDbText
 10
14.15686668632682
 20
0.9401255196526605
 30
0.0
 40
0.06
  1
ROCKWELL AUTOMATION.
100
AcDbText
  0
TEXT
  5
3F53
330
1E
100
AcDbEntity
  8
BORDER
100
AcDbText
 10
13.1261292903136
 20
0.3963337397533344
 30
0.0
 40
0.09375
  1
10/11/06
  7
ROMANS
100
AcDbText
  0
TEXT
  5
3F54
330
1E
100
AcDbEntity
  8
BORDER
100
AcDbText
 10
14.13838683215874
 20
0.7411669347464205
 30
0.0
 40
0.06
  1
DWG.
  7
ROMANS
100
AcDbText
  0
TEXT
  5
3F55
330
1E
100
AcDbEntity
  8
BORDER
100
AcDbText
 10
14.13838683215874
 20
0.6078336014130948
 30
0.0
 40
0.06
  1
NO.
  7
ROMANS
100
AcDbText
  0
LINE
  5
3F57
330
1E
100
AcDbEntity
  8
BORDER
 62
     7
100
AcDbLine
 10
16.16423529139655
 20
0.8813526737798476
 30
0.0
 11
16.16423529139655
 21
0.5013329898443751
 31
0.0
  0
TEXT
  5
3F58
330
1E
100
AcDbEntity
  8
BORDER
100
AcDbText
 10
16.2988682206034
 20
0.5895054857508378
 30
0.0
 40
0.1
  1
1
  7
ROMANS
 72
     1
 11
16.33934441107959
 21
0.5895054857508378
 31
0.0
100
AcDbText
  0
ARC
  5
42EF
330
1E
100
AcDbEntity
  8
OBJECT
 62
     7
100
AcDbCircle
 10
9.949086981120087
 20
5.42031243669598
 30
0.0
 40
0.1975390280867369
100
AcDbArc
 50
270.0
 51
0.0
  0
ARC
  5
42F1
330
1E
100
AcDbEntity
  8
OBJECT
 62
     7
100
AcDbCircle
 10
9.949086981120087
 20
5.815390492869457
 30
0.0
 40
0.1975390280867369
100
AcDbArc
 50
0.0
 51
90.0
  0
LINE
  5
42F6
330
1E
100
AcDbEntity
  8
OBJECT
 62
     7
100
AcDbLine
 10
10.1663799120155
 20
6.408005167153524
 30
0.0
 11
9.336715994051203
 21
6.408005167153524
 31
0.0
  0
LINE
  5
42F8
330
1E
100
AcDbEntity
  8
CENTER
 62
     3
100
AcDbLine
 10
9.190367233653644
 20
5.617839407000444
 30
0.0
 11
10.32628355952276
 21
5.617839407000444
 31
0.0
  0
LINE
  5
4396
330
1E
100
AcDbEntity
  8
CENTER
 62
     3
100
AcDbLine
 10
9.751547953033345
 20
8.21273849584085
 30
0.0
 11
9.751547953033345
 21
5.161155794423335
 31
0.0
  0
LINE
  5
43BE
330
1E
100
AcDbEntity
  8
OBJECT
 62
     7
100
AcDbLine
 10
9.356469896859882
 20
5.815390492869457
 30
0.0
 11
9.356469896859882
 21
5.42031243669598
 31
0.0
  0
CIRCLE
  5
43BF
330
1E
100
AcDbEntity
  8
OBJECT
 62
     7
100
AcDbCircle
 10
9.751547953033345
 20
5.617839407000444
 30
0.0
 40
0.2370468337040843
  0
CIRCLE
  5
43C0
330
1E
100
AcDbEntity
  8
OBJECT
 62
     7
100
AcDbCircle
 10
9.751547953033345
 20
5.617839407000444
 30
0.0
 40
0.2963085421301054
  0
ARC
  5
43C2
330
1E
100
AcDbEntity
  8
OBJECT
 62
     7
100
AcDbCircle
 10
9.554008924946611
 20
5.42031243669598
 30
0.0
 40
0.1975390280867369
100
AcDbArc
 50
180.0
 51
270.0
  0
LINE
  5
43C3
330
1E
100
AcDbEntity
  8
OBJECT
 62
     7
100
AcDbLine
 10
9.554008924946611
 20
5.222773408609252
 30
0.0
 11
9.949086981120087
 21
5.222773408609252
 31
0.0
  0
CIRCLE
  5
43C8
330
1E
100
AcDbEntity
  8
OBJECT
 62
     7
100
AcDbCircle
 10
9.751547953033345
 20
5.617839407000444
 30
0.0
 40
0.1185234168520421
  0
LINE
  5
43C9
330
1E
100
AcDbEntity
  8
OBJECT
 62
     7
100
AcDbLine
 10
9.322888021087514
 20
6.389160046594346
 30
0.0
 11
9.322888021087514
 21
5.815388683411963
 31
0.0
  0
LINE
  5
43CA
330
1E
100
AcDbEntity
  8
OBJECT
 62
     7
100
AcDbLine
 10
9.554008924946611
 20
6.012929520956195
 30
0.0
 11
9.949086981120087
 21
6.012929520956195
 31
0.0
  0
LINE
  5
43CB
330
1E
100
AcDbEntity
  8
OBJECT
 62
     7
100
AcDbLine
 10
9.405854653881563
 20
6.269727847492813
 30
0.0
 11
10.09724125218514
 21
6.269727847492813
 31
0.0
  0
LINE
  5
43CC
330
1E
100
AcDbEntity
  8
OBJECT
 62
     7
100
AcDbLine
 10
9.593516730563958
 20
6.21835973936743
 30
0.0
 11
9.909579175502738
 21
6.21835973936743
 31
0.0
  0
LINE
  5
43CD
330
1E
100
AcDbEntity
  8
OBJECT
 62
     7
100
AcDbLine
 10
9.405854653881563
 20
6.261826404892756
 30
0.0
 11
9.534255022137937
 21
6.261826404892756
 31
0.0
  0
LINE
  5
43CE
330
1E
100
AcDbEntity
  8
OBJECT
 62
     7
100
AcDbLine
 10
9.534255022137937
 20
6.105762556570475
 30
0.0
 11
9.593516730563958
 21
6.105762556570475
 31
0.0
  0
LINE
  5
43CF
330
1E
100
AcDbEntity
  8
OBJECT
 62
     7
100
AcDbLine
 10
9.534255022137937
 20
6.086008653761801
 30
0.0
 11
9.593516730563958
 21
6.086008653761801
 31
0.0
  0
ARC
  5
43D0
330
1E
100
AcDbEntity
  8
OBJECT
 62
     7
100
AcDbCircle
 10
9.554008924946611
 20
5.815390492869457
 30
0.0
 40
0.1975390280867369
100
AcDbArc
 50
90.0
 51
180.0
  0
LINE
  5
43D1
330
1E
100
AcDbEntity
  8
OBJECT
 62
     7
100
AcDbLine
 10
9.322888021087514
 20
5.815388683411963
 30
0.0
 11
9.356469896859882
 21
5.815388683411963
 31
0.0
  0
LINE
  5
43D2
330
1E
100
AcDbEntity
  8
OBJECT
 62
     7
100
AcDbLine
 10
9.554008924946611
 20
6.159098030941407
 30
0.0
 11
9.554008924946611
 21
6.105762556570475
 31
0.0
  0
LINE
  5
43D3
330
1E
100
AcDbEntity
  8
OBJECT
 62
     7
100
AcDbLine
 10
9.593516730563958
 20
6.21835973936743
 30
0.0
 11
9.554008924946611
 21
6.159098030941407
 31
0.0
  0
LINE
  5
43D4
330
1E
100
AcDbEntity
  8
OBJECT
 62
     7
100
AcDbLine
 10
9.593516730563958
 20
6.105762556570475
 30
0.0
 11
9.593516730563958
 21
6.012929520956195
 31
0.0
  0
LINE
  5
43D5
330
1E
100
AcDbEntity
  8
OBJECT
 62
     7
100
AcDbLine
 10
9.405854653881563
 20
6.269727847492813
 30
0.0
 11
9.405854653881563
 21
5.946050308578312
 31
0.0
  0
LINE
  5
43D6
330
1E
100
AcDbEntity
  8
OBJECT
 62
     7
100
AcDbLine
 10
9.534255022137948
 20
6.261826404892756
 30
0.0
 11
9.534255022137948
 21
6.011938447898375
 31
0.0
  0
LINE
  5
43D7
330
1E
100
AcDbEntity
  8
OBJECT
 62
     7
100
AcDbLine
 10
9.968840883928763
 20
6.261826404892756
 30
0.0
 11
10.09724125218514
 21
6.261826404892756
 31
0.0
  0
LINE
  5
43D8
330
1E
100
AcDbEntity
  8
OBJECT
 62
     7
100
AcDbLine
 10
9.909579175502738
 20
6.105762556570475
 30
0.0
 11
9.968840883928763
 21
6.105762556570475
 31
0.0
  0
LINE
  5
43D9
330
1E
100
AcDbEntity
  8
OBJECT
 62
     7
100
AcDbLine
 10
9.909579175502738
 20
6.086008653761801
 30
0.0
 11
9.968840883928763
 21
6.086008653761801
 31
0.0
  0
LINE
  5
43DA
330
1E
100
AcDbEntity
  8
OBJECT
 62
     7
100
AcDbLine
 10
9.949086981120087
 20
6.159098030941407
 30
0.0
 11
9.949086981120087
 21
6.105762556570475
 31
0.0
  0
LINE
  5
43DB
330
1E
100
AcDbEntity
  8
OBJECT
 62
     7
100
AcDbLine
 10
9.909579175502738
 20
6.21835973936743
 30
0.0
 11
9.949086981120087
 21
6.159098030941407
 31
0.0
  0
LINE
  5
43DC
330
1E
100
AcDbEntity
  8
OBJECT
 62
     7
100
AcDbLine
 10
9.909579175502738
 20
6.105762556570475
 30
0.0
 11
9.909579175502738
 21
6.012929520956195
 31
0.0
  0
LINE
  5
43DD
330
1E
100
AcDbEntity
  8
OBJECT
 62
     7
100
AcDbLine
 10
9.668581320239312
 20
6.012929520956195
 30
0.0
 11
9.810805442025728
 21
6.012929520956195
 31
0.0
  0
LINE
  5
43DE
330
1E
100
AcDbEntity
  8
OBJECT
 62
     7
100
AcDbLine
 10
10.09724125218514
 20
6.269727847492813
 30
0.0
 11
10.09724125218514
 21
5.946050308578312
 31
0.0
  0
LINE
  5
43DF
330
1E
100
AcDbEntity
  8
OBJECT
 62
     7
100
AcDbLine
 10
9.968840883928763
 20
6.261826404892756
 30
0.0
 11
9.968840883928763
 21
6.011938447898375
 31
0.0
  0
ARC
  5
43E2
330
1E
100
AcDbEntity
  8
OBJECT
 62
     7
100
AcDbCircle
 10
9.342641923896195
 20
6.389160046594346
 30
0.0
 40
0.0197539028086737
100
AcDbArc
 50
107.4576034999999
 51
180.0
  0
LINE
  5
4400
330
1E
100
AcDbEntity
  8
OBJECT
 62
     7
100
AcDbLine
 10
10.14662600920682
 20
5.815390492869457
 30
0.0
 11
10.14662600920682
 21
5.42031243669598
 31
0.0
  0
LINE
  5
4405
330
1E
100
AcDbEntity
  8
OBJECT
 62
     7
100
AcDbLine
 10
10.18020728050976
 20
6.389160046594346
 30
0.0
 11
10.18020728050976
 21
5.815388683411963
 31
0.0
  0
LINE
  5
4406
330
1E
100
AcDbEntity
  8
OBJECT
 62
     7
100
AcDbLine
 10
10.14662600920682
 20
5.815388683411963
 30
0.0
 11
10.18020728050976
 21
5.815388683411963
 31
0.0
  0
ARC
  5
4409
330
1E
100
AcDbEntity
  8
OBJECT
 62
     7
100
AcDbCircle
 10
10.16045337770108
 20
6.389160046594346
 30
0.0
 40
0.0197539028086737
100
AcDbArc
 50
0.0
 51
72.54221339999997
  0
LINE
  5
44E5
330
1E
100
AcDbEntity
  8
DIM
 62
     1
100
AcDbLine
 10
9.322888021087514
 20
5.752888683411963
 30
0.0
 11
9.322888021087514
 21
4.487345106114826
 31
0.0
  0
LINE
  5
44E6
330
1E
100
AcDbEntity
  8
DIM
 62
     1
100
AcDbLine
 10
10.18020728050976
 20
5.752888683411963
 30
0.0
 11
10.18020728050976
 21
5.259990939490172
 31
0.0
  0
LINE
  5
44E7
330
1E
100
AcDbEntity
  8
DIM
 62
     1
100
AcDbLine
 10
9.472888021087515
 20
4.549845106114826
 30
0.0
 11
9.564399463864411
 21
4.549845106114826
 31
0.0
  0
SOLID
  5
44E9
330
1E
100
AcDbEntity
  8
DIM
 62
     1
100
AcDbTrace
 10
9.472888021087515
 20
4.574845106114826
 30
0.0
 11
9.472888021087515
 21
4.524845106114826
 31
0.0
 12
9.322888021087514
 22
4.549845106114826
 32
0.0
 13
9.322888021087514
 23
4.549845106114826
 33
0.0
  0
SOLID
  5
44EA
330
1E
100
AcDbEntity
  8
DIM
 62
     1
100
AcDbTrace
 10
10.03020728050976
 20
4.574845106114826
 30
0.0
 11
10.03020728050976
 21
4.524845106114826
 31
0.0
 12
10.18020728050976
 22
4.549845106114826
 32
0.0
 13
10.18020728050976
 23
4.549845106114826
 33
0.0
  0
MTEXT
  5
44EB
330
1E
100
AcDbEntity
  8
DIM
 62
     7
100
AcDbMText
 10
9.770914680619299
 20
4.549845106114826
 30
0.0
 40
0.09
 41
0.0
 71
     5
 72
     1
  1
21.7\P[.854]
 73
     1
 44
1.0
1001
ACAD
1000
MTEXTBEGIN
1070
    73
1070
     1
1070
    44
1040
1.0
1070
    74
1070
     0
1000
MTEXTEND
  0
LINE
  5
44EC
330
1E
100
AcDbEntity
  8
DIM
 62
     1
100
AcDbLine
 10
9.356469896859874
 20
5.35781243669598
 30
0.0
 11
9.356469896859874
 21
4.857010058700719
 31
0.0
  0
LINE
  5
44ED
330
1E
100
AcDbEntity
  8
DIM
 62
     1
100
AcDbLine
 10
10.14662600920682
 20
5.35781243669598
 30
0.0
 11
10.14662600920682
 21
5.259990939490172
 31
0.0
  0
LINE
  5
44EE
330
1E
100
AcDbEntity
  8
DIM
 62
     1
100
AcDbLine
 10
9.506469896859874
 20
4.919510058700719
 30
0.0
 11
9.601547953033348
 21
4.919510058700719
 31
0.0
  0
LINE
  5
44EF
330
1E
100
AcDbEntity
  8
DIM
 62
     1
100
AcDbLine
 10
9.996626009206824
 20
4.919510058700719
 30
0.0
 11
9.901547953033349
 21
4.919510058700719
 31
0.0
  0
SOLID
  5
44F0
330
1E
100
AcDbEntity
  8
DIM
 62
     1
100
AcDbTrace
 10
9.506469896859874
 20
4.94451005870072
 30
0.0
 11
9.506469896859874
 21
4.894510058700719
 31
0.0
 12
9.356469896859874
 22
4.919510058700719
 32
0.0
 13
9.356469896859874
 23
4.919510058700719
 33
0.0
  0
SOLID
  5
44F1
330
1E
100
AcDbEntity
  8
DIM
 62
     1
100
AcDbTrace
 10
9.996626009206824
 20
4.94451005870072
 30
0.0
 11
9.996626009206824
 21
4.894510058700719
 31
0.0
 12
10.14662600920682
 22
4.919510058700719
 32
0.0
 13
10.14662600920682
 23
4.919510058700719
 33
0.0
  0
MTEXT
  5
44F2
330
1E
100
AcDbEntity
  8
DIM
 62
     7
100
AcDbMText
 10
9.751547953033348
 20
4.919510058700719
 30
0.0
 40
0.09
 41
0.0
 71
     5
 72
     1
  1
21\P[.827]
 73
     1
 44
1.0
1001
ACAD
1000
MTEXTBEGIN
1070
    73
1070
     1
1070
    44
1040
1.0
1070
    74
1070
     0
1000
MTEXTEND
  0
LINE
  5
44F3
330
1E
100
AcDbEntity
  8
DIM
 62
     1
100
AcDbLine
 10
9.963652564918945
 20
4.549845106114826
 30
0.0
 11
10.03020728050976
 21
4.549845106114826
 31
0.0
  0
LEADER
  5
44F4
330
1E
100
AcDbEntity
  8
DIM
100
AcDbLeader
  3
Standard
 76
     3
 10
10.07775957526023
 20
5.269718972055187
 30
0.0
 10
10.41371646883248
 20
4.919510058700719
 30
0.0
 10
10.55004678587423
 20
4.919510058700719
 30
0.0
1001
ACAD
1000
DSTYLE
1002
{
1070
   147
1040
0.09
1070
    77
1070
     0
1002
}
  0
MTEXT
  5
44F5
330
1E
100
AcDbEntity
  8
DIM
 62
     7
100
AcDbMText
 10
11.09337565857316
 20
4.83716045790538
 30
0.0
 40
0.09
 41
0.0
 71
     5
 72
     1
  1
SEAL RUBBER\P(NBR)
 73
     1
 44
1.0
1001
ACAD
1000
MTEXTBEGIN
1070
    73
1070
     1
1070
    44
1040
1.0
1070
    74
1070
     0
1000
MTEXTEND
  0
LINE
  5
44F6
330
1E
100
AcDbEntity
  8
DIM
 62
     1
100
AcDbLine
 10
10.14662600920682
 20
5.104342547942966
 30
0.0
 11
10.14662600920682
 21
4.857010058700719
 31
0.0
  0
LINE
  5
44F7
330
1E
100
AcDbEntity
  8
DIM
 62
     1
100
AcDbLine
 10
10.18020728050976
 20
5.080022466530432
 30
0.0
 11
10.18020728050976
 21
4.487345106114826
 31
0.0
  0
LEADER
  5
4513
330
1E
100
AcDbEntity
  8
DIM
100
AcDbLeader
  3
Standard
 76
     3
 10
9.858072017618155
 20
5.554704563381839
 30
0.0
 10
10.42068887412016
 20
5.281011875797656
 30
0.0
 10
10.55278154683174
 20
5.281011875797656
 30
0.0
1001
ACAD
1000
DSTYLE
1002
{
1070
   147
1040
0.09
1070
    77
1070
     0
1002
}
  0
MTEXT
  5
4514
330
1E
100
AcDbEntity
  8
DIM
 62
     7
100
AcDbMText
 10
11.16186814590389
 20
5.286798374354624
 30
0.0
 40
0.09
 41
0.0
 71
     5
 72
     1
  1
INTERNAL \PCABLE OPENING 
 73
     1
 44
1.0
1001
ACAD
1000
MTEXTBEGIN
1070
    73
1070
     1
1070
    44
1040
1.0
1070
    74
1070
     0
1000
MTEXTEND
  0
MTEXT
  5
4515
330
1E
100
AcDbEntity
  8
DIM
 62
     7
100
AcDbMText
 10
12.03626159670349
 20
5.292579227016542
 30
0.0
 40
0.09
 41
0.0
 71
     5
 72
     1
  1
11\P[.433]
 73
     1
 44
1.0
1001
ACAD
1000
MTEXTBEGIN
1070
    73
1070
     1
1070
    44
1040
1.0
1070
    74
1070
     0
1000
MTEXTEND
  0
MTEXT
  5
4516
330
1E
100
AcDbEntity
  8
DIM
 62
     7
100
AcDbMText
 10
12.42897913551925
 20
5.307977007244524
 30
0.0
 40
0.09
 41
0.0
 71
     5
 72
     1
  1
DIA
 73
     1
 44
1.0
1001
ACAD
1000
MTEXTBEGIN
1070
    73
1070
     1
1070
    44
1040
1.0
1070
    74
1070
     0
1000
MTEXTEND
  0
LINE
  5
485F
330
1E
100
AcDbEntity
  8
CENTER
 62
     3
100
AcDbLine
 10
9.190367233653644
 20
6.012071533457509
 30
0.0
 11
10.32628355952276
 21
6.012071533457509
 31
0.0
  0
LINE
  5
49B2
330
1E
100
AcDbEntity
  8
OBJECT
 62
     7
100
AcDbLine
 10
10.14471676525717
 20
6.771738712734352
 30
0.0
 11
9.35837914080951
 21
6.771738712734352
 31
0.0
  0
LINE
  5
49B3
330
1E
100
AcDbEntity
  8
OBJECT
 62
     7
100
AcDbLine
 10
9.338720700198322
 20
6.752080272123158
 30
0.0
 11
9.338720700198322
 21
6.408005167153523
 31
0.0
  0
ARC
  5
49D6
330
1E
100
AcDbEntity
  8
OBJECT
 62
     7
100
AcDbCircle
 10
9.35837914080951
 20
6.752080272123158
 30
0.0
 40
0.0196584406111915
100
AcDbArc
 50
90.0
 51
180.0
  0
LINE
  5
4A1C
330
1E
100
AcDbEntity
  8
OBJECT
 62
     7
100
AcDbLine
 10
10.16437520586836
 20
6.752080272123158
 30
0.0
 11
10.16437520586836
 21
6.408005167153523
 31
0.0
  0
ARC
  5
4A23
330
1E
100
AcDbEntity
  8
OBJECT
 62
     7
100
AcDbCircle
 10
10.14471676525717
 20
6.752080272123158
 30
0.0
 40
0.0196584406111915
100
AcDbArc
 50
0.0
 51
90.0
  0
LEADER
  5
4A31
330
1E
100
AcDbEntity
  8
DIM
100
AcDbLeader
  3
Standard
 76
     3
 10
9.803349259804583
 20
8.107791189466645
 30
0.0
 10
10.30349843237732
 20
8.705724591600613
 30
0.0
 10
10.4428842955158
 20
8.705724591600613
 30
0.0
1001
ACAD
1000
DSTYLE
1002
{
1070
   147
1040
0.09
1070
    77
1070
     0
1002
}
  0
MTEXT
  5
4A32
330
1E
100
AcDbEntity
  8
DIM
 62
     7
100
AcDbMText
 10
11.34244783512333
 20
8.634213242797834
 30
0.0
 40
0.09
 41
0.0
 71
     5
 72
     1
  1
12.7 DIA x 7.5 WIDTH\P[.500 DIA X .295 WIDTH]
 73
     1
 44
1.0
1001
ACAD
1000
MTEXTBEGIN
1070
    73
1070
     1
1070
    44
1040
1.0
1070
    74
1070
     0
1000
MTEXTEND
  0
LINE
  5
4B12
330
1E
100
AcDbEntity
  8
OBJECT
 62
     7
100
AcDbLine
 10
3.416203050878052
 20
7.140667051100004
 30
0.0
 11
4.083651140857217
 21
7.140667051100004
 31
0.0
  0
LINE
  5
4B13
330
1E
100
AcDbEntity
  8
OBJECT
 62
     7
100
AcDbLine
 10
4.083651140857217
 20
7.140667051100004
 30
0.0
 11
5.24348222134601
 21
7.140667051100004
 31
0.0
  0
LINE
  5
4B14
330
1E
100
AcDbEntity
  8
OBJECT
 62
     7
100
AcDbLine
 10
3.400355067154619
 20
7.035730680142632
 30
0.0
 11
3.400355067154619
 21
7.139593142223347
 31
0.0
  0
LINE
  5
4B15
330
1E
100
AcDbEntity
  8
OBJECT
 62
     7
100
AcDbLine
 10
3.737043499598583
 20
7.023073770400671
 30
0.0
 11
4.65468324566267
 21
7.023073770400671
 31
0.0
  0
ARC
  5
4B16
330
1E
100
AcDbEntity
  8
OBJECT
 62
     7
100
AcDbCircle
 10
4.65468324566267
 20
7.042672650517229
 30
0.0
 40
0.0195988801165553
100
AcDbArc
 50
270.0
 51
0.0
  0
ARC
  5
4B17
330
1E
100
AcDbEntity
  8
OBJECT
 62
     7
100
AcDbCircle
 10
4.752677646245448
 20
7.062271530633782
 30
0.0
 40
0.0783955204662213
100
AcDbArc
 50
90.00005339999999
 51
180.0
  0
LINE
  5
4B18
330
1E
100
AcDbEntity
  8
OBJECT
 62
     7
100
AcDbLine
 10
4.674282125779225
 20
7.042672650517229
 30
0.0
 11
4.674282125779225
 21
7.062271530633782
 31
0.0
  0
LINE
  5
4B19
330
1E
100
AcDbEntity
  8
OBJECT
 62
     7
100
AcDbLine
 10
5.596262961072714
 20
7.101469290866898
 30
0.0
 11
4.684785244029209
 21
7.101469290866898
 31
0.0
  0
LINE
  5
4B1A
330
1E
100
AcDbEntity
  8
OBJECT
 62
     7
100
AcDbLine
 10
5.24348222134601
 20
7.442489683381904
 30
0.0
 11
5.24348222134601
 21
7.140667051100004
 31
0.0
  0
LINE
  5
4B1B
330
1E
100
AcDbEntity
  8
OBJECT
 62
     7
100
AcDbLine
 10
5.596262961072714
 20
7.266099762332902
 30
0.0
 11
5.596262961072714
 21
7.101469290866898
 31
0.0
  0
ARC
  5
4B1C
330
1E
100
AcDbEntity
  8
OBJECT
 62
     7
100
AcDbCircle
 10
5.419873040023717
 20
7.442489683381904
 30
0.0
 40
0.1763899210489978
100
AcDbArc
 50
180.0
 51
270.0
  0
ARC
  5
4B1D
330
1E
100
AcDbEntity
  8
OBJECT
 62
     7
100
AcDbCircle
 10
5.419873040023717
 20
7.442489683381904
 30
0.0
 40
0.1763899210489978
100
AcDbArc
 50
180.0
 51
270.0
  0
LINE
  5
4B1E
330
1E
100
AcDbEntity
  8
OBJECT
 62
     7
100
AcDbLine
 10
5.419873040023717
 20
7.266099762332902
 30
0.0
 11
5.647220166969039
 21
7.266099762332902
 31
0.0
  0
LINE
  5
4B1F
330
1E
100
AcDbEntity
  8
OBJECT
 62
     7
100
AcDbLine
 10
5.419873040023717
 20
7.266099762332902
 30
0.0
 11
5.647220166969039
 21
7.266099762332902
 31
0.0
  0
LINE
  5
4B20
330
1E
100
AcDbEntity
  8
CENTER
 62
     3
100
AcDbLine
 10
5.165871420440776
 20
7.834467285713008
 30
0.0
 11
5.685975027789499
 21
7.834467285713008
 31
0.0
  0
ARC
  5
4B21
330
1E
100
AcDbEntity
  8
OBJECT
 62
     7
100
AcDbCircle
 10
5.419873040023717
 20
7.834467285713008
 30
0.0
 40
0.1763899210489978
100
AcDbArc
 50
0.0
 51
180.0
  0
ARC
  5
4B22
330
1E
100
AcDbEntity
  8
OBJECT
 62
     7
100
AcDbCircle
 10
5.419873040023717
 20
7.834467285713008
 30
0.0
 40
0.246945897308149
100
AcDbArc
 50
315.5846863
 51
224.4152985
  0
ARC
  5
4B23
330
1E
100
AcDbEntity
  8
OBJECT
 62
     7
100
AcDbCircle
 10
5.419873040023717
 20
7.834467285713008
 30
0.0
 40
0.2273470171915938
100
AcDbArc
 50
320.8833008
 51
219.1166992
  0
LINE
  5
4B24
330
1E
100
AcDbEntity
  8
OBJECT
 62
     7
100
AcDbLine
 10
5.24348222134601
 20
7.677676244780564
 30
0.0
 11
5.596262961072714
 21
7.677676244780564
 31
0.0
  0
LINE
  5
4B25
330
1E
100
AcDbEntity
  8
OBJECT
 62
     7
100
AcDbLine
 10
5.24348222134601
 20
7.622799619560547
 30
0.0
 11
5.596262961072714
 21
7.622799619560547
 31
0.0
  0
LINE
  5
4B26
330
1E
100
AcDbEntity
  8
OBJECT
 62
     7
100
AcDbLine
 10
5.24348222134601
 20
7.622799619560547
 30
0.0
 11
5.596262961072714
 21
7.622799619560547
 31
0.0
  0
CIRCLE
  5
4B27
330
1E
100
AcDbEntity
  8
OBJECT
 62
     7
100
AcDbCircle
 10
5.419873040023717
 20
7.834467285713008
 30
0.0
 40
0.1175932806993319
  0
ARC
  5
4B28
330
1E
100
AcDbEntity
  8
OBJECT
 62
     7
100
AcDbCircle
 10
5.285753967931001
 20
8.069610784452279
 30
0.0
 40
0.246945897308149
100
AcDbArc
 50
356.4627991
 51
242.9360046
  0
LINE
  5
4B29
330
1E
100
AcDbEntity
  8
OBJECT
 62
     7
100
AcDbLine
 10
5.24348222134601
 20
7.442489683381904
 30
0.0
 11
5.24348222134601
 21
7.834467285713008
 31
0.0
  0
CIRCLE
  5
4B2A
330
1E
100
AcDbEntity
  8
OBJECT
 62
     7
100
AcDbCircle
 10
5.419873040023717
 20
7.442489683381904
 30
0.0
 40
0.1175932806993319
  0
CIRCLE
  5
4B2B
330
1E
100
AcDbEntity
  8
OBJECT
 62
     7
100
AcDbCircle
 10
5.419873040023717
 20
7.442489683381904
 30
0.0
 40
0.1175932806993319
  0
LINE
  5
4B2D
330
1E
100
AcDbEntity
  8
OBJECT
 62
     7
100
AcDbLine
 10
5.596262961072714
 20
7.579681844197784
 30
0.0
 11
5.596262961072714
 21
7.834467285713008
 31
0.0
  0
LINE
  5
4B2E
330
1E
100
AcDbEntity
  8
OBJECT
 62
     7
100
AcDbLine
 10
5.596262961072714
 20
7.579681844197784
 30
0.0
 11
5.647220166969039
 21
7.579681844197784
 31
0.0
  0
LINE
  5
4B2F
330
1E
100
AcDbEntity
  8
OBJECT
 62
     7
100
AcDbLine
 10
5.596262961072714
 20
7.579681844197784
 30
0.0
 11
5.647220166969039
 21
7.579681844197784
 31
0.0
  0
LINE
  5
4B30
330
1E
100
AcDbEntity
  8
OBJECT
 62
     7
100
AcDbLine
 10
5.647220166969039
 20
7.266099762332902
 30
0.0
 11
5.647220166969039
 21
7.579681844197784
 31
0.0
  0
LINE
  5
4B31
330
1E
100
AcDbEntity
  8
OBJECT
 62
     7
100
AcDbLine
 10
5.647220166969039
 20
7.266099762332902
 30
0.0
 11
5.647220166969039
 21
7.579681844197784
 31
0.0
  0
LINE
  5
4B32
330
1E
100
AcDbEntity
  8
CENTER
 62
     3
100
AcDbLine
 10
5.027894540063902
 20
7.805174971758956
 30
0.0
 11
5.027894540063902
 21
7.089478809483102
 31
0.0
  0
ARC
  5
4B33
330
1E
100
AcDbEntity
  8
OBJECT
 62
     7
100
AcDbCircle
 10
5.027894540063902
 20
7.442489683381904
 30
0.0
 40
0.246945897308149
100
AcDbArc
 50
29.18899919999999
 51
330.8110045999999
  0
LINE
  5
4B34
330
1E
100
AcDbEntity
  8
OBJECT
 62
     7
100
AcDbLine
 10
4.968265327527557
 20
7.101469290866898
 30
0.0
 11
4.968265327527557
 21
7.140667051100004
 31
0.0
  0
CIRCLE
  5
4B35
330
1E
100
AcDbEntity
  8
OBJECT
 62
     7
100
AcDbCircle
 10
5.027894540063902
 20
7.442489683381904
 30
0.0
 40
0.1175932806993319
  0
LINE
  5
4B36
330
1E
100
AcDbEntity
  8
CENTER
 62
     3
100
AcDbLine
 10
5.419873040023717
 20
8.385082296354802
 30
0.0
 11
5.419873040023717
 21
7.317551008959653
 31
0.0
  0
LINE
  5
4B37
330
1E
100
AcDbEntity
  8
CENTER
 62
     3
100
AcDbLine
 10
4.521238245693357
 20
7.442489683381904
 30
0.0
 11
5.685975027789499
 21
7.442489683381904
 31
0.0
  0
ARC
  5
4B38
330
1E
100
AcDbEntity
  8
FORM
 62
     1
100
AcDbCircle
 10
5.419873040023717
 20
7.442489683381904
 30
0.0
 40
0.7839552046622127
100
AcDbArc
 50
90.0
 51
137.0788273720239
  0
ARC
  5
4B39
330
1E
100
AcDbEntity
  8
FORM
 62
     1
100
AcDbCircle
 10
3.517948347853952
 20
6.905480489701343
 30
0.0
 40
2.116679052587974
100
AcDbArc
 50
12.77711010000002
 51
35.66520644994103
  0
LINE
  5
4B3A
330
1E
100
AcDbEntity
  8
FORM
 62
     1
100
AcDbLine
 10
3.517948347853952
 20
6.905480489701343
 30
0.0
 11
3.902235905299216
 21
7.301599452057216
 31
0.0
  0
CIRCLE
  5
4B3B
330
1E
100
AcDbEntity
  8
OBJECT
 62
     7
100
AcDbCircle
 10
3.517948347853952
 20
6.905480489701343
 30
0.0
 40
0.058796640349666
  0
ARC
  5
4B3E
330
1E
100
AcDbEntity
  8
OBJECT
 62
     7
100
AcDbCircle
 10
3.416203050878052
 20
7.023073770400671
 30
0.0
 40
0.1175932806993319
100
AcDbArc
 50
90.0
 51
181.4999999999999
  0
LINE
  5
4B3F
330
1E
100
AcDbEntity
  8
OBJECT
 62
     7
100
AcDbLine
 10
3.306289058262854
 20
6.725602089504652
 30
0.0
 11
3.298576126741112
 21
7.019992900922096
 31
0.0
  0
LINE
  5
4B40
330
1E
100
AcDbEntity
  8
OBJECT
 62
     7
100
AcDbLine
 10
3.345472762179145
 20
6.726629043384329
 30
0.0
 11
3.306289058262854
 21
6.725602089504652
 31
0.0
  0
LINE
  5
4B41
330
1E
100
AcDbEntity
  8
OBJECT
 62
     7
100
AcDbLine
 10
3.381392280451575
 20
6.993867742678215
 30
0.0
 11
3.341783766888981
 21
6.68554992785219
 31
0.0
  0
ARC
  5
4B42
330
1E
100
AcDbEntity
  8
OBJECT
 62
     7
100
AcDbCircle
 10
3.459151707504286
 20
6.983876010167564
 30
0.0
 40
0.0783955204662213
100
AcDbArc
 50
90.0
 51
172.759201
  0
LINE
  5
4B43
330
1E
100
AcDbEntity
  8
OBJECT
 62
     7
100
AcDbLine
 10
3.459151707504286
 20
7.062271530633782
 30
0.0
 11
3.596343868320174
 21
7.062271530633782
 31
0.0
  0
ARC
  5
4B44
330
1E
100
AcDbEntity
  8
OBJECT
 62
     7
100
AcDbCircle
 10
3.416130527182069
 20
7.023073770400671
 30
0.0
 40
0.0783955204662213
100
AcDbArc
 50
101.610199
 51
181.4999999999999
  0
LINE
  5
4B45
330
1E
100
AcDbEntity
  8
OBJECT
 62
     7
100
AcDbLine
 10
3.337831452804902
 20
7.021019858721545
 30
0.0
 11
3.400355067154619
 21
7.085202181172396
 31
0.0
  0
ARC
  5
4B46
330
1E
100
AcDbEntity
  8
OBJECT
 62
     7
100
AcDbCircle
 10
3.517948347853952
 20
6.905480489701343
 30
0.0
 40
0.1567910409324425
100
AcDbArc
 50
152.0164032
 51
193.3415069999999
  0
LINE
  5
4B47
330
1E
100
AcDbEntity
  8
OBJECT
 62
     7
100
AcDbLine
 10
3.345472762179145
 20
6.726629043384329
 30
0.0
 11
3.337764016978195
 21
7.020949279234471
 31
0.0
  0
LINE
  5
4B49
330
1E
100
AcDbEntity
  8
OBJECT
 62
     7
100
AcDbLine
 10
4.064052260740661
 20
7.174612205627925
 30
0.0
 11
4.007073577232622
 21
7.141717629469774
 31
0.0
  0
LINE
  5
4B4A
330
1E
100
AcDbEntity
  8
OBJECT
 62
     7
100
AcDbLine
 10
4.083651140857217
 20
7.140667051100004
 30
0.0
 11
4.064052260740661
 21
7.174612205627925
 31
0.0
  0
LINE
  5
4B4B
330
1E
100
AcDbEntity
  8
OBJECT
 62
     7
100
AcDbLine
 10
9.987662116589923
 20
7.622424811164343
 30
0.0
 11
9.987662116589923
 21
7.264318089720795
 31
0.0
  0
LINE
  5
4B4C
330
1E
100
AcDbEntity
  8
OBJECT
 62
     7
100
AcDbLine
 10
9.515433789476762
 20
7.622424811164343
 30
0.0
 11
9.515433789476762
 21
7.264318089720795
 31
0.0
  0
LINE
  5
4B4D
330
1E
100
AcDbEntity
  8
OBJECT
 62
     7
100
AcDbLine
 10
9.59413851066229
 20
7.146261007942504
 30
0.0
 11
9.908957395404398
 21
7.146261007942504
 31
0.0
  0
LINE
  5
4B4E
330
1E
100
AcDbEntity
  8
OBJECT
 62
     7
100
AcDbLine
 10
9.997500206738115
 20
7.106908647349746
 30
0.0
 11
9.505595699328573
 21
7.106908647349746
 31
0.0
  0
LINE
  5
4B4F
330
1E
100
AcDbEntity
  8
OBJECT
 62
     7
100
AcDbLine
 10
9.836155288258385
 20
7.075426935961152
 30
0.0
 11
9.666940015717186
 21
7.075426935961152
 31
0.0
  0
LINE
  5
4B50
330
1E
100
AcDbEntity
  8
OBJECT
 62
     7
100
AcDbLine
 10
9.847815203810691
 20
7.081101373208246
 30
0.0
 11
9.651053400846874
 21
7.037809931830574
 31
0.0
  0
LINE
  5
4B51
330
1E
100
AcDbEntity
  8
OBJECT
 62
     7
100
AcDbLine
 10
9.655280104100119
 20
7.01859431188639
 30
0.0
 11
9.852041907063934
 21
7.061881849509887
 31
0.0
  0
LINE
  5
4B52
330
1E
100
AcDbEntity
  8
OBJECT
 62
     7
100
AcDbLine
 10
9.847815203810691
 20
6.994526297961243
 30
0.0
 11
9.651053400846874
 21
6.951238764272982
 31
0.0
  0
LINE
  5
4B53
330
1E
100
AcDbEntity
  8
OBJECT
 62
     7
100
AcDbLine
 10
9.655280104100119
 20
6.932022841315621
 30
0.0
 11
9.852041907063934
 21
6.975306475184954
 31
0.0
  0
LINE
  5
4B54
330
1E
100
AcDbEntity
  8
OBJECT
 62
     7
100
AcDbLine
 10
9.847815203810691
 20
6.907950927571544
 30
0.0
 11
9.651053400846874
 21
6.864663389948043
 31
0.0
  0
LINE
  5
4B55
330
1E
100
AcDbEntity
  8
OBJECT
 62
     7
100
AcDbLine
 10
9.655280104100119
 20
6.84544386624969
 30
0.0
 11
9.852041907063934
 21
6.888731403873187
 31
0.0
  0
LINE
  5
4B56
330
1E
100
AcDbEntity
  8
OBJECT
 62
     7
100
AcDbLine
 10
9.997500206738115
 20
7.106908647349746
 30
0.0
 11
9.505595699328573
 21
7.106908647349746
 31
0.0
  0
LINE
  5
4B57
330
1E
100
AcDbEntity
  8
OBJECT
 62
     7
100
AcDbLine
 10
9.515433789476762
 20
7.264318089720795
 30
0.0
 11
9.987662116589923
 21
7.264318089720795
 31
0.0
  0
LINE
  5
4B58
330
1E
100
AcDbEntity
  8
OBJECT
 62
     7
100
AcDbLine
 10
9.547879551059917
 20
7.008527745867839
 30
0.0
 11
9.948309755997163
 21
7.008527745867839
 31
0.0
  0
LINE
  5
4B59
330
1E
100
AcDbEntity
  8
OBJECT
 62
     7
100
AcDbLine
 10
9.810576493922491
 20
7.180340045964463
 30
0.0
 11
9.692519412144198
 21
7.180340045964463
 31
0.0
  0
LINE
  5
4B5A
330
1E
100
AcDbEntity
  8
OBJECT
 62
     7
100
AcDbLine
 10
9.666940015717186
 20
7.106908647349746
 30
0.0
 11
9.666940015717186
 21
7.075426935961152
 31
0.0
  0
CIRCLE
  5
4B5B
330
1E
100
AcDbEntity
  8
OBJECT
 62
     7
100
AcDbCircle
 10
9.653167051551433
 20
7.097070557201552
 30
0.0
 40
0.0098380901481909
  0
ARC
  5
4B5C
330
1E
100
AcDbEntity
  8
OBJECT
 62
     7
100
AcDbCircle
 10
9.751547953033345
 20
6.638615796345258
 30
0.0
 40
0.4682930753129412
100
AcDbArc
 50
100.4088973999999
 51
100.9108963
  0
ARC
  5
4B5D
330
1E
100
AcDbEntity
  8
OBJECT
 62
     7
100
AcDbCircle
 10
9.59413851066229
 20
7.165937188238888
 30
0.0
 40
0.0196761802963818
100
AcDbArc
 50
180.0
 51
270.0
  0
ARC
  5
4B5E
330
1E
100
AcDbEntity
  8
OBJECT
 62
     7
100
AcDbCircle
 10
9.692519412144198
 20
7.140987984449646
 30
0.0
 40
0.0393523605927635
100
AcDbArc
 50
90.0
 51
172.3007965
  0
CIRCLE
  5
4B5F
330
1E
100
AcDbEntity
  8
OBJECT
 62
     7
100
AcDbCircle
 10
9.653167051551433
 20
6.941628850917215
 30
0.0
 40
0.0098380901481909
  0
CIRCLE
  5
4B60
330
1E
100
AcDbEntity
  8
OBJECT
 62
     7
100
AcDbCircle
 10
9.653167051551433
 20
7.028203926164213
 30
0.0
 40
0.0098380901481909
  0
LINE
  5
4B61
330
1E
100
AcDbEntity
  8
OBJECT
 62
     7
100
AcDbLine
 10
9.610866986647529
 20
7.008527745867839
 30
0.0
 11
9.610866986647529
 21
7.036424650032989
 31
0.0
  0
LINE
  5
4B62
330
1E
100
AcDbEntity
  8
OBJECT
 62
     7
100
AcDbLine
 10
9.5731515071698
 20
7.008527745867839
 30
0.0
 11
9.565651041686484
 21
7.106908647349746
 31
0.0
  0
ARC
  5
4B63
330
1E
100
AcDbEntity
  8
OBJECT
 62
     7
100
AcDbCircle
 10
9.673823196137007
 20
7.036424650032989
 30
0.0
 40
0.0629637769484216
100
AcDbArc
 50
118.9710999
 51
180.0
  0
ARC
  5
4B64
330
1E
100
AcDbEntity
  8
OBJECT
 62
     7
100
AcDbCircle
 10
9.505595699328573
 20
7.079362112991891
 30
0.0
 40
0.0275466524149344
100
AcDbArc
 50
90.0
 51
180.0
  0
LINE
  5
4B65
330
1E
100
AcDbEntity
  8
OBJECT
 62
     7
100
AcDbLine
 10
9.505595699328573
 20
7.146261007942504
 30
0.0
 11
9.535109969773143
 21
7.146261007942504
 31
0.0
  0
LINE
  5
4B66
330
1E
100
AcDbEntity
  8
OBJECT
 62
     7
100
AcDbLine
 10
9.37770052740209
 20
7.067556286756977
 30
0.0
 11
9.417052887994856
 21
7.067556286756977
 31
0.0
  0
ARC
  5
4B67
330
1E
100
AcDbEntity
  8
OBJECT
 62
     7
100
AcDbCircle
 10
9.505595699328573
 20
7.079362112991891
 30
0.0
 40
0.0668990130076979
100
AcDbArc
 50
90.0
 51
180.0
  0
LINE
  5
4B68
330
1E
100
AcDbEntity
  8
OBJECT
 62
     7
100
AcDbLine
 10
9.516819071274351
 20
6.979525071851911
 30
0.0
 11
9.497906086724068
 21
6.910142940631756
 31
0.0
  0
LINE
  5
4B69
330
1E
100
AcDbEntity
  8
OBJECT
 62
     7
100
AcDbLine
 10
9.513997467667488
 20
6.96917538527507
 30
0.0
 11
9.478052769646952
 21
6.96917538527507
 31
0.0
  0
LINE
  5
4B6A
330
1E
100
AcDbEntity
  8
OBJECT
 62
     7
100
AcDbLine
 10
9.456405248587616
 20
6.910142940631756
 30
0.0
 11
9.497906086724068
 21
6.910142940631756
 31
0.0
  0
LINE
  5
4B6B
330
1E
100
AcDbEntity
  8
OBJECT
 62
     7
100
AcDbLine
 10
9.438700409054188
 20
6.96917538527507
 30
0.0
 11
9.436729068291237
 21
6.96917538527507
 31
0.0
  0
ARC
  5
4B6C
330
1E
100
AcDbEntity
  8
OBJECT
 62
     7
100
AcDbCircle
 10
9.456405248587616
 20
6.929819120928137
 30
0.0
 40
0.0196761802963818
100
AcDbArc
 50
180.0
 51
270.0
  0
LINE
  5
4B6D
330
1E
100
AcDbEntity
  8
OBJECT
 62
     7
100
AcDbLine
 10
9.438700409054188
 20
7.028203926164213
 30
0.0
 11
9.478052769646952
 21
7.028203926164213
 31
0.0
  0
ARC
  5
4B6E
330
1E
100
AcDbEntity
  8
OBJECT
 62
     7
100
AcDbCircle
 10
9.417052887994856
 20
7.047880106460597
 30
0.0
 40
0.0196761802963818
100
AcDbArc
 50
0.0
 51
90.0
  0
LINE
  5
4B6F
330
1E
100
AcDbEntity
  8
OBJECT
 62
     7
100
AcDbLine
 10
9.438700409054188
 20
7.079362112991891
 30
0.0
 11
9.438700409054188
 21
6.921244418640595
 31
0.0
  0
LINE
  5
4B70
330
1E
100
AcDbEntity
  8
OBJECT
 62
     7
100
AcDbLine
 10
9.478052769646952
 20
7.079362112991891
 30
0.0
 11
9.478052769646952
 21
6.910142940631756
 31
0.0
  0
ARC
  5
4B71
330
1E
100
AcDbEntity
  8
OBJECT
 62
     7
100
AcDbCircle
 10
9.37770052740209
 20
7.047880106460597
 30
0.0
 40
0.0196761802963818
100
AcDbArc
 50
90.0
 51
180.0
  0
ARC
  5
4B72
330
1E
100
AcDbEntity
  8
OBJECT
 62
     7
100
AcDbCircle
 10
9.554786150069528
 20
6.96917538527507
 30
0.0
 40
0.0393523605927635
100
AcDbArc
 50
90.0
 51
164.8361053
  0
ARC
  5
4B73
330
1E
100
AcDbEntity
  8
OBJECT
 62
     7
100
AcDbCircle
 10
9.574462330365907
 20
7.146261007942504
 30
0.0
 40
0.0393523605927635
100
AcDbArc
 50
180.0
 51
270.0
  0
LINE
  5
4B74
330
1E
100
AcDbEntity
  8
OBJECT
 62
     7
100
AcDbLine
 10
9.59413851066229
 20
7.264318089720795
 30
0.0
 11
9.59413851066229
 21
7.146261007942504
 31
0.0
  0
LINE
  5
4B75
330
1E
100
AcDbEntity
  8
OBJECT
 62
     7
100
AcDbLine
 10
9.574462330365907
 20
7.264318089720795
 30
0.0
 11
9.574462330365907
 21
7.165937188238888
 31
0.0
  0
LINE
  5
4B76
330
1E
100
AcDbEntity
  8
OBJECT
 62
     7
100
AcDbLine
 10
9.535109969773143
 20
7.264318089720795
 30
0.0
 11
9.535109969773143
 21
7.146261007942504
 31
0.0
  0
CIRCLE
  5
4B77
330
1E
100
AcDbEntity
  8
OBJECT
 62
     7
100
AcDbCircle
 10
9.653167051551433
 20
6.855053779605457
 30
0.0
 40
0.0098380901481909
  0
LINE
  5
4B78
330
1E
100
AcDbEntity
  8
OBJECT
 62
     7
100
AcDbLine
 10
10.08604301807183
 20
7.067556286756977
 30
0.0
 11
10.1253953786646
 21
7.067556286756977
 31
0.0
  0
ARC
  5
4B79
330
1E
100
AcDbEntity
  8
OBJECT
 62
     7
100
AcDbCircle
 10
10.04669065747907
 20
6.929819120928137
 30
0.0
 40
0.0196761802963818
100
AcDbArc
 50
270.0
 51
0.0
  0
LINE
  5
4B7A
330
1E
100
AcDbEntity
  8
OBJECT
 62
     7
100
AcDbLine
 10
10.06636683777545
 20
6.96917538527507
 30
0.0
 11
10.0643990977535
 21
6.96917538527507
 31
0.0
  0
LINE
  5
4B7B
330
1E
100
AcDbEntity
  8
OBJECT
 62
     7
100
AcDbLine
 10
10.02504673716073
 20
7.028203926164213
 30
0.0
 11
10.0643990977535
 21
7.028203926164213
 31
0.0
  0
ARC
  5
4B7C
330
1E
100
AcDbEntity
  8
OBJECT
 62
     7
100
AcDbCircle
 10
10.08604301807183
 20
7.047880106460597
 30
0.0
 40
0.0196761802963818
100
AcDbArc
 50
90.0
 51
180.0
  0
LINE
  5
4B7D
330
1E
100
AcDbEntity
  8
OBJECT
 62
     7
100
AcDbLine
 10
10.02504673716073
 20
7.079362112991891
 30
0.0
 11
10.02504673716073
 21
6.910142940631756
 31
0.0
  0
ARC
  5
4B7E
330
1E
100
AcDbEntity
  8
OBJECT
 62
     7
100
AcDbCircle
 10
10.1253953786646
 20
7.047880106460597
 30
0.0
 40
0.0196761802963818
100
AcDbArc
 50
0.0
 51
90.0
  0
LINE
  5
4B7F
330
1E
100
AcDbEntity
  8
OBJECT
 62
     7
100
AcDbLine
 10
10.0643990977535
 20
7.079362112991891
 30
0.0
 11
10.0643990977535
 21
6.921244418640595
 31
0.0
  0
LINE
  5
4B80
330
1E
100
AcDbEntity
  8
OBJECT
 62
     7
100
AcDbLine
 10
9.967985936293542
 20
7.146261007942504
 30
0.0
 11
9.997500206738115
 21
7.146261007942504
 31
0.0
  0
ARC
  5
4B81
330
1E
100
AcDbEntity
  8
OBJECT
 62
     7
100
AcDbCircle
 10
9.908957395404398
 20
7.165937188238888
 30
0.0
 40
0.0196761802963818
100
AcDbArc
 50
270.0
 51
0.0
  0
ARC
  5
4B82
330
1E
100
AcDbEntity
  8
OBJECT
 62
     7
100
AcDbCircle
 10
9.928633575700779
 20
7.146261007942504
 30
0.0
 40
0.0393523605927635
100
AcDbArc
 50
270.0
 51
0.0
  0
LINE
  5
4B83
330
1E
100
AcDbEntity
  8
OBJECT
 62
     7
100
AcDbLine
 10
9.836155288258385
 20
7.106908647349746
 30
0.0
 11
9.836155288258385
 21
7.075426935961152
 31
0.0
  0
CIRCLE
  5
4B84
330
1E
100
AcDbEntity
  8
OBJECT
 62
     7
100
AcDbCircle
 10
9.849928854515251
 20
7.097070557201552
 30
0.0
 40
0.0098380901481909
  0
CIRCLE
  5
4B85
330
1E
100
AcDbEntity
  8
OBJECT
 62
     7
100
AcDbCircle
 10
9.849928854515251
 20
7.071491762865655
 30
0.0
 40
0.0098380901481909
  0
ARC
  5
4B86
330
1E
100
AcDbEntity
  8
OBJECT
 62
     7
100
AcDbCircle
 10
9.751547953033345
 20
6.638615796345258
 30
0.0
 40
0.4682930753129412
100
AcDbArc
 50
79.08914950000005
 51
79.59107969999999
  0
ARC
  5
4B87
330
1E
100
AcDbEntity
  8
OBJECT
 62
     7
100
AcDbCircle
 10
9.810576493922491
 20
7.140987984449646
 30
0.0
 40
0.0393523605927635
100
AcDbArc
 50
7.699182999999986
 51
90.0
  0
ARC
  5
4B88
330
1E
100
AcDbEntity
  8
OBJECT
 62
     7
100
AcDbCircle
 10
9.948309755997163
 20
6.96917538527507
 30
0.0
 40
0.0393523605927635
100
AcDbArc
 50
15.16388989999999
 51
90.0
  0
LINE
  5
4B89
330
1E
100
AcDbEntity
  8
OBJECT
 62
     7
100
AcDbLine
 10
9.986280435533332
 20
6.979525071851911
 30
0.0
 11
10.00519342008361
 21
6.910142940631756
 31
0.0
  0
CIRCLE
  5
4B8A
330
1E
100
AcDbEntity
  8
OBJECT
 62
     7
100
AcDbCircle
 10
9.849928854515251
 20
6.984916388540721
 30
0.0
 40
0.0098380901481909
  0
LINE
  5
4B8B
330
1E
100
AcDbEntity
  8
OBJECT
 62
     7
100
AcDbLine
 10
9.892232520160156
 20
7.008527745867839
 30
0.0
 11
9.892232520160156
 21
7.036424650032989
 31
0.0
  0
LINE
  5
4B8C
330
1E
100
AcDbEntity
  8
OBJECT
 62
     7
100
AcDbLine
 10
9.937444262289089
 20
7.106908647349746
 30
0.0
 11
9.929943800741009
 21
7.008527745867839
 31
0.0
  0
ARC
  5
4B8D
330
1E
100
AcDbEntity
  8
OBJECT
 62
     7
100
AcDbCircle
 10
9.829268503162335
 20
7.036424650032989
 30
0.0
 40
0.0629637769484216
100
AcDbArc
 50
0.0
 51
61.02658080000002
  0
ARC
  5
4B8E
330
1E
100
AcDbEntity
  8
OBJECT
 62
     7
100
AcDbCircle
 10
9.997500206738115
 20
7.079362112991891
 30
0.0
 40
0.0275466524149344
100
AcDbArc
 50
0.0
 51
90.0
  0
LINE
  5
4B8F
330
1E
100
AcDbEntity
  8
OBJECT
 62
     7
100
AcDbLine
 10
10.02504673716073
 20
6.96917538527507
 30
0.0
 11
9.989098438399201
 21
6.96917538527507
 31
0.0
  0
LINE
  5
4B90
330
1E
100
AcDbEntity
  8
OBJECT
 62
     7
100
AcDbLine
 10
10.00519342008361
 20
6.910142940631756
 30
0.0
 11
10.04669065747907
 21
6.910142940631756
 31
0.0
  0
ARC
  5
4B91
330
1E
100
AcDbEntity
  8
OBJECT
 62
     7
100
AcDbCircle
 10
9.997500206738115
 20
7.079362112991891
 30
0.0
 40
0.0668990130076979
100
AcDbArc
 50
0.0
 51
90.0
  0
LINE
  5
4B92
330
1E
100
AcDbEntity
  8
OBJECT
 62
     7
100
AcDbLine
 10
9.908957395404398
 20
7.264318089720795
 30
0.0
 11
9.908957395404398
 21
7.146261007942504
 31
0.0
  0
LINE
  5
4B93
330
1E
100
AcDbEntity
  8
OBJECT
 62
     7
100
AcDbLine
 10
9.928633575700779
 20
7.264318089720795
 30
0.0
 11
9.928633575700779
 21
7.165937188238888
 31
0.0
  0
LINE
  5
4B94
330
1E
100
AcDbEntity
  8
OBJECT
 62
     7
100
AcDbLine
 10
9.967985936293542
 20
7.264318089720795
 30
0.0
 11
9.967985936293542
 21
7.146261007942504
 31
0.0
  0
CIRCLE
  5
4B95
330
1E
100
AcDbEntity
  8
OBJECT
 62
     7
100
AcDbCircle
 10
9.849928854515251
 20
6.898341313293723
 30
0.0
 40
0.0098380901481909
  0
LINE
  5
4B96
330
1E
100
AcDbEntity
  8
OBJECT
 62
     7
100
AcDbLine
 10
9.889281215108015
 20
8.043494947514595
 30
0.0
 11
9.889281215108015
 21
7.626359685181904
 31
0.0
  0
LINE
  5
4B97
330
1E
100
AcDbEntity
  8
OBJECT
 62
     7
100
AcDbLine
 10
9.967985936293542
 20
7.952984400094159
 30
0.0
 11
9.967985936293542
 21
7.716870236537577
 31
0.0
  0
LINE
  5
4B98
330
1E
100
AcDbEntity
  8
OBJECT
 62
     7
100
AcDbLine
 10
9.928633575700779
 20
8.012012940983307
 30
0.0
 11
9.928633575700779
 21
7.677517875944818
 31
0.0
  0
LINE
  5
4B99
330
1E
100
AcDbEntity
  8
OBJECT
 62
     7
100
AcDbLine
 10
9.849928854515251
 20
8.082847308107359
 30
0.0
 11
9.849928854515251
 21
7.587007324589135
 31
0.0
  0
LINE
  5
4B9A
330
1E
100
AcDbEntity
  8
OBJECT
 62
     7
100
AcDbLine
 10
9.535109969773143
 20
7.952984400094159
 30
0.0
 11
9.535109969773143
 21
7.716870236537577
 31
0.0
  0
LINE
  5
4B9B
330
1E
100
AcDbEntity
  8
OBJECT
 62
     7
100
AcDbLine
 10
9.574462330365907
 20
8.012012940983307
 30
0.0
 11
9.574462330365907
 21
7.677517875944818
 31
0.0
  0
LINE
  5
4B9C
330
1E
100
AcDbEntity
  8
OBJECT
 62
     7
100
AcDbLine
 10
9.613814690958674
 20
8.043494947514595
 30
0.0
 11
9.613814690958674
 21
7.626359685181904
 31
0.0
  0
LINE
  5
4B9D
330
1E
100
AcDbEntity
  8
OBJECT
 62
     7
100
AcDbLine
 10
9.653167051551433
 20
8.082847308107359
 30
0.0
 11
9.653167051551433
 21
7.587007324589135
 31
0.0
  0
LINE
  5
4B9F
330
1E
100
AcDbEntity
  8
OBJECT
 62
     7
100
AcDbLine
 10
9.653167051551433
 20
7.587007324589135
 30
0.0
 11
9.849928854515251
 21
7.587007324589135
 31
0.0
  0
LINE
  5
4BA0
330
1E
100
AcDbEntity
  8
CENTER
 62
     3
100
AcDbLine
 10
9.445323584492335
 20
7.834927318315868
 30
0.0
 11
10.04778050929997
 21
7.834927318315868
 31
0.0
  0
LINE
  5
4BA1
330
1E
100
AcDbEntity
  8
OBJECT
 62
     7
100
AcDbLine
 10
9.987662116589923
 20
7.579136974462906
 30
0.0
 11
9.515433789476762
 21
7.579136974462906
 31
0.0
  0
LINE
  5
4BA2
330
1E
100
AcDbEntity
  8
CENTER
 62
     3
100
AcDbLine
 10
10.08801435883478
 20
7.449344916439715
 30
0.0
 11
9.4150851479729
 21
7.449344916439715
 31
0.0
  0
LINE
  5
4BA3
330
1E
100
AcDbEntity
  8
OBJECT
 62
     7
100
AcDbLine
 10
9.653167051551433
 20
7.587007324589135
 30
0.0
 11
9.613814690958674
 21
7.626359685181904
 31
0.0
  0
LINE
  5
4BA4
330
1E
100
AcDbEntity
  8
OBJECT
 62
     7
100
AcDbLine
 10
9.59413851066229
 20
7.616088656103416
 30
0.0
 11
9.59413851066229
 21
7.579136974462906
 31
0.0
  0
LINE
  5
4BA5
330
1E
100
AcDbEntity
  8
OBJECT
 62
     7
100
AcDbLine
 10
9.554786150069528
 20
7.616088656103416
 30
0.0
 11
9.59413851066229
 21
7.616088656103416
 31
0.0
  0
LINE
  5
4BA6
330
1E
100
AcDbEntity
  8
OBJECT
 62
     7
100
AcDbLine
 10
9.613814690958674
 20
7.671182322974999
 30
0.0
 11
9.554786150069528
 21
7.616088656103416
 31
0.0
  0
LINE
  5
4BA7
330
1E
100
AcDbEntity
  8
OBJECT
 62
     7
100
AcDbLine
 10
9.554786150069528
 20
7.616088656103416
 30
0.0
 11
9.554786150069528
 21
7.579136974462906
 31
0.0
  0
LINE
  5
4BA8
330
1E
100
AcDbEntity
  8
OBJECT
 62
     7
100
AcDbLine
 10
9.495757609180383
 20
7.559460794166525
 30
0.0
 11
9.515433789476762
 21
7.559460794166525
 31
0.0
  0
LINE
  5
4BA9
330
1E
100
AcDbEntity
  8
OBJECT
 62
     7
100
AcDbLine
 10
9.574462330365907
 20
7.677517875944818
 30
0.0
 11
9.515433789476762
 21
7.622424811164343
 31
0.0
  0
LINE
  5
4BAA
330
1E
100
AcDbEntity
  8
OBJECT
 62
     7
100
AcDbLine
 10
9.574462330365907
 20
7.716870236537577
 30
0.0
 11
9.535109969773143
 21
7.716870236537577
 31
0.0
  0
LINE
  5
4BAB
330
1E
100
AcDbEntity
  8
OBJECT
 62
     7
100
AcDbLine
 10
9.495757609180383
 20
7.323346630609943
 30
0.0
 11
9.515433789476762
 21
7.323346630609943
 31
0.0
  0
LINE
  5
4BAC
330
1E
100
AcDbEntity
  8
OBJECT
 62
     7
100
AcDbLine
 10
9.495757609180383
 20
7.559460794166525
 30
0.0
 11
9.495757609180383
 21
7.323346630609943
 31
0.0
  0
LINE
  5
4BAD
330
1E
100
AcDbEntity
  8
OBJECT
 62
     7
100
AcDbLine
 10
9.928633575700779
 20
7.716870236537577
 30
0.0
 11
9.967985936293542
 21
7.716870236537577
 31
0.0
  0
LINE
  5
4BAE
330
1E
100
AcDbEntity
  8
OBJECT
 62
     7
100
AcDbLine
 10
9.908957395404398
 20
7.616088656103416
 30
0.0
 11
9.908957395404398
 21
7.579136974462906
 31
0.0
  0
LINE
  5
4BAF
330
1E
100
AcDbEntity
  8
OBJECT
 62
     7
100
AcDbLine
 10
9.948309755997163
 20
7.616088656103416
 30
0.0
 11
9.908957395404398
 21
7.616088656103416
 31
0.0
  0
LINE
  5
4BB0
330
1E
100
AcDbEntity
  8
OBJECT
 62
     7
100
AcDbLine
 10
9.948309755997163
 20
7.616088656103416
 30
0.0
 11
9.948309755997163
 21
7.579136974462906
 31
0.0
  0
LINE
  5
4BB1
330
1E
100
AcDbEntity
  8
OBJECT
 62
     7
100
AcDbLine
 10
9.928633575700779
 20
7.677517875944818
 30
0.0
 11
9.987662116589923
 21
7.622424811164343
 31
0.0
  0
LINE
  5
4BB2
330
1E
100
AcDbEntity
  8
OBJECT
 62
     7
100
AcDbLine
 10
9.987662116589923
 20
7.559460794166525
 30
0.0
 11
10.00733829688631
 21
7.559460794166525
 31
0.0
  0
LINE
  5
4BB3
330
1E
100
AcDbEntity
  8
OBJECT
 62
     7
100
AcDbLine
 10
9.849928854515251
 20
7.587007324589135
 30
0.0
 11
9.889281215108015
 21
7.626359685181904
 31
0.0
  0
LINE
  5
4BB4
330
1E
100
AcDbEntity
  8
OBJECT
 62
     7
100
AcDbLine
 10
9.889281215108015
 20
7.671182322974999
 30
0.0
 11
9.948309755997163
 21
7.616088656103416
 31
0.0
  0
LINE
  5
4BB5
330
1E
100
AcDbEntity
  8
OBJECT
 62
     7
100
AcDbLine
 10
9.987662116589923
 20
7.323346630609943
 30
0.0
 11
10.00733829688631
 21
7.323346630609943
 31
0.0
  0
LINE
  5
4BB6
330
1E
100
AcDbEntity
  8
OBJECT
 62
     7
100
AcDbLine
 10
10.00733829688631
 20
7.559460794166525
 30
0.0
 11
10.00733829688631
 21
7.323346630609943
 31
0.0
  0
LINE
  5
4BB8
330
1E
100
AcDbEntity
  8
OBJECT
 62
     7
100
AcDbLine
 10
9.653167051551433
 20
8.082847308107359
 30
0.0
 11
9.849928854515251
 21
8.082847308107359
 31
0.0
  0
LINE
  5
4BB9
330
1E
100
AcDbEntity
  8
OBJECT
 62
     7
100
AcDbLine
 10
9.653167051551433
 20
8.082847308107359
 30
0.0
 11
9.613814690958674
 21
8.043494947514595
 31
0.0
  0
LINE
  5
4BBA
330
1E
100
AcDbEntity
  8
OBJECT
 62
     7
100
AcDbLine
 10
9.613814690958674
 20
8.012012940983307
 30
0.0
 11
9.574462330365907
 21
8.012012940983307
 31
0.0
  0
LINE
  5
4BBB
330
1E
100
AcDbEntity
  8
OBJECT
 62
     7
100
AcDbLine
 10
9.574462330365907
 20
7.952984400094159
 30
0.0
 11
9.535109969773143
 21
7.952984400094159
 31
0.0
  0
LINE
  5
4BBC
330
1E
100
AcDbEntity
  8
OBJECT
 62
     7
100
AcDbLine
 10
9.849928854515251
 20
8.082847308107359
 30
0.0
 11
9.869605034811634
 21
8.063171127810974
 31
0.0
  0
LINE
  5
4BBD
330
1E
100
AcDbEntity
  8
OBJECT
 62
     7
100
AcDbLine
 10
9.849928854515251
 20
8.082847308107359
 30
0.0
 11
9.889281215108015
 21
8.043494947514595
 31
0.0
  0
LINE
  5
4BBE
330
1E
100
AcDbEntity
  8
OBJECT
 62
     7
100
AcDbLine
 10
9.928633575700779
 20
7.952984400094159
 30
0.0
 11
9.967985936293542
 21
7.952984400094159
 31
0.0
  0
LINE
  5
4BBF
330
1E
100
AcDbEntity
  8
OBJECT
 62
     7
100
AcDbLine
 10
9.889281215108015
 20
8.012012940983307
 30
0.0
 11
9.928633575700779
 21
8.012012940983307
 31
0.0
  0
LINE
  5
4BC0
330
1E
100
AcDbEntity
  8
OBJECT
 62
     7
100
AcDbLine
 10
10.14507155896098
 20
7.047880106460597
 30
0.0
 11
10.14507155896098
 21
6.772413582311255
 31
0.0
  0
LINE
  5
4BC1
330
1E
100
AcDbEntity
  8
OBJECT
 62
     7
100
AcDbLine
 10
10.06636683777545
 20
7.047880106460597
 30
0.0
 11
10.06636683777545
 21
6.792089762607635
 31
0.0
  0
LINE
  5
4BC2
330
1E
100
AcDbEntity
  8
OBJECT
 62
     7
100
AcDbLine
 10
9.436729068291237
 20
7.047880106460597
 30
0.0
 11
9.436729068291237
 21
6.792089762607635
 31
0.0
  0
LINE
  5
4BC3
330
1E
100
AcDbEntity
  8
OBJECT
 62
     7
100
AcDbLine
 10
9.358024347105709
 20
7.047880106460597
 30
0.0
 11
9.358024347105709
 21
6.772413582311255
 31
0.0
  0
LINE
  5
4BC4
330
1E
100
AcDbEntity
  8
OBJECT
 62
     7
100
AcDbLine
 10
9.928633575700779
 20
6.811765942904015
 30
0.0
 11
9.574462330365907
 21
6.811765942904015
 31
0.0
  0
LINE
  5
4BC5
330
1E
100
AcDbEntity
  8
OBJECT
 62
     7
100
AcDbLine
 10
9.554786150069528
 20
6.792089762607635
 30
0.0
 11
9.554786150069528
 21
6.772413582311255
 31
0.0
  0
ARC
  5
4BC7
330
1E
100
AcDbEntity
  8
OBJECT
 62
     7
100
AcDbCircle
 10
9.456405248587616
 20
6.792089762607635
 30
0.0
 40
0.0196761802963818
100
AcDbArc
 50
180.0
 51
270.0
  0
ARC
  5
4BC8
330
1E
100
AcDbEntity
  8
OBJECT
 62
     7
100
AcDbCircle
 10
9.574462330365907
 20
6.792089762607635
 30
0.0
 40
0.0196761802963818
100
AcDbArc
 50
90.0
 51
180.0
  0
LINE
  5
4BC9
330
1E
100
AcDbEntity
  8
OBJECT
 62
     7
100
AcDbLine
 10
9.663005141699628
 20
7.097070557201552
 30
0.0
 11
9.663005141699628
 21
6.811765942904015
 31
0.0
  0
LINE
  5
4BCA
330
1E
100
AcDbEntity
  8
OBJECT
 62
     7
100
AcDbLine
 10
9.643328961403245
 20
7.097070557201552
 30
0.0
 11
9.643328961403245
 21
6.811765942904015
 31
0.0
  0
LINE
  5
4BCB
330
1E
100
AcDbEntity
  8
OBJECT
 62
     7
100
AcDbLine
 10
9.653167051551433
 20
6.802293837579812
 30
0.0
 11
9.653167051551433
 21
7.116975213368299
 31
0.0
  0
ARC
  5
4BCC
330
1E
100
AcDbEntity
  8
OBJECT
 62
     7
100
AcDbCircle
 10
10.04669065747907
 20
6.792089762607635
 30
0.0
 40
0.0196761802963818
100
AcDbArc
 50
270.0
 51
0.0
  0
LINE
  5
4BCD
330
1E
100
AcDbEntity
  8
OBJECT
 62
     7
100
AcDbLine
 10
9.948309755997163
 20
6.792089762607635
 30
0.0
 11
9.948309755997163
 21
6.772413582311255
 31
0.0
  0
ARC
  5
4BCE
330
1E
100
AcDbEntity
  8
OBJECT
 62
     7
100
AcDbCircle
 10
9.928633575700779
 20
6.792089762607635
 30
0.0
 40
0.0196761802963818
100
AcDbArc
 50
0.0
 51
90.0
  0
CIRCLE
  5
4BCF
330
1E
100
AcDbEntity
  8
OBJECT
 62
     7
100
AcDbCircle
 10
9.849928854515251
 20
6.821604033052206
 30
0.0
 40
0.0098380901481909
  0
LINE
  5
4BD0
330
1E
100
AcDbEntity
  8
OBJECT
 62
     7
100
AcDbLine
 10
9.840090764367065
 20
7.097070557201552
 30
0.0
 11
9.840090764367065
 21
6.811765942904015
 31
0.0
  0
LINE
  5
4BD1
330
1E
100
AcDbEntity
  8
OBJECT
 62
     7
100
AcDbLine
 10
9.859766944663444
 20
7.097070557201552
 30
0.0
 11
9.859766944663444
 21
6.811765942904015
 31
0.0
  0
LINE
  5
4BD2
330
1E
100
AcDbEntity
  8
OBJECT
 62
     7
100
AcDbLine
 10
9.849928854515251
 20
7.116975213368299
 30
0.0
 11
9.849928854515251
 21
6.802293837579812
 31
0.0
  0
LINE
  5
4CDC
330
1E
100
AcDbEntity
  8
DIM
100
AcDbLine
 10
5.012759118315055
 20
5.798908287142767
 30
0.0
 11
5.449803946824303
 21
5.186530816007322
 31
0.0
1001
ACAD
1000
DSTYLE
1002
{
1070
   147
1040
0.09
1070
    77
1070
     0
1002
}
  0
MTEXT
  5
4CDD
330
1E
100
AcDbEntity
  8
DIM
 62
     7
100
AcDbMText
 10
1.413985882904845
 20
5.621223007497953
 30
0.0
 40
0.09
 41
0.0
 71
     5
 72
     1
  1
22\P[.866]
 73
     1
 44
1.0
1001
ACAD
1000
MTEXTBEGIN
1070
    73
1070
     1
1070
    44
1040
1.0
1070
    74
1070
     0
1000
MTEXTEND
  0
LINE
  5
4CDE
330
1E
100
AcDbEntity
  8
DIM
 62
     1
100
AcDbLine
 10
2.193044624393273
 20
5.509408413058977
 30
0.0
 11
2.193044624393273
 21
5.455148504776894
 31
0.0
  0
MTEXT
  5
4CDF
330
1E
100
AcDbEntity
  8
DIM
 62
     7
100
AcDbMText
 10
2.599881397313171
 20
5.518760226127193
 30
0.0
 40
0.09
 41
0.0
 71
     5
 72
     1
  1
5\P[.197]
 73
     1
 44
1.0
1001
ACAD
1000
MTEXTBEGIN
1070
    73
1070
     1
1070
    44
1040
1.0
1070
    74
1070
     0
1000
MTEXTEND
  0
SOLID
  5
4CE0
330
1E
100
AcDbEntity
  8
DIM
 62
     1
100
AcDbTrace
 10
6.59157562605046
 20
5.471210949715672
 30
0.0
 11
6.641575626050461
 21
5.471210949715672
 31
0.0
 12
6.616575626050461
 22
5.621210949715672
 32
0.0
 13
6.616575626050461
 23
5.621210949715672
 33
0.0
  0
LINE
  5
4CE1
330
1E
100
AcDbEntity
  8
DIM
 62
     1
100
AcDbLine
 10
4.876921372993562
 20
5.811571517463288
 30
0.0
 11
4.876921372993562
 21
4.914748670116729
 31
0.0
  0
LINE
  5
4CE2
330
1E
100
AcDbEntity
  8
DIM
 62
     1
100
AcDbLine
 10
3.873422296452144
 20
5.811571517463288
 30
0.0
 11
3.873422296452144
 21
4.914748670116729
 31
0.0
  0
LINE
  5
4CE3
330
1E
100
AcDbEntity
  8
OBJECT
 62
     7
100
AcDbLine
 10
5.457686297304475
 20
5.3248975836825
 30
0.0
 11
5.457686297304475
 21
6.265197947607985
 31
0.0
  0
LINE
  5
4CE4
330
1E
100
AcDbEntity
  8
OBJECT
 62
     7
100
AcDbLine
 10
5.825105088894903
 20
5.97679325805408
 30
0.0
 11
5.825105088894903
 21
5.265652756941824
 31
0.0
  0
LINE
  5
4CE5
330
1E
100
AcDbEntity
  8
OBJECT
 62
     7
100
AcDbLine
 10
6.062151922598991
 20
5.403930076602534
 30
0.0
 11
6.062151922598991
 21
5.83851593839336
 31
0.0
  0
LINE
  5
4CE6
330
1E
100
AcDbEntity
  8
OBJECT
 62
     7
100
AcDbLine
 10
5.469534838338775
 20
5.226144951324481
 30
0.0
 11
5.469534838338775
 21
6.016301063671424
 31
0.0
  0
LINE
  5
4CE7
330
1E
100
AcDbEntity
  8
OBJECT
 62
     7
100
AcDbLine
 10
3.292664155631456
 20
5.364410213202921
 30
0.0
 11
3.292664155631456
 21
6.20197737927398
 31
0.0
  0
LINE
  5
4CE8
330
1E
100
AcDbEntity
  8
DIM
 62
     1
100
AcDbLine
 10
3.245153892575217
 20
5.226144951324481
 30
0.0
 11
1.356121740882457
 21
5.226144951324481
 31
0.0
  0
LINE
  5
4CE9
330
1E
100
AcDbEntity
  8
DIM
 62
     1
100
AcDbLine
 10
3.289425864057474
 20
5.305148504776894
 30
0.0
 11
2.130544624393273
 21
5.305148504776894
 31
0.0
  0
SOLID
  5
4CEA
330
1E
100
AcDbEntity
  8
DIM
 62
     1
100
AcDbTrace
 10
1.393621740882457
 20
5.376144951324482
 30
0.0
 11
1.443621740882457
 21
5.376144951324482
 31
0.0
 12
1.418621740882457
 22
5.226144951324481
 32
0.0
 13
1.418621740882457
 23
5.226144951324481
 33
0.0
  0
LINE
  5
4CEB
330
1E
100
AcDbEntity
  8
DIM
 62
     1
100
AcDbLine
 10
1.418621740882457
 20
5.376144951324482
 30
0.0
 11
1.418621740882457
 21
5.486223007497954
 31
0.0
  0
SOLID
  5
4CEC
330
1E
100
AcDbEntity
  8
DIM
 62
     1
100
AcDbTrace
 10
2.168044624393273
 20
5.455148504776894
 30
0.0
 11
2.218044624393273
 21
5.455148504776894
 31
0.0
 12
2.193044624393273
 22
5.305148504776894
 32
0.0
 13
2.193044624393273
 23
5.305148504776894
 33
0.0
  0
LINE
  5
4CED
330
1E
100
AcDbEntity
  8
DIM
100
AcDbLine
 10
5.618673704193071
 20
4.949914276414624
 30
0.0
 11
6.010079858926147
 21
4.949914276414624
 31
0.0
1001
ACAD
1000
DSTYLE
1002
{
1070
   147
1040
0.09
1070
    77
1070
     0
1002
}
  0
MTEXT
  5
4CEE
330
1E
100
AcDbEntity
  8
DIM
 62
     7
100
AcDbMText
 10
5.795109626353359
 20
4.554285535896831
 30
0.0
 40
0.09
 41
0.0
 71
     5
 72
     1
  1
15\P[.59]
 73
     1
 44
1.0
1001
ACAD
1000
MTEXTBEGIN
1070
    73
1070
     1
1070
    44
1040
1.0
1070
    74
1070
     0
1000
MTEXTEND
  0
LINE
  5
4CEF
330
1E
100
AcDbEntity
  8
OBJECT
 62
     7
100
AcDbLine
 10
5.469534838338775
 20
5.226144951324481
 30
0.0
 11
5.785597283277564
 21
5.226144951324481
 31
0.0
  0
LINE
  5
4CF0
330
1E
100
AcDbEntity
  8
DIM
 62
     1
100
AcDbLine
 10
4.816713283427795
 20
5.226144951324481
 30
0.0
 11
3.926626523472734
 21
5.226144951324481
 31
0.0
  0
MTEXT
  5
4CF1
330
1E
100
AcDbEntity
  8
DIM
 62
     7
100
AcDbMText
 10
4.375171834722853
 20
4.977248670116729
 30
0.0
 40
0.09
 41
0.0
 71
     5
 72
     1
  1
25.4%%P0.15\P[1.00±0.59]
 73
     1
 44
1.0
1001
ACAD
1000
MTEXTBEGIN
1070
    73
1070
     1
1070
    44
1040
1.0
1070
    74
1070
     0
1000
MTEXTEND
  0
MTEXT
  5
4CF2
330
1E
100
AcDbEntity
  8
DIM
 62
     7
100
AcDbMText
 10
4.375177184079733
 20
4.55364773104624
 30
0.0
 40
0.09
 41
0.0
 71
     5
 72
     1
  1
55\P[2.165]
 73
     1
 44
1.0
1001
ACAD
1000
MTEXTBEGIN
1070
    73
1070
     1
1070
    44
1040
1.0
1070
    74
1070
     0
1000
MTEXTEND
  0
LINE
  5
4CF3
330
1E
100
AcDbEntity
  8
OBJECT
 62
     7
100
AcDbLine
 10
3.351925864057474
 20
5.305148504776894
 30
0.0
 11
5.43793630971934
 21
5.305148504776894
 31
0.0
  0
LINE
  5
4CF4
330
1E
100
AcDbEntity
  8
DIM
 62
     1
100
AcDbLine
 10
3.292664155631452
 20
5.301910213202921
 30
0.0
 11
3.292664155631452
 21
4.49114773104624
 31
0.0
  0
LINE
  5
4CF5
330
1E
100
AcDbEntity
  8
DIM
 62
     1
100
AcDbLine
 10
3.442664155631453
 20
4.55364773104624
 30
0.0
 11
4.111837113117118
 21
4.55364773104624
 31
0.0
  0
SOLID
  5
4CF6
330
1E
100
AcDbEntity
  8
DIM
 62
     1
100
AcDbTrace
 10
3.442664155631453
 20
4.57864773104624
 30
0.0
 11
3.442664155631453
 21
4.528647731046239
 31
0.0
 12
3.292664155631452
 22
4.55364773104624
 32
0.0
 13
3.292664155631452
 23
4.55364773104624
 33
0.0
  0
LINE
  5
4CF7
330
1E
100
AcDbEntity
  8
DIM
 62
     1
100
AcDbLine
 10
3.810729813999927
 20
5.226144951324481
 30
0.0
 11
3.337871260153463
 21
5.226144951324481
 31
0.0
  0
LINE
  5
4CF8
330
1E
100
AcDbEntity
  8
DIM
 62
     1
100
AcDbLine
 10
3.723422296452143
 20
4.977248670116729
 30
0.0
 11
3.573422296452143
 21
4.977248670116729
 31
0.0
  0
ARC
  5
4CF9
330
1E
100
AcDbEntity
  8
OBJECT
 62
     7
100
AcDbCircle
 10
3.351925864057474
 20
5.364410213202921
 30
0.0
 40
0.0592617084260211
100
AcDbArc
 50
180.0
 51
270.0
  0
SOLID
  5
4CFA
330
1E
100
AcDbEntity
  8
DIM
 62
     1
100
AcDbTrace
 10
3.723422296452143
 20
5.002248670116729
 30
0.0
 11
3.723422296452143
 21
4.952248670116729
 31
0.0
 12
3.873422296452144
 22
4.977248670116729
 32
0.0
 13
3.873422296452144
 23
4.977248670116729
 33
0.0
  0
LINE
  5
4CFB
330
1E
100
AcDbEntity
  8
DIM
 62
     1
100
AcDbLine
 10
5.457690212528009
 20
5.262402407585567
 30
0.0
 11
5.457690212528009
 21
4.491785535896831
 31
0.0
  0
LINE
  5
4CFC
330
1E
100
AcDbEntity
  8
DIM
 62
     1
100
AcDbLine
 10
5.457690212528014
 20
5.262402407585567
 30
0.0
 11
5.457690212528014
 21
4.49114773104624
 31
0.0
  0
LINE
  5
4CFD
330
1E
100
AcDbEntity
  8
DIM
 62
     1
100
AcDbLine
 10
5.307690212528013
 20
4.55364773104624
 30
0.0
 11
4.638517203035855
 21
4.55364773104624
 31
0.0
  0
SOLID
  5
4CFE
330
1E
100
AcDbEntity
  8
DIM
 62
     1
100
AcDbTrace
 10
5.307690212528013
 20
4.57864773104624
 30
0.0
 11
5.307690212528013
 21
4.528647731046239
 31
0.0
 12
5.457690212528014
 22
4.55364773104624
 32
0.0
 13
5.457690212528014
 23
4.55364773104624
 33
0.0
  0
LINE
  5
4CFF
330
1E
100
AcDbEntity
  8
DIM
 62
     1
100
AcDbLine
 10
5.407034838338775
 20
5.226144951324481
 30
0.0
 11
4.965061050750392
 21
5.226144951324481
 31
0.0
  0
SOLID
  5
4D00
330
1E
100
AcDbEntity
  8
DIM
 62
     1
100
AcDbTrace
 10
5.026921372993562
 20
5.002248670116729
 30
0.0
 11
5.026921372993562
 21
4.952248670116729
 31
0.0
 12
4.876921372993562
 22
4.977248670116729
 32
0.0
 13
4.876921372993562
 23
4.977248670116729
 33
0.0
  0
LINE
  5
4D01
330
1E
100
AcDbEntity
  8
DIM
100
AcDbLine
 10
5.488106814035245
 20
5.132861692316096
 30
0.0
 11
5.618673704193071
 21
4.949914276414624
 31
0.0
1001
ACAD
1000
DSTYLE
1002
{
1070
   147
1040
0.09
1070
    77
1070
     0
1002
}
  0
LINE
  5
4D02
330
1E
100
AcDbEntity
  8
DIM
 62
     1
100
AcDbLine
 10
5.026921372993562
 20
4.977248670116729
 30
0.0
 11
5.176921372993562
 21
4.977248670116729
 31
0.0
  0
ARC
  5
4D03
330
1E
100
AcDbEntity
  8
OBJECT
 62
     7
100
AcDbCircle
 10
5.43793630971934
 20
5.324902407585567
 30
0.0
 40
0.0197539028086737
100
AcDbArc
 50
270.0
 51
0.0
  0
LINE
  5
4D04
330
1E
100
AcDbEntity
  8
OBJECT
 62
     7
100
AcDbLine
 10
5.469534838338775
 20
5.336747637865762
 30
0.0
 11
5.457690212528009
 21
5.324902407585567
 31
0.0
  0
MTEXT
  5
4D05
330
1E
100
AcDbEntity
  8
DIM
 62
     7
100
AcDbMText
 10
7.084436017683608
 20
4.887934585158308
 30
0.0
 40
0.09
 41
0.0
 71
     5
 72
     1
  1
TOW 4.3±0.1\P[.169±.039]\PMOUNTING HOLES
 73
     1
 44
1.0
1001
ACAD
1000
MTEXTBEGIN
1070
    73
1070
     1
1070
    44
1040
1.0
1070
    74
1070
     0
1000
MTEXTEND
  0
LINE
  5
4D06
330
1E
100
AcDbEntity
  8
DIM
 62
     1
100
AcDbLine
 10
6.062151922598991
 20
5.341430076602534
 30
0.0
 11
6.062151922598991
 21
4.491785535896831
 31
0.0
  0
LINE
  5
4D07
330
1E
100
AcDbEntity
  8
DIM
 62
     1
100
AcDbLine
 10
6.368102512981336
 20
4.554285535896831
 30
0.0
 11
6.212151922598991
 21
4.554285535896831
 31
0.0
  0
SOLID
  5
4D08
330
1E
100
AcDbEntity
  8
DIM
 62
     1
100
AcDbTrace
 10
6.212151922598991
 20
4.579285535896831
 30
0.0
 11
6.212151922598991
 21
4.52928553589683
 31
0.0
 12
6.062151922598991
 22
4.554285535896831
 32
0.0
 13
6.062151922598991
 23
4.554285535896831
 33
0.0
  0
LINE
  5
4D09
330
1E
100
AcDbEntity
  8
DIM
100
AcDbLine
 10
6.122761059503979
 20
4.949914276414624
 30
0.0
 11
6.641499317422564
 21
4.949914276414624
 31
0.0
1001
ACAD
1000
DSTYLE
1002
{
1070
   147
1040
0.09
1070
    77
1070
     0
1002
}
  0
LINE
  5
4D0A
330
1E
100
AcDbEntity
  8
OBJECT
 62
     7
100
AcDbLine
 10
5.825105088894903
 20
5.384176173793861
 30
0.0
 11
6.04239801979031
 21
5.384176173793861
 31
0.0
  0
ARC
  5
4D0B
330
1E
100
AcDbEntity
  8
OBJECT
 62
     7
100
AcDbCircle
 10
5.785597283277564
 20
5.265652756941824
 30
0.0
 40
0.0395078056173474
100
AcDbArc
 50
270.0
 51
0.0
  0
ARC
  5
4D0C
330
1E
100
AcDbEntity
  8
OBJECT
 62
     7
100
AcDbCircle
 10
6.04239801979031
 20
5.403930076602534
 30
0.0
 40
0.0197539028086737
100
AcDbArc
 50
270.0
 51
0.0
  0
LINE
  5
4D0D
330
1E
100
AcDbEntity
  8
DIM
 62
     1
100
AcDbLine
 10
6.616575626050461
 20
5.471210949715672
 30
0.0
 11
6.616575626050461
 21
5.321210949715672
 31
0.0
  0
MTEXT
  5
4D0E
330
1E
100
AcDbEntity
  8
DIM
 62
     7
100
AcDbMText
 10
7.68748094657316
 20
4.964362859279077
 30
0.0
 40
0.09
 41
0.0
 71
     5
 72
     1
  1
DIA
 73
     1
 44
1.0
1001
ACAD
1000
MTEXTBEGIN
1070
    73
1070
     1
1070
    44
1040
1.0
1070
    74
1070
     0
1000
MTEXTEND
  0
LINE
  5
4D0F
330
1E
100
AcDbEntity
  8
DIM
 62
     1
100
AcDbLine
 10
3.608407175791139
 20
6.016301063671424
 30
0.0
 11
2.132952482717755
 21
6.016301063671424
 31
0.0
  0
LINE
  5
4D10
330
1E
100
AcDbEntity
  8
DIM
 62
     1
100
AcDbLine
 10
3.36836399476757
 20
6.903674257854255
 30
0.0
 11
2.132952482717755
 21
6.903674257854255
 31
0.0
  0
LINE
  5
4D11
330
1E
100
AcDbEntity
  8
DIM
 62
     1
100
AcDbLine
 10
3.608407175791139
 20
6.016301063671424
 30
0.0
 11
1.356121740882457
 21
6.016301063671425
 31
0.0
  0
LINE
  5
4D12
330
1E
100
AcDbEntity
  8
DIM
 62
     1
100
AcDbLine
 10
3.608407175791139
 20
6.016301063671424
 30
0.0
 11
2.130544624393273
 21
6.016301063671424
 31
0.0
  0
LINE
  5
4D13
330
1E
100
AcDbEntity
  8
DIM
 62
     1
100
AcDbLine
 10
3.257813017809278
 20
5.818760226127192
 30
0.0
 11
2.807381397313172
 21
5.818760226127192
 31
0.0
  0
LINE
  5
4D14
330
1E
100
AcDbEntity
  8
DIM
 62
     1
100
AcDbLine
 10
3.608407175791139
 20
6.016301063671424
 30
0.0
 11
2.807381397313172
 21
6.016301063671424
 31
0.0
  0
LINE
  5
4D15
330
1E
100
AcDbEntity
  8
DIM
 62
     1
100
AcDbLine
 10
3.608407175791139
 20
6.016301063671424
 30
0.0
 11
2.808771478622169
 21
6.016301063671424
 31
0.0
  0
LINE
  5
4D16
330
1E
100
AcDbEntity
  8
DIM
 62
     1
100
AcDbLine
 10
3.608407175791139
 20
6.016301063671424
 30
0.0
 11
2.128042384425405
 21
6.016301063671425
 31
0.0
  0
MTEXT
  5
4D17
330
1E
100
AcDbEntity
  8
DIM
 62
     7
100
AcDbMText
 10
1.707668473909988
 20
5.693370919396841
 30
0.0
 40
0.09
 41
0.0
 71
     5
 72
     1
  1
MAX
 73
     1
 44
1.0
1001
ACAD
1000
MTEXTBEGIN
1070
    73
1070
     1
1070
    44
1040
1.0
1070
    74
1070
     0
1000
MTEXTEND
  0
SOLID
  5
4D18
330
1E
100
AcDbEntity
  8
DIM
 62
     1
100
AcDbTrace
 10
1.393621740882457
 20
5.866301063671425
 30
0.0
 11
1.443621740882457
 21
5.866301063671425
 31
0.0
 12
1.418621740882457
 22
6.016301063671425
 32
0.0
 13
1.418621740882457
 23
6.016301063671425
 33
0.0
  0
LINE
  5
4D19
330
1E
100
AcDbEntity
  8
DIM
 62
     1
100
AcDbLine
 10
1.418621740882457
 20
5.866301063671425
 30
0.0
 11
1.418621740882457
 21
5.756223007497953
 31
0.0
  0
MTEXT
  5
4D1A
330
1E
100
AcDbEntity
  8
DIM
 62
     7
100
AcDbMText
 10
2.195452482717754
 20
6.45998766076284
 30
0.0
 40
0.09
 41
0.0
 71
     5
 72
     1
  1
22.5\P[.886]
 73
     1
 44
1.0
1001
ACAD
1000
MTEXTBEGIN
1070
    73
1070
     1
1070
    44
1040
1.0
1070
    74
1070
     0
1000
MTEXTEND
  0
MTEXT
  5
4D1B
330
1E
100
AcDbEntity
  8
DIM
 62
     7
100
AcDbMText
 10
2.190006520773414
 20
5.669209087999314
 30
0.0
 40
0.09
 41
0.0
 71
     5
 72
     1
  1
18.3\P[.720]
 73
     1
 44
1.0
1001
ACAD
1000
MTEXTBEGIN
1070
    73
1070
     1
1070
    44
1040
1.0
1070
    74
1070
     0
1000
MTEXTEND
  0
SOLID
  5
4D1C
330
1E
100
AcDbEntity
  8
DIM
 62
     1
100
AcDbTrace
 10
2.168044624393273
 20
5.866301063671424
 30
0.0
 11
2.218044624393273
 21
5.866301063671424
 31
0.0
 12
2.193044624393273
 22
6.016301063671424
 32
0.0
 13
2.193044624393273
 23
6.016301063671424
 33
0.0
  0
LINE
  5
4D1D
330
1E
100
AcDbEntity
  8
DIM
 62
     1
100
AcDbLine
 10
2.193044624393273
 20
5.866301063671424
 30
0.0
 11
2.193044624393273
 21
5.805803684920697
 31
0.0
  0
SOLID
  5
4D1E
330
1E
100
AcDbEntity
  8
DIM
 62
     1
100
AcDbTrace
 10
2.170452482717754
 20
6.166301063671424
 30
0.0
 11
2.220452482717755
 21
6.166301063671424
 31
0.0
 12
2.195452482717755
 22
6.016301063671424
 32
0.0
 13
2.195452482717755
 23
6.016301063671424
 33
0.0
  0
LINE
  5
4D1F
330
1E
100
AcDbEntity
  8
DIM
 62
     1
100
AcDbLine
 10
2.195452482717755
 20
6.166301063671424
 30
0.0
 11
2.195452482717755
 21
6.244535350616317
 31
0.0
  0
SOLID
  5
4D20
330
1E
100
AcDbEntity
  8
DIM
 62
     1
100
AcDbTrace
 10
2.844881397313171
 20
5.668760226127192
 30
0.0
 11
2.894881397313172
 21
5.668760226127192
 31
0.0
 12
2.869881397313172
 22
5.818760226127192
 32
0.0
 13
2.869881397313172
 23
5.818760226127192
 33
0.0
  0
LINE
  5
4D21
330
1E
100
AcDbEntity
  8
DIM
 62
     1
100
AcDbLine
 10
2.869881397313172
 20
5.518760226127192
 30
0.0
 11
2.719881397313171
 21
5.518760226127192
 31
0.0
  0
LINE
  5
4D22
330
1E
100
AcDbEntity
  8
DIM
 62
     1
100
AcDbLine
 10
2.869881397313172
 20
5.668760226127192
 30
0.0
 11
2.869881397313172
 21
5.518760226127192
 31
0.0
  0
SOLID
  5
4D23
330
1E
100
AcDbEntity
  8
DIM
 62
     1
100
AcDbTrace
 10
2.844881397313171
 20
6.170645714934989
 30
0.0
 11
2.894881397313172
 21
6.170645714934989
 31
0.0
 12
2.869881397313172
 22
6.020645714934989
 32
0.0
 13
2.869881397313172
 23
6.020645714934989
 33
0.0
  0
LINE
  5
4D24
330
1E
100
AcDbEntity
  8
DIM
 62
     1
100
AcDbLine
 10
2.869881397313172
 20
6.170645714934989
 30
0.0
 11
2.869881397313172
 21
6.320645714934989
 31
0.0
  0
SOLID
  5
4D25
330
1E
100
AcDbEntity
  8
DIM
 62
     1
100
AcDbTrace
 10
2.170452482717754
 20
6.753674257854255
 30
0.0
 11
2.220452482717755
 21
6.753674257854255
 31
0.0
 12
2.195452482717755
 22
6.903674257854255
 32
0.0
 13
2.195452482717755
 23
6.903674257854255
 33
0.0
  0
LINE
  5
4D26
330
1E
100
AcDbEntity
  8
DIM
 62
     1
100
AcDbLine
 10
2.195452482717755
 20
6.753674257854255
 30
0.0
 11
2.195452482717755
 21
6.645270354604416
 31
0.0
  0
LINE
  5
4D27
330
1E
100
AcDbEntity
  8
DIM
 62
     1
100
AcDbLine
 10
4.876921372993562
 20
7.223499163997189
 30
0.0
 11
4.876921372993562
 21
7.916170404666154
 31
0.0
  0
LINE
  5
4D28
330
1E
100
AcDbEntity
  8
DIM
 62
     1
100
AcDbLine
 10
5.430030951895744
 20
8.084309653835898
 30
0.0
 11
5.430030951895744
 21
8.527996603302607
 31
0.0
  0
MTEXT
  5
4D29
330
1E
100
AcDbEntity
  8
DIM
 62
     7
100
AcDbMText
 10
4.198892683880565
 20
8.912556679940262
 30
0.0
 40
0.09
 41
0.0
 71
     5
 72
     1
  1
34.6\P[1.362]
 73
     1
 44
1.0
1001
ACAD
1000
MTEXTBEGIN
1070
    73
1070
     1
1070
    44
1040
1.0
1070
    74
1070
     0
1000
MTEXTEND
  0
LINE
  5
4D2A
330
1E
100
AcDbEntity
  8
DIM
 62
     1
100
AcDbLine
 10
3.520863994767569
 20
7.056174257854255
 30
0.0
 11
3.520863994767569
 21
8.975056679940262
 31
0.0
  0
LINE
  5
4D2B
330
1E
100
AcDbEntity
  8
DIM
 62
     1
100
AcDbLine
 10
3.320313017809278
 20
6.454122807060077
 30
0.0
 11
3.320313017809278
 21
9.325257455647154
 31
0.0
  0
LINE
  5
4D30
330
1E
100
AcDbEntity
  8
DIM
 62
     1
100
AcDbLine
 10
5.712607963347508
 20
8.91405084750157
 30
0.0
 11
5.580030951895748
 21
8.91405084750157
 31
0.0
  0
LINE
  5
4D31
330
1E
100
AcDbEntity
  8
DIM
 62
     1
100
AcDbLine
 10
5.158154207606877
 20
6.016301063671424
 30
0.0
 11
7.215534857924559
 21
6.016301063671424
 31
0.0
  0
LINE
  5
4D32
330
1E
100
AcDbEntity
  8
DIM
 62
     1
100
AcDbLine
 10
5.374417746285594
 20
6.804638723399365
 30
0.0
 11
5.968104208962238
 21
6.804638723399364
 31
0.0
  0
LINE
  5
4D33
330
1E
100
AcDbEntity
  8
OBJECT
 62
     7
100
AcDbLine
 10
5.469534838338775
 20
6.016301063671424
 30
0.0
 11
5.785597283277564
 21
6.016301063671424
 31
0.0
  0
LINE
  5
4D34
330
1E
100
AcDbEntity
  8
CENTER
 62
     3
100
AcDbLine
 10
6.130341509814781
 20
5.621210949715672
 30
0.0
 11
5.235506831314033
 21
5.621210949715672
 31
0.0
  0
LINE
  5
4D39
330
1E
100
AcDbEntity
  8
DIM
 62
     1
100
AcDbLine
 10
5.430030951895744
 20
7.174276724418202
 30
0.0
 11
5.430030951895744
 21
7.280408764514486
 31
0.0
  0
LINE
  5
4D3A
330
1E
100
AcDbEntity
  8
DIM
 62
     1
100
AcDbLine
 10
5.430030951895749
 20
7.174276724418202
 30
0.0
 11
5.430030951895748
 21
7.307658722136178
 31
0.0
  0
LINE
  5
4D3B
330
1E
100
AcDbEntity
  8
CENTER
 62
     3
100
AcDbLine
 10
3.956389683845273
 20
7.424929519441526
 30
0.0
 11
3.956389683845273
 21
6.553352157674286
 31
0.0
  0
LINE
  5
4D3C
330
1E
100
AcDbEntity
  8
OBJECT
 62
     7
100
AcDbLine
 10
5.411346908064373
 20
6.411376709868751
 30
0.0
 11
3.340066920617953
 21
6.411376709868751
 31
0.0
  0
LINE
  5
4D3D
330
1E
100
AcDbEntity
  8
OBJECT
 62
     7
100
AcDbLine
 10
5.237422156079265
 20
6.727602987609005
 30
0.0
 11
3.498184281092739
 21
6.727602987609005
 31
0.0
  0
LINE
  5
4D3E
330
1E
100
AcDbEntity
  8
OBJECT
 62
     7
100
AcDbLine
 10
5.237422156079265
 20
6.43114198619085
 30
0.0
 11
3.498184281092739
 21
6.43114198619085
 31
0.0
  0
LINE
  5
4D3F
330
1E
100
AcDbEntity
  8
OBJECT
 62
     7
100
AcDbLine
 10
4.23842029323991
 20
6.806660460261918
 30
0.0
 11
4.604972019720523
 21
6.806660460261918
 31
0.0
  0
LINE
  5
4D41
330
1E
100
AcDbEntity
  8
OBJECT
 62
     7
100
AcDbLine
 10
4.269002182414729
 20
6.767132326739497
 30
0.0
 11
5.379722468320707
 21
6.767132326739497
 31
0.0
  0
LINE
  5
4D42
330
1E
100
AcDbEntity
  8
OBJECT
 62
     7
100
AcDbLine
 10
4.530535891836496
 20
7.023931593496744
 30
0.0
 11
4.332089715966654
 21
6.990917194371522
 31
0.0
  0
LINE
  5
4D43
330
1E
100
AcDbEntity
  8
OBJECT
 62
     7
100
AcDbLine
 10
3.738889960794518
 20
7.024064890268608
 30
0.0
 11
4.664264220004158
 21
7.024064890268608
 31
0.0
  0
LINE
  5
4D44
330
1E
100
AcDbEntity
  8
OBJECT
 62
     7
100
AcDbLine
 10
4.331978432412345
 20
6.806795563469483
 30
0.0
 11
4.530424912648811
 21
6.839808756986636
 31
0.0
  0
LINE
  5
4D45
330
1E
100
AcDbEntity
  8
OBJECT
 62
     7
100
AcDbLine
 10
4.528294579467942
 20
6.947335885565845
 30
0.0
 11
4.329737424410426
 21
6.903854997983382
 31
0.0
  0
LINE
  5
4D46
330
1E
100
AcDbEntity
  8
OBJECT
 62
     7
100
AcDbLine
 10
4.532777200252228
 20
6.926870957327588
 30
0.0
 11
4.334219744780895
 21
6.883389464964686
 31
0.0
  0
LINE
  5
4D47
330
1E
100
AcDbEntity
  8
OBJECT
 62
     7
100
AcDbLine
 10
4.526924222087799
 20
6.860463981565292
 30
0.0
 11
4.328675576206803
 21
6.826276150268326
 31
0.0
  0
LINE
  5
4D48
330
1E
100
AcDbEntity
  8
OBJECT
 62
     7
100
AcDbLine
 10
4.335590106113851
 20
6.970261669379047
 30
0.0
 11
4.53383874804204
 21
7.004450706284084
 31
0.0
  0
LINE
  5
4D49
330
1E
100
AcDbEntity
  8
OBJECT
 62
     7
100
AcDbLine
 10
3.320313017809278
 20
5.818760226127192
 30
0.0
 11
5.430030951895753
 21
5.818760226127192
 31
0.0
  0
LINE
  5
4D4A
330
1E
100
AcDbEntity
  8
OBJECT
 62
     7
100
AcDbLine
 10
4.120345931430906
 20
6.411376709868752
 30
0.0
 11
4.111117634982317
 21
5.857606414277769
 31
0.0
  0
LINE
  5
4D4B
330
1E
100
AcDbEntity
  8
OBJECT
 62
     7
100
AcDbLine
 10
3.320313017809278
 20
5.818760226127192
 30
0.0
 11
3.320313017809278
 21
6.391622807060077
 31
0.0
  0
LINE
  5
4D4C
330
1E
100
AcDbEntity
  8
OBJECT
 62
     7
100
AcDbLine
 10
3.626498511343726
 20
6.411376709868752
 30
0.0
 11
3.635726653711873
 21
5.857606414277769
 31
0.0
  0
LINE
  5
4D4D
330
1E
100
AcDbEntity
  8
CENTER
 62
     3
100
AcDbLine
 10
3.670907175791139
 20
6.016301063671424
 30
0.0
 11
4.074153612607346
 21
6.016301063671424
 31
0.0
  0
ARC
  5
4D4E
330
1E
100
AcDbEntity
  8
OBJECT
 62
     7
100
AcDbCircle
 10
3.675229789506591
 20
5.858268031744536
 30
0.0
 40
0.0395078056173474
100
AcDbArc
 50
180.9548035
 51
270.0
  0
LINE
  5
4D4F
330
1E
100
AcDbEntity
  8
OBJECT
 62
     7
100
AcDbLine
 10
3.292659481858056
 20
5.945187495555424
 30
0.0
 11
3.292659481858056
 21
6.265197947607985
 31
0.0
  0
LINE
  5
4D50
330
1E
100
AcDbEntity
  8
OBJECT
 62
     7
100
AcDbLine
 10
3.292659481858056
 20
5.943202943414432
 30
0.0
 11
3.320313017809278
 21
5.943202943414432
 31
0.0
  0
LINE
  5
4D51
330
1E
100
AcDbEntity
  8
OBJECT
 62
     7
100
AcDbLine
 10
3.292659481858056
 20
6.265197947607985
 30
0.0
 11
3.320313017809278
 21
6.265197947607985
 31
0.0
  0
CIRCLE
  5
4D52
330
1E
100
AcDbEntity
  8
OBJECT
 62
     7
100
AcDbCircle
 10
3.873422296452144
 20
6.016299254213926
 30
0.0
 40
0.1580312224693895
  0
CIRCLE
  5
4D53
330
1E
100
AcDbEntity
  8
OBJECT
 62
     7
100
AcDbCircle
 10
3.873422296452144
 20
6.016299254213926
 30
0.0
 40
0.1027202906543226
  0
CIRCLE
  5
4D54
330
1E
100
AcDbEntity
  8
OBJECT
 62
     7
100
AcDbCircle
 10
3.873422296452144
 20
6.016301063671424
 30
0.0
 40
0.1027202906543226
  0
CIRCLE
  5
4D55
330
1E
100
AcDbEntity
  8
OBJECT
 62
     7
100
AcDbCircle
 10
3.873422296452144
 20
6.016299254213926
 30
0.0
 40
0.0849417860280775
  0
LINE
  5
4D56
330
1E
100
AcDbEntity
  8
CENTER
 62
     3
100
AcDbLine
 10
3.873422296452144
 20
5.831974037427877
 30
0.0
 11
3.873422296452144
 21
6.221467925020766
 31
0.0
  0
ARC
  5
4D57
330
1E
100
AcDbEntity
  8
OBJECT
 62
     7
100
AcDbCircle
 10
4.071614653268031
 20
5.858268031744536
 30
0.0
 40
0.0395078056173474
100
AcDbArc
 50
270.0
 51
359.0451965
  0
LINE
  5
4D58
330
1E
100
AcDbEntity
  8
OBJECT
 62
     7
100
AcDbLine
 10
4.269002182414729
 20
6.767132326739497
 30
0.0
 11
3.646458207409305
 21
7.052787565777577
 31
0.0
  0
LINE
  5
4D5A
330
1E
100
AcDbEntity
  8
CENTER
 62
     3
100
AcDbLine
 10
3.517948347853952
 20
6.784351999168377
 30
0.0
 11
3.517948347853952
 21
7.028952832534031
 31
0.0
  0
LINE
  5
4D5E
330
1E
100
AcDbEntity
  8
OBJECT
 62
     7
100
AcDbLine
 10
3.458656147570319
 20
6.767122673969295
 30
0.0
 11
3.351015023806844
 21
6.767122673969295
 31
0.0
  0
LINE
  5
4D5F
330
1E
100
AcDbEntity
  8
OBJECT
 62
     7
100
AcDbLine
 10
3.340071747003057
 20
6.411379725865337
 30
0.0
 11
3.340071747003057
 21
6.680169950746945
 31
0.0
  0
ARC
  5
4D60
330
1E
100
AcDbEntity
  8
OBJECT
 62
     7
100
AcDbCircle
 10
3.340066920617953
 20
6.391622807060077
 30
0.0
 40
0.0197539028086737
100
AcDbArc
 50
90.0
 51
180.0
  0
LINE
  5
4D62
330
1E
100
AcDbEntity
  8
OBJECT
 62
     7
100
AcDbLine
 10
3.478425036763818
 20
6.450906052952062
 30
0.0
 11
3.478420214331531
 21
6.707838920847796
 31
0.0
  0
LINE
  5
4D63
330
1E
100
AcDbEntity
  8
OBJECT
 62
     7
100
AcDbLine
 10
3.458656147570319
 20
6.411370077047951
 30
0.0
 11
3.458656147570319
 21
6.767122673969295
 31
0.0
  0
ARC
  5
4D64
330
1E
100
AcDbEntity
  8
OBJECT
 62
     7
100
AcDbCircle
 10
3.49818910352503
 20
6.450906052952062
 30
0.0
 40
0.0197640667612105
100
AcDbArc
 50
180.0009002999999
 51
270.0
  0
ARC
  5
4D65
330
1E
100
AcDbEntity
  8
OBJECT
 62
     7
100
AcDbCircle
 10
3.498184281092739
 20
6.707838920847796
 30
0.0
 40
0.0197640667612105
100
AcDbArc
 50
90.0
 51
180.0009002999999
  0
LINE
  5
4D6D
330
1E
100
AcDbEntity
  8
CENTER
 62
     3
100
AcDbLine
 10
3.407727847359979
 20
6.905480489701343
 30
0.0
 11
3.634261580453419
 21
6.905480489701343
 31
0.0
  0
ARC
  5
4D70
330
1E
100
AcDbEntity
  8
OBJECT
 62
     7
100
AcDbCircle
 10
3.597004614898793
 20
6.945008623223768
 30
0.0
 40
0.1185844005672628
100
AcDbArc
 50
65.35111239999995
 51
90.0
  0
LINE
  5
4D71
330
1E
100
AcDbEntity
  8
OBJECT
 62
     7
100
AcDbLine
 10
3.752130339974508
 20
7.004300823507396
 30
0.0
 11
4.154350028711844
 21
7.004300823507396
 31
0.0
  0
ARC
  5
4D73
330
1E
100
AcDbEntity
  8
OBJECT
 62
     7
100
AcDbCircle
 10
3.739107096737587
 20
6.984536756746187
 30
0.0
 40
0.039528133522421
100
AcDbArc
 50
90.0
 51
119.0655975
  0
LINE
  5
4D75
330
1E
100
AcDbEntity
  8
OBJECT
 62
     7
100
AcDbLine
 10
4.33472639267951
 20
7.024064890268608
 30
0.0
 11
4.330147263957226
 21
6.806660460261918
 31
0.0
  0
LINE
  5
4D76
330
1E
100
AcDbEntity
  8
OBJECT
 62
     7
100
AcDbLine
 10
4.340029297337835
 20
6.806660460261918
 30
0.0
 11
4.344608426060108
 21
7.024064890268608
 31
0.0
  0
LINE
  5
4D77
330
1E
100
AcDbEntity
  8
OBJECT
 62
     7
100
AcDbLine
 10
4.3248443592989
 20
7.024064890268608
 30
0.0
 11
4.320265230576627
 21
6.806660460261918
 31
0.0
  0
ARC
  5
4D78
330
1E
100
AcDbEntity
  8
OBJECT
 62
     7
100
AcDbCircle
 10
4.154350028711844
 20
6.964772689984975
 30
0.0
 40
0.039528133522421
100
AcDbArc
 50
15.16388990000005
 51
90.0
  0
CIRCLE
  5
4D79
330
1E
100
AcDbEntity
  8
OBJECT
 62
     7
100
AcDbCircle
 10
4.331978432412345
 20
6.893623136668291
 30
0.0
 40
0.0104749553834416
  0
LINE
  5
4D7A
330
1E
100
AcDbEntity
  8
OBJECT
 62
     7
100
AcDbLine
 10
4.192488803680332
 20
6.975168608865438
 30
0.0
 11
4.23842029323991
 21
6.806660460261918
 31
0.0
  0
CIRCLE
  5
4D7B
330
1E
100
AcDbEntity
  8
OBJECT
 62
     7
100
AcDbCircle
 10
4.3303547510829
 20
6.816540078473568
 30
0.0
 40
0.0098794008069126
  0
CIRCLE
  5
4D7C
330
1E
100
AcDbEntity
  8
OBJECT
 62
     7
100
AcDbCircle
 10
4.33380960086747
 20
6.980584307052775
 30
0.0
 40
0.0104749553834416
  0
LINE
  5
4D7E
330
1E
100
AcDbEntity
  8
DIM
 62
     1
100
AcDbLine
 10
4.876921372993562
 20
6.283967925020769
 30
0.0
 11
4.876921372993562
 21
7.063749047398281
 31
0.0
  0
LINE
  5
4D7F
330
1E
100
AcDbEntity
  8
OBJECT
 62
     7
100
AcDbLine
 10
5.430030951895744
 20
5.818760226127192
 30
0.0
 11
5.430030951895744
 21
6.391622807060077
 31
0.0
  0
LINE
  5
4D80
330
1E
100
AcDbEntity
  8
OBJECT
 62
     7
100
AcDbLine
 10
4.639225580123628
 20
5.857606414277769
 30
0.0
 11
4.629997587885143
 21
6.411376709868752
 31
0.0
  0
LINE
  5
4D81
330
1E
100
AcDbEntity
  8
OBJECT
 62
     7
100
AcDbLine
 10
5.123845158101982
 20
6.411376709868752
 30
0.0
 11
5.114614451677253
 21
5.857544019600352
 31
0.0
  0
SOLID
  5
4D82
330
1E
100
AcDbEntity
  8
DIM
100
AcDbTrace
 10
4.992410004868211
 20
5.784385423033802
 30
0.0
 11
4.925621933661268
 21
5.921002967823834
 31
0.0
 12
5.0331082317619
 22
5.813431151251732
 32
0.0
 13
5.0331082317619
 23
5.813431151251732
 33
0.0
1001
ACAD
1000
DSTYLE
1002
{
1070
   147
1040
0.09
1070
    77
1070
     0
1002
}
  0
LINE
  5
4D83
330
1E
100
AcDbEntity
  8
CENTER
 62
     3
100
AcDbLine
 10
4.669905923252064
 20
6.016301063671424
 30
0.0
 11
5.095654207606877
 21
6.016301063671424
 31
0.0
  0
CIRCLE
  5
4D84
330
1E
100
AcDbEntity
  8
OBJECT
 62
     7
100
AcDbCircle
 10
4.876921372993562
 20
6.016299254213926
 30
0.0
 40
0.1580312224693895
  0
CIRCLE
  5
4D85
330
1E
100
AcDbEntity
  8
OBJECT
 62
     7
100
AcDbCircle
 10
4.876921372993562
 20
6.016299254213926
 30
0.0
 40
0.0849417860280775
  0
CIRCLE
  5
4D86
330
1E
100
AcDbEntity
  8
OBJECT
 62
     7
100
AcDbCircle
 10
4.876921372993562
 20
6.016299254213926
 30
0.0
 40
0.1027202906543226
  0
CIRCLE
  5
4D87
330
1E
100
AcDbEntity
  8
OBJECT
 62
     7
100
AcDbCircle
 10
4.876921372993562
 20
6.016301063671424
 30
0.0
 40
0.1027202906543226
  0
LINE
  5
4D88
330
1E
100
AcDbEntity
  8
CENTER
 62
     3
100
AcDbLine
 10
4.876921372993562
 20
5.831974037427877
 30
0.0
 11
4.876921372993562
 21
6.221467925020769
 31
0.0
  0
ARC
  5
4D89
330
1E
100
AcDbEntity
  8
OBJECT
 62
     7
100
AcDbCircle
 10
4.678728866048013
 20
5.858268031744536
 30
0.0
 40
0.0395078056173474
100
AcDbArc
 50
180.9548035
 51
270.0
  0
LINE
  5
4D8A
330
1E
100
AcDbEntity
  8
OBJECT
 62
     7
100
AcDbLine
 10
5.457690212528009
 20
6.20197737927398
 30
0.0
 11
5.457690212528009
 21
5.917519491845784
 31
0.0
  0
ARC
  5
4D8B
330
1E
100
AcDbEntity
  8
OBJECT
 62
     7
100
AcDbCircle
 10
5.075113879939111
 20
5.858268031744536
 30
0.0
 40
0.0395078056173474
100
AcDbArc
 50
270.0
 51
359.0451049999998
  0
LINE
  5
4D8C
330
1E
100
AcDbEntity
  8
OBJECT
 62
     7
100
AcDbLine
 10
5.457690212528009
 20
5.917519491845784
 30
0.0
 11
5.469534838338775
 21
5.905677279961935
 31
0.0
  0
LINE
  5
4D8D
330
1E
100
AcDbEntity
  8
OBJECT
 62
     7
100
AcDbLine
 10
5.430030951895744
 20
5.943202943414432
 30
0.0
 11
5.457686297304475
 21
5.943202943414432
 31
0.0
  0
LINE
  5
4D8E
330
1E
100
AcDbEntity
  8
OBJECT
 62
     7
100
AcDbLine
 10
5.430030951895744
 20
6.265197947607985
 30
0.0
 11
5.457686297304475
 21
6.265197947607985
 31
0.0
  0
LINE
  5
4D90
330
1E
100
AcDbEntity
  8
OBJECT
 62
     7
100
AcDbLine
 10
4.604972019720523
 20
6.806660460261918
 30
0.0
 11
4.624736086481737
 21
6.767132326739497
 31
0.0
  0
LINE
  5
4D92
330
1E
100
AcDbEntity
  8
OBJECT
 62
     7
100
AcDbLine
 10
4.532367060291612
 20
7.024064890268608
 30
0.0
 11
4.527787931569333
 21
6.806660460261918
 31
0.0
  0
LINE
  5
4D93
330
1E
100
AcDbEntity
  8
OBJECT
 62
     7
100
AcDbLine
 10
4.537669964949941
 20
6.806660460261918
 30
0.0
 11
4.542249093672214
 21
7.024064890268608
 31
0.0
  0
LINE
  5
4D94
330
1E
100
AcDbEntity
  8
OBJECT
 62
     7
100
AcDbLine
 10
4.522485026911008
 20
7.024064890268608
 30
0.0
 11
4.517905898188724
 21
6.806660460261918
 31
0.0
  0
CIRCLE
  5
4D95
330
1E
100
AcDbEntity
  8
OBJECT
 62
     7
100
AcDbCircle
 10
4.532159573165937
 20
7.014185272056958
 30
0.0
 40
0.0098794008069126
  0
CIRCLE
  5
4D96
330
1E
100
AcDbEntity
  8
OBJECT
 62
     7
100
AcDbCircle
 10
4.528705023795188
 20
6.850141648258197
 30
0.0
 40
0.0104749553834416
  0
CIRCLE
  5
4D97
330
1E
100
AcDbEntity
  8
OBJECT
 62
     7
100
AcDbCircle
 10
4.530535891836496
 20
6.937102818642681
 30
0.0
 40
0.0104749553834416
  0
ARC
  5
4D9B
330
1E
100
AcDbEntity
  8
OBJECT
 62
     7
100
AcDbCircle
 10
5.314524211494958
 20
6.668311992933444
 30
0.0
 40
0.1383484673284733
100
AcDbArc
 50
51.33200070000003
 51
134.4149932999999
  0
LINE
  5
4D9C
330
1E
100
AcDbEntity
  8
DIM
 62
     1
100
AcDbLine
 10
5.430030951895748
 20
6.454122807060077
 30
0.0
 11
5.430030951895749
 21
7.066736282612907
 31
0.0
  0
LINE
  5
4D9D
330
1E
100
AcDbEntity
  8
DIM
 62
     1
100
AcDbLine
 10
5.430030951895744
 20
6.454122807060077
 30
0.0
 11
5.430030951895744
 21
7.069723517827533
 31
0.0
  0
LINE
  5
4D9E
330
1E
100
AcDbEntity
  8
OBJECT
 62
     7
100
AcDbLine
 10
5.411346908064373
 20
6.411376109041123
 30
0.0
 11
5.268621972754186
 21
6.411376109041123
 31
0.0
  0
LINE
  5
4D9F
330
1E
100
AcDbEntity
  8
OBJECT
 62
     7
100
AcDbLine
 10
5.257191045272763
 20
6.450906052952062
 30
0.0
 11
5.257186222840473
 21
6.707838920847796
 31
0.0
  0
LINE
  5
4DA0
330
1E
100
AcDbEntity
  8
OBJECT
 62
     7
100
AcDbLine
 10
5.292762507497108
 20
6.411376109041123
 30
0.0
 11
5.292762507497108
 21
6.767129911570544
 31
0.0
  0
ARC
  5
4DA1
330
1E
100
AcDbEntity
  8
OBJECT
 62
     7
100
AcDbCircle
 10
5.237426978511551
 20
6.450906052952062
 30
0.0
 40
0.0197640667612105
100
AcDbArc
 50
270.0
 51
0.0008742999999719
  0
ARC
  5
4DA2
330
1E
100
AcDbEntity
  8
OBJECT
 62
     7
100
AcDbCircle
 10
5.237422156079265
 20
6.707838920847796
 30
0.0
 40
0.0197640667612105
100
AcDbArc
 50
0.0008742999999719
 51
90.0
  0
LINE
  5
4DA3
330
1E
100
AcDbEntity
  8
OBJECT
 62
     7
100
AcDbLine
 10
5.411346908064373
 20
6.411379725865337
 30
0.0
 11
5.411346908064373
 21
6.754729117852194
 31
0.0
  0
ARC
  5
4DA4
330
1E
100
AcDbEntity
  8
OBJECT
 62
     7
100
AcDbCircle
 10
5.410277049087074
 20
6.391622807060077
 30
0.0
 40
0.0197539028086737
100
AcDbArc
 50
0.0
 51
90.0
  0
ARC
  5
4DA5
330
1E
100
AcDbEntity
  8
OBJECT
 62
     7
100
AcDbCircle
 10
5.379722468320707
 20
6.735510602578605
 30
0.0
 40
0.0316225068179368
100
AcDbArc
 50
0.0
 51
90.0
  0
ARC
  5
4DA6
330
1E
100
AcDbEntity
  8
OBJECT
 62
     7
100
AcDbCircle
 10
5.383676732355446
 20
6.754729117852194
 30
0.0
 40
0.0276696934656947
100
AcDbArc
 50
0.0
 51
51.33121109999997
  0
MTEXT
  5
4DAA
330
1E
100
AcDbEntity
  8
DIM
 62
     7
100
AcDbMText
 10
4.440644406683906
 20
8.584605977294526
 30
0.0
 40
0.09
 41
0.0
 71
     5
 72
     1
  1
23.3\P[.917]
 73
     1
 44
1.0
1001
ACAD
1000
MTEXTBEGIN
1070
    73
1070
     1
1070
    44
1040
1.0
1070
    74
1070
     0
1000
MTEXTEND
  0
LINE
  5
4DAB
330
1E
100
AcDbEntity
  8
DIM
 62
     1
100
AcDbLine
 10
3.956389683845273
 20
7.487429519441526
 30
0.0
 11
3.956389683845273
 21
8.675344102361108
 31
0.0
  0
LINE
  5
4DAC
330
1E
100
AcDbEntity
  8
DIM
 62
     1
100
AcDbLine
 10
3.670863994767568
 20
8.912556679940262
 30
0.0
 11
3.973892683880565
 21
8.912556679940262
 31
0.0
  0
SOLID
  5
4DAD
330
1E
100
AcDbEntity
  8
DIM
 62
     1
100
AcDbTrace
 10
3.670863994767568
 20
8.937556679940263
 30
0.0
 11
3.670863994767568
 21
8.887556679940262
 31
0.0
 12
3.520863994767569
 22
8.912556679940262
 32
0.0
 13
3.520863994767569
 23
8.912556679940262
 33
0.0
  0
SOLID
  5
4DAE
330
1E
100
AcDbEntity
  8
DIM
 62
     1
100
AcDbTrace
 10
4.106389683845275
 20
8.609605977294526
 30
0.0
 11
4.106389683845275
 21
8.559605977294525
 31
0.0
 12
3.956389683845273
 22
8.584605977294526
 32
0.0
 13
3.956389683845273
 23
8.584605977294526
 33
0.0
  0
LINE
  5
4DAF
330
1E
100
AcDbEntity
  8
DIM
 62
     1
100
AcDbLine
 10
4.106389683845275
 20
8.584605977294526
 30
0.0
 11
4.2381820787975
 21
8.584605977294526
 31
0.0
  0
LINE
  5
4DB6
330
1E
100
AcDbEntity
  8
DIM
 62
     1
100
AcDbLine
 10
5.430030951895748
 20
7.462075269624627
 30
0.0
 11
5.430030951895748
 21
7.796806917113659
 31
0.0
  0
LINE
  5
4DB7
330
1E
100
AcDbEntity
  8
DIM
 62
     1
100
AcDbLine
 10
5.430030951895744
 20
7.462075269624627
 30
0.0
 11
5.430030951895744
 21
7.948549413242375
 31
0.0
  0
MTEXT
  5
4DBC
330
1E
100
AcDbEntity
  8
DIM
 62
     7
100
AcDbMText
 10
5.15981917249342
 20
8.91405084750157
 30
0.0
 40
0.09
 41
0.0
 71
     5
 72
     1
  1
14\P[.551]
 73
     1
 44
1.0
1001
ACAD
1000
MTEXTBEGIN
1070
    73
1070
     1
1070
    44
1040
1.0
1070
    74
1070
     0
1000
MTEXTEND
  0
SOLID
  5
4DBD
330
1E
100
AcDbEntity
  8
DIM
 62
     1
100
AcDbTrace
 10
4.726921372993562
 20
8.609605977294526
 30
0.0
 11
4.726921372993562
 21
8.559605977294525
 31
0.0
 12
4.876921372993562
 22
8.584605977294526
 32
0.0
 13
4.876921372993562
 23
8.584605977294526
 33
0.0
  0
LINE
  5
4DBE
330
1E
100
AcDbEntity
  8
DIM
 62
     1
100
AcDbLine
 10
4.726921372993562
 20
8.912556679940262
 30
0.0
 11
4.423892683880565
 21
8.912556679940262
 31
0.0
  0
LINE
  5
4DBF
330
1E
100
AcDbEntity
  8
DIM
 62
     1
100
AcDbLine
 10
4.641502658966764
 20
8.584605977294526
 30
0.0
 11
4.726921372993562
 21
8.584605977294526
 31
0.0
  0
SOLID
  5
4DC0
330
1E
100
AcDbEntity
  8
DIM
 62
     1
100
AcDbTrace
 10
4.726921372993562
 20
8.937556679940263
 30
0.0
 11
4.726921372993562
 21
8.887556679940262
 31
0.0
 12
4.876921372993562
 22
8.912556679940262
 32
0.0
 13
4.876921372993562
 23
8.912556679940262
 33
0.0
  0
SOLID
  5
4DC1
330
1E
100
AcDbEntity
  8
DIM
 62
     1
100
AcDbTrace
 10
5.580030951895748
 20
8.939050847501571
 30
0.0
 11
5.580030951895748
 21
8.88905084750157
 31
0.0
 12
5.430030951895748
 22
8.91405084750157
 32
0.0
 13
5.430030951895748
 23
8.91405084750157
 33
0.0
  0
MTEXT
  5
4DC2
330
1E
100
AcDbEntity
  8
DIM
 62
     7
100
AcDbMText
 10
7.175766154842014
 20
7.154481165108086
 30
0.0
 40
0.09
 41
0.0
 71
     5
 72
     1
  1
59.2mm\P[2.330]
 73
     1
 44
1.0
1001
ACAD
1000
MTEXTBEGIN
1070
    73
1070
     1
1070
    44
1040
1.0
1070
    74
1070
     0
1000
MTEXTEND
  0
LINE
  5
4DC3
330
1E
100
AcDbEntity
  8
DIM
 62
     1
100
AcDbLine
 10
6.616575626050462
 20
8.075062938604837
 30
0.0
 11
6.616575626050462
 21
6.944175852716741
 31
0.0
  0
MTEXT
  5
4DC4
330
1E
100
AcDbEntity
  8
DIM
 62
     7
100
AcDbMText
 10
5.914502495900526
 20
6.409020212338004
 30
0.0
 40
0.09
 41
0.0
 71
     5
 72
     1
  1
20\P[.787]
 73
     1
 44
1.0
1001
ACAD
1000
MTEXTBEGIN
1070
    73
1070
     1
1070
    44
1040
1.0
1070
    74
1070
     0
1000
MTEXTEND
  0
LINE
  5
4DC5
330
1E
100
AcDbEntity
  8
DIM
 62
     1
100
AcDbLine
 10
6.616575626050462
 20
6.166301063671424
 30
0.0
 11
6.616575626050462
 21
6.566667056135608
 31
0.0
  0
LINE
  5
4DC6
330
1E
100
AcDbEntity
  8
DIM
 62
     1
100
AcDbLine
 10
6.165026257936109
 20
5.621210949715672
 30
0.0
 11
6.679075626050461
 21
5.621210949715672
 31
0.0
  0
LINE
  5
4DC7
330
1E
100
AcDbEntity
  8
OBJECT
 62
     7
100
AcDbLine
 10
5.825105088894903
 20
5.858269841202035
 30
0.0
 11
6.04239801979031
 21
5.858269841202035
 31
0.0
  0
ARC
  5
4DC8
330
1E
100
AcDbEntity
  8
OBJECT
 62
     7
100
AcDbCircle
 10
6.04239801979031
 20
5.83851593839336
 30
0.0
 40
0.0197539028086737
100
AcDbArc
 50
0.0
 51
90.0
  0
LINE
  5
4DC9
330
1E
100
AcDbEntity
  8
DIM
 62
     1
100
AcDbLine
 10
5.848097283277564
 20
6.016301063671424
 30
0.0
 11
6.345293123571373
 21
6.016301063671424
 31
0.0
  0
SOLID
  5
4DCA
330
1E
100
AcDbEntity
  8
DIM
 62
     1
100
AcDbTrace
 10
5.889502495900527
 20
6.166301063671424
 30
0.0
 11
5.939502495900528
 21
6.166301063671424
 31
0.0
 12
5.914502495900528
 22
6.016301063671424
 32
0.0
 13
5.914502495900528
 23
6.016301063671424
 33
0.0
  0
ARC
  5
4DCB
330
1E
100
AcDbEntity
  8
OBJECT
 62
     7
100
AcDbCircle
 10
5.785597283277564
 20
5.97679325805408
 30
0.0
 40
0.0395078056173474
100
AcDbArc
 50
0.0
 51
90.0
  0
LINE
  5
4DCC
330
1E
100
AcDbEntity
  8
DIM
 62
     1
100
AcDbLine
 10
5.914502495900528
 20
6.166301063671424
 30
0.0
 11
5.914502495900528
 21
6.242202239231342
 31
0.0
  0
MTEXT
  5
4DCD
330
1E
100
AcDbEntity
  8
DIM
 62
     7
100
AcDbMText
 10
6.61657562605046
 20
5.81875600669355
 30
0.0
 40
0.09
 41
0.0
 71
     5
 72
     1
  1
10\P[.394]
 73
     1
 44
1.0
1001
ACAD
1000
MTEXTBEGIN
1070
    73
1070
     1
1070
    44
1040
1.0
1070
    74
1070
     0
1000
MTEXTEND
  0
SOLID
  5
4DCE
330
1E
100
AcDbEntity
  8
DIM
 62
     1
100
AcDbTrace
 10
6.591575626050461
 20
6.166301063671424
 30
0.0
 11
6.641575626050462
 21
6.166301063671424
 31
0.0
 12
6.616575626050462
 22
6.016301063671424
 32
0.0
 13
6.616575626050462
 23
6.016301063671424
 33
0.0
  0
MTEXT
  5
4DCF
330
1E
100
AcDbEntity
  8
DIM
 62
     7
100
AcDbMText
 10
6.596442132150043
 20
6.760910029955839
 30
0.0
 40
0.09
 41
0.0
 71
     5
 72
     1
  1
53±1.2mm\P[2.087±.047]
 73
     1
 44
1.0
1001
ACAD
1000
MTEXTBEGIN
1070
    73
1070
     1
1070
    44
1040
1.0
1070
    74
1070
     0
1000
MTEXTEND
  0
SOLID
  5
4DD0
330
1E
100
AcDbEntity
  8
DIM
 62
     1
100
AcDbTrace
 10
5.889502495900527
 20
6.654638723399365
 30
0.0
 11
5.939502495900528
 21
6.654638723399365
 31
0.0
 12
5.914502495900528
 22
6.804638723399364
 32
0.0
 13
5.914502495900528
 23
6.804638723399364
 33
0.0
  0
LINE
  5
4DD1
330
1E
100
AcDbEntity
  8
DIM
 62
     1
100
AcDbLine
 10
5.914502495900528
 20
6.654638723399365
 30
0.0
 11
5.914502495900528
 21
6.589132177227662
 31
0.0
  0
LINE
  5
4DD2
330
1E
100
AcDbEntity
  8
DIM
100
AcDbLine
 10
7.165208545051413
 20
6.016301063671423
 30
0.0
 11
7.165208545051413
 21
6.968975049567028
 31
0.0
  0
SOLID
  5
4DD3
330
1E
100
AcDbEntity
  8
DIM
 62
     1
100
AcDbTrace
 10
7.140208545051413
 20
6.166301063671423
 30
0.0
 11
7.190208545051413
 21
6.166301063671423
 31
0.0
 12
7.165208545051413
 22
6.016301063671423
 32
0.0
 13
7.165208545051413
 23
6.016301063671423
 33
0.0
  0
MTEXT
  5
4DD4
330
1E
100
AcDbEntity
  8
DIM
 62
     7
100
AcDbMText
 10
7.592804424085279
 20
7.175777320433589
 30
0.0
 40
0.09
 41
0.0
 71
     5
 72
     1
  1
MAX
 73
     1
 44
1.0
1001
ACAD
1000
MTEXTBEGIN
1070
    73
1070
     1
1070
    44
1040
1.0
1070
    74
1070
     0
1000
MTEXTEND
  0
MTEXT
  5
4DD5
330
1E
100
AcDbEntity
  8
DIM
 62
     7
100
AcDbMText
 10
6.320466112472636
 20
8.575637635827099
 30
0.0
 40
0.09
 41
0.0
 71
     5
 72
     1
  1
R54\P[2.126]
 73
     1
 44
1.0
1001
ACAD
1000
MTEXTBEGIN
1070
    73
1070
     1
1070
    44
1040
1.0
1070
    74
1070
     0
1000
MTEXTEND
  0
SOLID
  5
4DD6
330
1E
100
AcDbEntity
  8
DIM
 62
     1
100
AcDbTrace
 10
6.591575626050461
 20
7.925062938604837
 30
0.0
 11
6.641575626050462
 21
7.925062938604837
 31
0.0
 12
6.616575626050462
 22
8.075062938604837
 32
0.0
 13
6.616575626050462
 23
8.075062938604837
 33
0.0
  0
LINE
  5
4DD7
330
1E
100
AcDbEntity
  8
DIM
100
AcDbLine
 10
7.165208545051411
 20
8.327475646960369
 30
0.0
 11
7.165208545051413
 21
7.365209124774796
 31
0.0
  0
SOLID
  5
4DD8
330
1E
100
AcDbEntity
  8
DIM
 62
     1
100
AcDbTrace
 10
7.140208545051411
 20
8.177475646960367
 30
0.0
 11
7.190208545051412
 21
8.177475646960367
 31
0.0
 12
7.165208545051411
 22
8.327475646960369
 32
0.0
 13
7.165208545051411
 23
8.327475646960369
 33
0.0
  0
MTEXT
  5
4DD9
330
1E
100
AcDbEntity
  8
DIM
 62
     7
100
AcDbMText
 10
4.375171984852511
 20
9.262757455647154
 30
0.0
 40
0.09
 41
0.0
 71
     5
 72
     1
  1
53.4\P[2.102]
 73
     1
 44
1.0
1001
ACAD
1000
MTEXTBEGIN
1070
    73
1070
     1
1070
    44
1040
1.0
1070
    74
1070
     0
1000
MTEXTEND
  0
LINE
  5
4DDA
330
1E
100
AcDbEntity
  8
DIM
 62
     1
100
AcDbLine
 10
3.470313017809278
 20
9.262757455647154
 30
0.0
 11
4.150171984852512
 21
9.262757455647154
 31
0.0
  0
SOLID
  5
4DDB
330
1E
100
AcDbEntity
  8
DIM
 62
     1
100
AcDbTrace
 10
3.470313017809278
 20
9.287757455647154
 30
0.0
 11
3.470313017809278
 21
9.237757455647154
 31
0.0
 12
3.320313017809278
 22
9.262757455647154
 32
0.0
 13
3.320313017809278
 23
9.262757455647154
 33
0.0
  0
LINE
  5
4DDC
330
1E
100
AcDbEntity
  8
DIM
 62
     1
100
AcDbLine
 10
5.280030951895744
 20
9.262757455647154
 30
0.0
 11
4.600171984852511
 21
9.262757455647154
 31
0.0
  0
SOLID
  5
4DDD
330
1E
100
AcDbEntity
  8
DIM
 62
     1
100
AcDbTrace
 10
5.280030951895744
 20
9.287757455647154
 30
0.0
 11
5.280030951895744
 21
9.237757455647154
 31
0.0
 12
5.430030951895744
 22
9.262757455647154
 32
0.0
 13
5.430030951895744
 23
9.262757455647154
 33
0.0
  0
SOLID
  5
4DE3
330
1E
100
AcDbEntity
  8
DIM
100
AcDbTrace
 10
5.268099962397304
 20
8.235928184296311
 30
0.0
 11
5.419873040023716
 21
8.226444888044117
 31
0.0
 12
5.273228248889912
 22
8.186191872836275
 32
0.0
 13
5.273228248889912
 23
8.186191872836275
 33
0.0
1001
ACAD
1000
DSTYLE
1002
{
1070
   147
1040
0.09
1070
    77
1070
     0
1002
}
  0
SOLID
  5
4DE4
330
1E
100
AcDbEntity
  8
DIM
100
AcDbTrace
 10
4.867570598314273
 20
8.337020115935485
 30
0.0
 11
4.991806353829186
 21
8.424715480987687
 31
0.0
 12
4.902727784575252
 22
8.301467728474012
 32
0.0
 13
4.902727784575252
 23
8.301467728474012
 33
0.0
1001
ACAD
1000
DSTYLE
1002
{
1070
   147
1040
0.09
1070
    77
1070
     0
1002
}
  0
LINE
  5
4DE5
330
1E
100
AcDbEntity
  8
DIM
100
AcDbLine
 10
6.123056955930607
 20
8.612711004423548
 30
0.0
 11
5.174186768243447
 21
8.612711004423546
 31
0.0
  0
LINE
  5
4DE7
330
1E
100
AcDbEntity
  8
DIM
 62
     1
100
AcDbLine
 10
5.666955540416424
 20
8.075062938604837
 30
0.0
 11
6.678969520367787
 21
8.075062938604837
 31
0.0
  0
LINE
  5
4DE8
330
1E
100
AcDbEntity
  8
DIM
 62
     1
100
AcDbLine
 10
5.525621845533521
 20
8.327475646960367
 30
0.0
 11
7.215534857924559
 21
8.327475646960367
 31
0.0
  0
LINE
  5
4DEA
330
1E
100
AcDbEntity
  8
FORM
 62
     1
100
AcDbLine
 10
3.999529218784792
 20
7.401888221847948
 30
0.0
 11
5.174186768243447
 21
8.612711004423546
 31
0.0
  0
LINE
  5
4DEB
330
1E
100
AcDbEntity
  8
DIM
 62
     1
100
AcDbLine
 10
4.876921372993562
 20
8.443282202181666
 30
0.0
 11
4.876921372993562
 21
8.975056679940262
 31
0.0
  0
LINE
  5
4DEC
330
1E
100
AcDbEntity
  8
DIM
 62
     1
100
AcDbLine
 10
4.876921372993562
 20
8.095011915263562
 30
0.0
 11
4.876921372993562
 21
8.217377149806615
 31
0.0
  0
ARC
  5
4DED
330
1E
100
AcDbEntity
  8
FORM
 62
     1
100
AcDbCircle
 10
3.517948347853952
 20
6.905480489701343
 30
0.0
 40
2.116679052587974
100
AcDbArc
 50
39.34648533353115
 51
48.3761711
  0
LINE
  5
4DEE
330
1E
100
AcDbEntity
  8
DIM
 62
     1
100
AcDbLine
 10
5.430030951895744
 20
8.678599988833433
 30
0.0
 11
5.430030951895744
 21
9.325257455647154
 31
0.0
  0
SOLID
  5
4DEF
330
1E
100
AcDbEntity
  8
DIM
 62
     1
100
AcDbTrace
 10
4.677427517715308
 20
7.588783723830875
 30
0.0
 11
4.6277370352803
 21
7.594338537542975
 31
0.0
 12
4.635917835361504
 22
7.442489683381902
 32
0.0
 13
4.635917835361504
 23
7.442489683381902
 33
0.0
  0
LINE
  5
4DF0
330
1E
100
AcDbEntity
  8
DIM
100
AcDbLine
 10
4.831979143547657
 20
7.972808733566484
 30
0.0
 11
4.703113741121371
 21
8.043333113318194
 31
0.0
  0
LINE
  5
4DF1
330
1E
100
AcDbEntity
  8
DIM
100
AcDbLine
 10
3.090180595954812
 20
8.926045676210428
 30
0.0
 11
2.907533931632308
 21
8.926045676210428
 31
0.0
  0
CIRCLE
  5
4DF2
102
{ACAD_REACTORS
330
4DF6
102
}
330
1E
100
AcDbEntity
  8
DIM
100
AcDbCircle
 10
4.840544176093736
 20
7.968121334183155
 30
0.0
 40
0.0195275697918831
  0
ARC
  5
4DF3
330
1E
100
AcDbEntity
  8
FORM
 62
     1
100
AcDbCircle
 10
5.419873040023717
 20
7.442489683381904
 30
0.0
 40
0.7839552046622127
100
AcDbArc
 50
138.4855437172793
 51
180.0
  0
HATCH
  5
4DF6
330
1E
100
AcDbEntity
  8
DIM
100
AcDbHatch
 10
0.0
 20
0.0
 30
0.0
210
0.0
220
0.0
230
1.0
  2
SOLID
 70
     1
 71
     1
 91
        1
 92
        7
 72
     1
 73
     1
 93
        2
 10
4.860071745885619
 20
7.968121334183155
 42
1.0
 10
4.821016606301853
 20
7.968121334183155
 42
1.0
 97
        1
330
4DF2
 75
     0
 76
     1
 47
0.0005824552638178
 98
        1
 10
4.847786252100924
 20
7.961407798904506
  0
MTEXT
  5
4DF7
330
1E
100
AcDbEntity
  8
DIM
 62
     7
100
AcDbMText
 10
2.168191795959164
 20
8.837013306515164
 30
0.0
 40
0.09
 41
0.0
 71
     5
 72
     1
  1
ANGLE OF ROLLER\PSWING: 90°
 73
     1
 44
1.0
1001
ACAD
1000
MTEXTBEGIN
1070
    73
1070
     1
1070
    44
1040
1.0
1070
    74
1070
     0
1000
MTEXTEND
  0
MTEXT
  5
4DF8
330
1E
100
AcDbEntity
  8
DIM
 62
     7
100
AcDbMText
 10
4.337120635490866
 20
9.787335094354563
 30
0.0
 40
0.09
 41
0.0
 71
     5
 72
     1
  1
OPERATING DIRECTION
 73
     1
 44
1.0
1001
ACAD
1000
MTEXTBEGIN
1070
    73
1070
     1
1070
    44
1040
1.0
1070
    74
1070
     0
1000
MTEXTEND
  0
LEADER
  5
4DF9
330
1E
100
AcDbEntity
  8
DIM
100
AcDbLeader
  3
Standard
 76
     2
 10
5.183006632659555
 20
9.663495376523236
 30
0.0
 10
3.516356093988825
 20
9.663495376523236
 30
0.0
1001
ACAD
1000
DSTYLE
1002
{
1070
   147
1040
0.09
1070
    77
1070
     0
1002
}
  0
LINE
  5
4DFA
330
1E
100
AcDbEntity
  8
DIM
100
AcDbLine
 10
4.601368209184176
 20
8.09901555714933
 30
0.0
 11
4.010105294039396
 21
8.422596980678626
 31
0.0
  0
LINE
  5
4DFB
330
1E
100
AcDbEntity
  8
DIM
100
AcDbLine
 10
3.908906929958336
 20
8.477979975061368
 30
0.0
 11
3.582899675520051
 21
8.656394498905108
 31
0.0
  0
LINE
  5
4DFC
330
1E
100
AcDbEntity
  8
DIM
100
AcDbLine
 10
3.475297849529907
 20
8.715281926369955
 30
0.0
 11
3.365041465899542
 21
8.775622117940351
 31
0.0
  0
LINE
  5
4DFD
330
1E
100
AcDbEntity
  8
DIM
100
AcDbLine
 10
3.281411943922256
 20
8.821390183342961
 30
0.0
 11
3.090180595954812
 21
8.926045676210428
 31
0.0
  0
ENDSEC
  0
SECTION
  2
OBJECTS
  0
DICTIONARY
  5
C
330
0
100
AcDbDictionary
281
     1
  3
ACAD_COLOR
350
4E09
  3
ACAD_GROUP
350
D
  3
ACAD_LAYOUT
350
19
  3
ACAD_MATERIAL
350
4E08
  3
ACAD_MLINESTYLE
350
16
  3
ACAD_PLOTSETTINGS
350
18
  3
ACAD_PLOTSTYLENAME
350
E
  3
ACAD_TABLESTYLE
350
4E0A
  3
AcadDim
350
44BB
  3
ACDBHEADERROUNDTRIPXREC
350
4EC6
  3
AcDbVariableDictionary
350
3CD
  3
AcmDictionary
350
4E69
  3
AMG
350
4E11
  3
AMGSNAPSETTINGS
350
4EBC
  3
ASE_INDEX_DICTIONARY
350
3E2
  0
DICTIONARY
  5
4E09
102
{ACAD_REACTORS
330
C
102
}
330
C
100
AcDbDictionary
281
     1
  0
DICTIONARY
  5
D
102
{ACAD_REACTORS
330
C
102
}
330
C
100
AcDbDictionary
281
     1
  0
DICTIONARY
  5
19
102
{ACAD_REACTORS
330
C
102
}
330
C
100
AcDbDictionary
281
     1
  3
Layout1
350
1D
  3
Model
350
21
  0
DICTIONARY
  5
4E08
102
{ACAD_REACTORS
330
C
102
}
330
C
100
AcDbDictionary
281
     1
  0
DICTIONARY
  5
16
102
{ACAD_REACTORS
330
C
102
}
330
C
100
AcDbDictionary
281
     1
  3
Standard
350
17
  0
DICTIONARY
  5
18
102
{ACAD_REACTORS
330
C
102
}
330
C
100
AcDbDictionary
281
     1
  0
ACDBDICTIONARYWDFLT
  5
E
102
{ACAD_REACTORS
330
C
102
}
330
C
100
AcDbDictionary
281
     1
  3
Normal
350
F
100
AcDbDictionaryWithDefault
340
F
  0
DICTIONARY
  5
4E0A
102
{ACAD_REACTORS
330
C
102
}
330
C
100
AcDbDictionary
281
     1
  3
Standard
350
4E0B
  0
XRECORD
  5
44BB
102
{ACAD_REACTORS
330
C
102
}
330
C
100
AcDbXrecord
280
     1
 90
   990106
  3

 60
     0
 61
     0
 62
     1
 63
     3
 64
     0
 65
     0
 66
     0
 67
     3
 68
     1
 69
     0
 70
     0
 71
     0
 72
     0
 40
0.0
170
     0
  0
DICTIONARY
  5
4EC6
102
{ACAD_REACTORS
330
C
102
}
330
C
100
AcDbDictionary
281
     1
  0
DICTIONARY
  5
3CD
102
{ACAD_REACTORS
330
C
102
}
330
C
100
AcDbDictionary
281
     1
  3
CTABLESTYLE
350
4EC3
  3
DIMASSOC
350
3CF
  3
HIDETEXT
350
3CE
  3
PROJECTNAME
350
4EC4
  0
DICTIONARY
  5
4E69
102
{ACAD_REACTORS
330
C
102
}
330
C
100
AcDbDictionary
281
     1
  3
AcmStdDictionary
350
4E74
  3
AMDTSECTSYM_ARROWCOLOR
350
4E92
  0
DICTIONARY
  5
4E11
102
{ACAD_REACTORS
330
C
102
}
330
C
100
AcDbDictionary
281
     1
  0
DICTIONARY
  5
4EBC
102
{ACAD_REACTORS
330
C
102
}
330
C
100
AcDbDictionary
281
     1
  0
DICTIONARY
  5
3E2
102
{ACAD_REACTORS
330
C
102
}
330
C
100
AcDbDictionary
281
     1
  3
ASEBlockHierarchyIndexRecord
350
3E4
1001
DCO15
1040
1464945035.036
  0
LAYOUT
  5
1D
102
{ACAD_XDICTIONARY
360
4EC7
102
}
102
{ACAD_REACTORS
330
19
102
}
330
19
100
AcDbPlotSettings
  1

  2
C:\Program Files\AutoCAD 2002\plotters\DWF ePlot (optimized for plotting).pc3
  4

  6

 40
0.0
 41
0.0
 42
0.0
 43
0.0
 44
0.0
 45
0.0
 46
0.0
 47
0.0
 48
0.0
 49
0.0
140
0.0
141
0.0
142
1.0
143
1.0
 70
   688
 72
     0
 73
     0
 74
     5
  7
standard.ctb
 75
    16
147
1.0
148
0.0
149
0.0
100
AcDbLayout
  1
Layout1
 70
     1
 71
     1
 10
0.0
 20
0.0
 11
12.0
 21
9.0
 12
0.0
 22
0.0
 32
0.0
 14
1.000000000000000E+20
 24
1.000000000000000E+20
 34
1.000000000000000E+20
 15
-1.000000000000000E+20
 25
-1.000000000000000E+20
 35
-1.000000000000000E+20
146
0.0
 13
0.0
 23
0.0
 33
0.0
 16
1.0
 26
0.0
 36
0.0
 17
0.0
 27
1.0
 37
0.0
 76
     0
330
1A
  0
LAYOUT
  5
21
102
{ACAD_XDICTIONARY
360
4EC9
102
}
102
{ACAD_REACTORS
330
19
102
}
330
19
100
AcDbPlotSettings
  1

  2
\\USCHMMGMT015\USCHMPD0026
  4
Tabloid
  6

 40
5.027083396911621
 41
5.027085304260253
 42
5.027099609375
 43
5.027069091796875
 44
279.3999938964844
 45
431.7999877929687
 46
0.0
 47
0.0
 48
0.0
 49
0.0
140
0.0
141
0.0
142
1.0
143
0.9914069849915843
 70
 11952
 72
     0
 73
     1
 74
     1
  7
standard.ctb
 75
     0
147
1.008667494922368
148
-2.622321565056127
149
-7.644107715091882
100
AcDbLayout
  1
Model
 70
     1
 71
     0
 10
0.0
 20
0.0
 11
12.0
 21
9.0
 12
0.0
 22
0.0
 32
0.0
 14
0.0
 24
0.0
 34
0.0
 15
0.0
 25
0.0
 35
0.0
146
0.0
 13
0.0
 23
0.0
 33
0.0
 16
1.0
 26
0.0
 36
0.0
 17
0.0
 27
1.0
 37
0.0
 76
     0
330
1E
  0
MLINESTYLE
  5
17
102
{ACAD_REACTORS
330
16
102
}
330
16
100
AcDbMlineStyle
  2
STANDARD
 70
     0
  3

 62
   256
 51
90.0
 52
90.0
 71
     2
 49
0.5
 62
   256
  6
BYLAYER
 49
-0.5
 62
   256
  6
BYLAYER
  0
ACDBPLACEHOLDER
  5
F
102
{ACAD_REACTORS
330
E
102
}
330
E
  0
TABLESTYLE
  5
4E0B
102
{ACAD_REACTORS
330
4E0A
102
}
330
4E0A
100
AcDbTableStyle
  3
Standard
 70
     0
 71
     0
 40
0.06
 41
0.06
280
     0
281
     0
  7
STANDARD
140
0.18
170
     2
 62
     0
 63
     7
283
     0
274
    -2
284
     1
 64
     0
275
    -2
285
     1
 65
     0
276
    -2
286
     1
 66
     0
277
    -2
287
     1
 67
     0
278
    -2
288
     1
 68
     0
279
    -2
289
     1
 69
     0
  7
STANDARD
140
0.25
170
     5
 62
     0
 63
     7
283
     0
274
    -2
284
     1
 64
     0
275
    -2
285
     1
 65
     0
276
    -2
286
     1
 66
     0
277
    -2
287
     1
 67
     0
278
    -2
288
     1
 68
     0
279
    -2
289
     1
 69
     0
  7
STANDARD
140
0.18
170
     5
 62
     0
 63
     7
283
     0
274
    -2
284
     1
 64
     0
275
    -2
285
     1
 65
     0
276
    -2
286
     1
 66
     0
277
    -2
287
     1
 67
     0
278
    -2
288
     1
 68
     0
279
    -2
289
     1
 69
     0
  0
DICTIONARYVAR
  5
4EC3
102
{ACAD_REACTORS
330
3CD
102
}
330
3CD
100
DictionaryVariables
280
     0
  1
STANDARD
  0
DICTIONARYVAR
  5
3CF
102
{ACAD_REACTORS
330
3CD
102
}
330
3CD
100
DictionaryVariables
280
     0
  1
0
  0
DICTIONARYVAR
  5
3CE
102
{ACAD_REACTORS
330
3CD
102
}
330
3CD
100
DictionaryVariables
280
     0
  1
1
  0
DICTIONARYVAR
  5
4EC4
102
{ACAD_REACTORS
330
3CD
102
}
330
3CD
100
DictionaryVariables
280
     0
  1

  0
DICTIONARY
  5
4E74
102
{ACAD_REACTORS
330
4E69
102
}
330
4E69
100
AcDbDictionary
281
     1
  0
XRECORD
  5
4E92
102
{ACAD_REACTORS
330
4E69
102
}
330
4E69
100
AcDbXrecord
280
     1
 90
-1023410169
  0
XRECORD
  5
3E4
102
{ACAD_REACTORS
330
3E2
102
}
330
3E2
100
AcDbXrecord
280
     1
330
0
330
0
  0
DICTIONARY
  5
4EC7
330
1D
100
AcDbDictionary
280
     1
281
     1
  3
ACAD_XREC_ROUNDTRIP
360
4EC8
  0
DICTIONARY
  5
4EC9
330
21
100
AcDbDictionary
280
     1
281
     1
  3
ACAD_XREC_ROUNDTRIP
360
4ECA
  0
XRECORD
  5
4EC8
102
{ACAD_REACTORS
330
4EC7
102
}
330
4EC7
100
AcDbXrecord
280
     1
102
SHADEPLOT
 70
     0
102
SHADEPLOTRESLEVEL
 70
     2
102
SHADEPLOTCUSTOMDPI
 70
   300
  0
XRECORD
  5
4ECA
102
{ACAD_REACTORS
330
4EC9
102
}
330
4EC9
100
AcDbXrecord
280
     1
102
SHADEPLOT
 70
     0
102
SHADEPLOTRESLEVEL
 70
     2
102
SHADEPLOTCUSTOMDPI
 70
   300
  0
ENDSEC
  0
EOF
