  0
SECTION
  2
HEADER
  9
$ACADVER
  1
AC1015
  9
$ACADMAINTVER
 70
    20
  9
$DWGCODEPAGE
  3
ANSI_1252
  9
$INSBASE
 10
0.0
 20
0.0
 30
0.0
  9
$EXTMIN
 10
0.1042494754821988
 20
0.3013358716206689
 30
0.0
  9
$EXTMAX
 10
16.5642494754822
 20
10.76133587162067
 30
0.0
  9
$LIMMIN
 10
0.0
 20
0.0
  9
$LIMMAX
 10
17.0
 20
11.0
  9
$ORTHOMODE
 70
     0
  9
$REGENMODE
 70
     1
  9
$FILLMODE
 70
     1
  9
$QTEXTMODE
 70
     0
  9
$MIRRTEXT
 70
     1
  9
$LTSCALE
 40
0.25
  9
$ATTMODE
 70
     1
  9
$TEXTSIZE
 40
0.09375
  9
$TRACEWID
 40
0.05
  9
$TEXTSTYLE
  7
ROMANS
  9
$CLAYER
  8
OBJECT
  9
$CELTYPE
  6
ByLayer
  9
$CECOLOR
 62
   256
  9
$CELTSCALE
 40
1.0
  9
$DISPSILH
 70
     0
  9
$DIMSCALE
 40
1.0
  9
$DIMASZ
 40
0.15
  9
$DIMEXO
 40
0.0625
  9
$DIMDLI
 40
0.38
  9
$DIMRND
 40
0.0
  9
$DIMDLE
 40
0.0
  9
$DIMEXE
 40
0.0625
  9
$DIMTP
 40
0.0
  9
$DIMTM
 40
0.0
  9
$DIMTXT
 40
0.09
  9
$DIMCEN
 40
0.09
  9
$DIMTSZ
 40
0.0
  9
$DIMTOL
 70
     0
  9
$DIMLIM
 70
     0
  9
$DIMTIH
 70
     1
  9
$DIMTOH
 70
     1
  9
$DIMSE1
 70
     0
  9
$DIMSE2
 70
     0
  9
$DIMTAD
 70
     0
  9
$DIMZIN
 70
     0
  9
$DIMBLK
  1

  9
$DIMASO
 70
     0
  9
$DIMSHO
 70
     1
  9
$DIMPOST
  1

  9
$DIMAPOST
  1

  9
$DIMALT
 70
     0
  9
$DIMALTD
 70
     2
  9
$DIMALTF
 40
25.4
  9
$DIMLFAC
 40
1.0
  9
$DIMTOFL
 70
     0
  9
$DIMTVP
 40
0.0
  9
$DIMTIX
 70
     0
  9
$DIMSOXD
 70
     0
  9
$DIMSAH
 70
     0
  9
$DIMBLK1
  1

  9
$DIMBLK2
  1

  9
$DIMSTYLE
  2
Standard
  9
$DIMCLRD
 70
     1
  9
$DIMCLRE
 70
     1
  9
$DIMCLRT
 70
     7
  9
$DIMTFAC
 40
1.0
  9
$DIMGAP
 40
0.09
  9
$DIMJUST
 70
     0
  9
$DIMSD1
 70
     0
  9
$DIMSD2
 70
     0
  9
$DIMTOLJ
 70
     1
  9
$DIMTZIN
 70
     0
  9
$DIMALTZ
 70
     0
  9
$DIMALTTZ
 70
     0
  9
$DIMUPT
 70
     0
  9
$DIMDEC
 70
     4
  9
$DIMTDEC
 70
     4
  9
$DIMALTU
 70
     2
  9
$DIMALTTD
 70
     2
  9
$DIMTXSTY
  7
STANDARD
  9
$DIMAUNIT
 70
     0
  9
$DIMADEC
 70
     0
  9
$DIMALTRND
 40
0.0
  9
$DIMAZIN
 70
     0
  9
$DIMDSEP
 70
    46
  9
$DIMATFIT
 70
     3
  9
$DIMFRAC
 70
     0
  9
$DIMLDRBLK
  1

  9
$DIMLUNIT
 70
     2
  9
$DIMLWD
 70
    -2
  9
$DIMLWE
 70
    -2
  9
$DIMTMOVE
 70
     0
  9
$LUNITS
 70
     2
  9
$LUPREC
 70
     4
  9
$SKETCHINC
 40
0.1
  9
$FILLETRAD
 40
0.0
  9
$AUNITS
 70
     0
  9
$AUPREC
 70
     0
  9
$MENU
  1
acad
  9
$ELEVATION
 40
0.0
  9
$PELEVATION
 40
0.0
  9
$THICKNESS
 40
0.0
  9
$LIMCHECK
 70
     0
  9
$CHAMFERA
 40
0.0
  9
$CHAMFERB
 40
0.0
  9
$CHAMFERC
 40
0.0
  9
$CHAMFERD
 40
0.0
  9
$SKPOLY
 70
     0
  9
$TDCREATE
 40
2449766.541135301
  9
$TDUCREATE
 40
2449766.749468635
  9
$TDUPDATE
 40
2455028.606138611
  9
$TDUUPDATE
 40
2455028.814471944
  9
$TDINDWG
 40
2.2640531250
  9
$TDUSRTIMER
 40
2.2640531250
  9
$USRTIMER
 70
     1
  9
$ANGBASE
 50
0.0
  9
$ANGDIR
 70
     0
  9
$PDMODE
 70
     0
  9
$PDSIZE
 40
0.0
  9
$PLINEWID
 40
0.0
  9
$SPLFRAME
 70
     0
  9
$SPLINETYPE
 70
     6
  9
$SPLINESEGS
 70
     8
  9
$HANDSEED
  5
4B10
  9
$SURFTAB1
 70
     6
  9
$SURFTAB2
 70
     6
  9
$SURFTYPE
 70
     6
  9
$SURFU
 70
     6
  9
$SURFV
 70
     6
  9
$UCSBASE
  2

  9
$UCSNAME
  2

  9
$UCSORG
 10
0.0
 20
0.0
 30
0.0
  9
$UCSXDIR
 10
1.0
 20
0.0
 30
0.0
  9
$UCSYDIR
 10
0.0
 20
1.0
 30
0.0
  9
$UCSORTHOREF
  2

  9
$UCSORTHOVIEW
 70
     0
  9
$UCSORGTOP
 10
0.0
 20
0.0
 30
0.0
  9
$UCSORGBOTTOM
 10
0.0
 20
0.0
 30
0.0
  9
$UCSORGLEFT
 10
0.0
 20
0.0
 30
0.0
  9
$UCSORGRIGHT
 10
0.0
 20
0.0
 30
0.0
  9
$UCSORGFRONT
 10
0.0
 20
0.0
 30
0.0
  9
$UCSORGBACK
 10
0.0
 20
0.0
 30
0.0
  9
$PUCSBASE
  2

  9
$PUCSNAME
  2

  9
$PUCSORG
 10
0.0
 20
0.0
 30
0.0
  9
$PUCSXDIR
 10
1.0
 20
0.0
 30
0.0
  9
$PUCSYDIR
 10
0.0
 20
1.0
 30
0.0
  9
$PUCSORTHOREF
  2

  9
$PUCSORTHOVIEW
 70
     0
  9
$PUCSORGTOP
 10
0.0
 20
0.0
 30
0.0
  9
$PUCSORGBOTTOM
 10
0.0
 20
0.0
 30
0.0
  9
$PUCSORGLEFT
 10
0.0
 20
0.0
 30
0.0
  9
$PUCSORGRIGHT
 10
0.0
 20
0.0
 30
0.0
  9
$PUCSORGFRONT
 10
0.0
 20
0.0
 30
0.0
  9
$PUCSORGBACK
 10
0.0
 20
0.0
 30
0.0
  9
$USERI1
 70
     0
  9
$USERI2
 70
     0
  9
$USERI3
 70
     0
  9
$USERI4
 70
     0
  9
$USERI5
 70
     0
  9
$USERR1
 40
0.0
  9
$USERR2
 40
0.0
  9
$USERR3
 40
0.0
  9
$USERR4
 40
0.0
  9
$USERR5
 40
0.0
  9
$WORLDVIEW
 70
     1
  9
$SHADEDGE
 70
     3
  9
$SHADEDIF
 70
    70
  9
$TILEMODE
 70
     1
  9
$MAXACTVP
 70
    16
  9
$PINSBASE
 10
0.0
 20
0.0
 30
0.0
  9
$PLIMCHECK
 70
     0
  9
$PEXTMIN
 10
1.000000000000000E+20
 20
1.000000000000000E+20
 30
1.000000000000000E+20
  9
$PEXTMAX
 10
-1.000000000000000E+20
 20
-1.000000000000000E+20
 30
-1.000000000000000E+20
  9
$PLIMMIN
 10
0.0
 20
0.0
  9
$PLIMMAX
 10
12.0
 20
9.0
  9
$UNITMODE
 70
     0
  9
$VISRETAIN
 70
     0
  9
$PLINEGEN
 70
     0
  9
$PSLTSCALE
 70
     1
  9
$TREEDEPTH
 70
  3020
  9
$CMLSTYLE
  2
Standard
  9
$CMLJUST
 70
     0
  9
$CMLSCALE
 40
1.0
  9
$PROXYGRAPHICS
 70
     1
  9
$MEASUREMENT
 70
     0
  9
$CELWEIGHT
370
    -1
  9
$ENDCAPS
280
     0
  9
$JOINSTYLE
280
     0
  9
$LWDISPLAY
290
     0
  9
$INSUNITS
 70
     0
  9
$HYPERLINKBASE
  1

  9
$STYLESHEET
  1
standard.ctb
  9
$XEDIT
290
     1
  9
$CEPSNTYPE
380
     0
  9
$PSTYLEMODE
290
     1
  9
$FINGERPRINTGUID
  2
{15A91E55-5219-469D-BD62-5FAE47C117F2}
  9
$VERSIONGUID
  2
{950D4886-5DDB-478A-8351-7779EDA66E0D}
  9
$EXTNAMES
290
     1
  9
$PSVPSCALE
 40
0.0
  9
$OLESTARTUP
290
     0
  0
ENDSEC
  0
SECTION
  2
CLASSES
  0
CLASS
  1
ACDBDICTIONARYWDFLT
  2
AcDbDictionaryWithDefault
  3
ObjectDBX Classes
 90
        0
280
     0
281
     0
  0
CLASS
  1
ACDBPLACEHOLDER
  2
AcDbPlaceHolder
  3
ObjectDBX Classes
 90
        0
280
     0
281
     0
  0
CLASS
  1
LAYOUT
  2
AcDbLayout
  3
ObjectDBX Classes
 90
        0
280
     0
281
     0
  0
CLASS
  1
DICTIONARYVAR
  2
AcDbDictionaryVar
  3
ObjectDBX Classes
 90
        0
280
     0
281
     0
  0
CLASS
  1
DIMASSOC
  2
AcDbDimAssoc
  3
"AcDbDimAssoc|Product Desc:     AcDim ARX App For Dimension|Company:          Autodesk, Inc.|WEB Address:      www.autodesk.com"
 90
    32768
280
     0
281
     0
  0
CLASS
  1
TABLESTYLE
  2
AcDbTableStyle
  3
ObjectDBX Classes
 90
     2047
280
     0
281
     0
  0
CLASS
  1
ACME_DOCUMENT
  2
AcMeDbDoc
  3
AcMeServices
 90
        0
280
     0
281
     0
  0
CLASS
  1
AMGSETTINGSOBJ
  2
AmgSettingsObj
  3
"AcadM|Product Description: AutoCAD Mechanical 2000|Company: Autodesk"
 90
        0
280
     0
281
     0
  0
CLASS
  1
ACMESCOPE
  2
AcMeScope
  3
AcMeServices
 90
        0
280
     0
281
     0
  0
CLASS
  1
ACMECOMMANDHISTORY
  2
AcMeCommandHistory
  3
AcMeServices
 90
        0
280
     0
281
     0
  0
CLASS
  1
ACIMSYSVARMAN
  2
AcImSysVarManager
  3
AcMeServices
 90
        0
280
     0
281
     0
  0
CLASS
  1
ACIMINTSYSVAR
  2
AcImIntSysVar
  3
AcMeServices
 90
        0
280
     0
281
     0
  0
CLASS
  1
ACMEDRAWINGMAN
  2
AcMeDrawingMan
  3
AcMeServices
 90
        0
280
     0
281
     0
  0
CLASS
  1
ACMEVIEW
  2
AcMeView
  3
AcMeServices
 90
        0
280
     0
281
     0
  0
CLASS
  1
ACDBENTITYCACHE
  2
AcMeEntityCache
  3
AcMeServices
 90
        0
280
     0
281
     0
  0
CLASS
  1
GSMANAGER
  2
AcMeGSManager
  3
AcMeServices
 90
        0
280
     0
281
     0
  0
CLASS
  1
AMDTINTERNALREACTOR
  2
AmdtInternalReactor
  3
AcMeServices
 90
        0
280
     0
281
     0
  0
CLASS
  1
ACMESTATEMGR
  2
AcMeStateMgr
  3
AcMeServices
 90
        0
280
     0
281
     0
  0
CLASS
  1
ACGREFMASTER
  2
AcGrefMaster
  3
AcAttribServices
 90
        0
280
     0
281
     0
  0
CLASS
  1
AM_DRAWING_MGR
  2
AcDmDwgMgr
  3
AcMechDwgViewMgmt
 90
        0
280
     0
281
     0
  0
CLASS
  1
AM_DWG_DOCUMENT
  2
AcDmDwgDocument
  3
AcMechDwgViewMgmt
 90
        0
280
     0
281
     0
  0
CLASS
  1
AM_DWG_SHEET
  2
AcDmSheet
  3
AcMechDwgViewMgmt
 90
        0
280
     0
281
     0
  0
CLASS
  1
AM_VIEWDIMPARMAP
  2
AcDmViewDimParMap
  3
AcMechDwgViewMgmt
 90
        0
280
     0
281
     0
  0
CLASS
  1
ACIMREALSYSVAR
  2
AcImRealSysVar
  3
AcMeServices
 90
        0
280
     0
281
     0
  0
CLASS
  1
AM_DWGMGR_NAME
  2
AcDmDwgMgrName
  3
AcMechDwgViewMgmt
 90
        0
280
     0
281
     0
  0
CLASS
  1
ACME_DATABASE
  2
AcMeDbDatabase
  3
AcMeServices
 90
        0
280
     0
281
     0
  0
CLASS
  1
ACRFINSADJUSTERMGR
  2
AcRfInsAdjusterMgr
  3
AcMeServices
 90
        0
280
     0
281
     0
  0
CLASS
  1
ACGREFACADMASTER
  2
AcGrefacadMaster
  3
AcGrefServices
 90
        0
280
     0
281
     0
  0
CLASS
  1
AMDTMENUSTATEMGR
  2
AmdtMenuStateMgr
  3
McadcomServices
 90
        0
280
     0
281
     0
  0
CLASS
  1
AMDTMCOMMENUSTATE
  2
AmdtMcomMenuState
  3
McadcomServices
 90
        0
280
     0
281
     0
  0
CLASS
  1
AMIMASTER
  2
AmiMaster
  3
AmiServices
 90
        0
280
     0
281
     0
  0
CLASS
  1
MAPIAMMOUDLE
  2
MApiAmModule
  3
MApiAmServices
 90
        0
280
     0
281
     0
  0
CLASS
  1
ACIMSTRSYSVAR
  2
AcImStrSysVar
  3
AcMeServices
 90
        0
280
     0
281
     0
  0
CLASS
  1
AMDTADMENUSTATE
  2
AmdtAdMenuState
  3
DesignerServices
 90
        0
280
     0
281
     0
  0
CLASS
  1
ADAPPL
  2
AcAdAppl
  3
DesignerServices
 90
        0
280
     0
281
     0
  0
CLASS
  1
DEPMGR
  2
AcAdDepMgr
  3
DesignerServices
 90
        0
280
     0
281
     0
  0
CLASS
  1
PARAMMGR
  2
AcAdParamMgr
  3
DesignerServices
 90
        0
280
     0
281
     0
  0
CLASS
  1
PARAMSCOPE
  2
AcAdParamScope
  3
DesignerServices
 90
        0
280
     0
281
     0
  0
CLASS
  1
NAMEDAPPL
  2
AcAdNamedAppl
  3
DesignerServices
 90
        0
280
     0
281
     0
  0
CLASS
  1
AMDTDMMENUSTATE
  2
AmdtDmMenuState
  3
AcMechDwgViewMgmt
 90
        0
280
     0
281
     0
  0
CLASS
  1
AMDTAMMENUSTATE
  2
AmdtAmMenuState
  3
DesignerAssemblies
 90
        0
280
     0
281
     0
  0
CLASS
  1
ACAMPROJECT
  2
AcAmProject
  3
DesignerAssemblies
 90
        0
280
     0
281
     0
  0
CLASS
  1
ACAMGRCOMPDEF
  2
AcAmGrCompDef
  3
DesignerAssemblies
 90
        0
280
     0
281
     0
  0
CLASS
  1
ACCMCONTEXT
  2
AcCmContext
  3
DesignerAssemblies
 90
        0
280
     0
281
     0
  0
CLASS
  1
ACAMCOMPDEF
  2
AcAmCompDef
  3
DesignerAssemblies
 90
        0
280
     0
281
     0
  0
CLASS
  1
ACAMCOMPDEFMGR
  2
AcAmCompDefMgr
  3
DesignerAssemblies
 90
        0
280
     0
281
     0
  0
CLASS
  1
AMCONTEXTMGR
  2
AcAmContextMgr
  3
DesignerAssemblies
 90
        0
280
     0
281
     0
  0
CLASS
  1
ACAMCONTEXTMODELER
  2
AcAmContextModeler
  3
DesignerAssemblies
 90
        0
280
     0
281
     0
  0
CLASS
  1
ACMDATADICTIONARY
  2
AcmDataDictionary
  3
"AcmSymBB|Product Description: AutoCAD Mechanical 2004 DX|Company: Autodesk"
 90
        0
280
     0
281
     0
  0
CLASS
  1
CATALOGSTATE
  2
AcAmCatalogState
  3
DesignerAssemblies
 90
        0
280
     0
281
     0
  0
CLASS
  1
ACAMGRCOMPDEFSET
  2
AcAmGrCompDefSet
  3
DesignerAssemblies
 90
        0
280
     0
281
     0
  0
CLASS
  1
AMDTBROWSERDBTAB
  2
AmdtBrowserDbTab
  3
McadcomServices
 90
        0
280
     0
281
     0
  0
CLASS
  1
CBROWSERAPPOBJECT
  2
CBrowserAppObject
  3
McadcomServices
 90
        0
280
     0
281
     0
  0
CLASS
  1
DM_PLACEHOLDER
  2
AcDmSelsetPlaceholder
  3
AcMechDwgViewMgmt
 90
        0
280
     0
281
     0
  0
CLASS
  1
ACMSTANDARDANSI
  2
AcmStandardANSI
  3
"Amdt_StdImp|Product Description: AutoCAD Mechanical 2004 DX|Company: Autodesk"
 90
        0
280
     0
281
     0
  0
CLASS
  1
AMGOBJPROPCFG
  2
AmgObjPropCfg
  3
"AmgLay|Product Description: AutoCAD Mechanical 2000|Company: Autodesk"
 90
        1
280
     0
281
     0
  0
CLASS
  1
ACMSURFSTANDARDANSI
  2
AcmSurfTextStdANSI
  3
"Amdt_StdImp|Product Description: AutoCAD Mechanical 2004 DX|Company: Autodesk"
 90
        0
280
     0
281
     0
  0
CLASS
  1
ACMFCFSTANDARDANSI
  2
AcmFCFStdANSI
  3
"Amdt_StdImp|Product Description: AutoCAD Mechanical 2004 DX|Company: Autodesk"
 90
        0
280
     0
281
     0
  0
CLASS
  1
ACMWELDSTANDARDANSI
  2
AcmWeldingStdANSI
  3
"Amdt_StdImp|Product Description: AutoCAD Mechanical 2004 DX|Company: Autodesk"
 90
        0
280
     0
281
     0
  0
CLASS
  1
ACMIDSTANDARDANSI
  2
AcmIdStdANSI
  3
"Amdt_StdImp|Product Description: AutoCAD Mechanical 2004 DX|Company: Autodesk"
 90
        0
280
     0
281
     0
  0
CLASS
  1
ACMDATUMSTANDARDANSI
  2
AcmDatumStdANSI
  3
"Amdt_StdImp|Product Description: AutoCAD Mechanical 2004 DX|Company: Autodesk"
 90
        0
280
     0
281
     0
  0
CLASS
  1
ACMBOMSTANDARDANSI
  2
AcmBOMStdANSI
  3
"Amdt_StdImp|Product Description: AutoCAD Mechanical 2004 DX|Company: Autodesk"
 90
        0
280
     0
281
     0
  0
CLASS
  1
ACMDETAILSTANDARDANSI
  2
AmdtDetailSymStdANSI
  3
"Amdt_StdImp|Product Description: AutoCAD Mechanical 2004 DX|Company: Autodesk"
 90
        0
280
     0
281
     0
  0
CLASS
  1
ACMSECTIONSTANDARDANSI
  2
AmdtSectionSymStdANSI
  3
"Amdt_StdImp|Product Description: AutoCAD Mechanical 2004 DX|Company: Autodesk"
 90
        0
280
     0
281
     0
  0
CLASS
  1
ACMCENTERLINESTANDARDANSI
  2
AmdtCenterLineStdANSI
  3
"Amdt_StdImp|Product Description: AutoCAD Mechanical 2004 DX|Company: Autodesk"
 90
        0
280
     0
281
     0
  0
CLASS
  1
ACMTHREADLINESTANDARDANSI
  2
AmdtThreadLineStdANSI
  3
"Amdt_StdImp|Product Description: AutoCAD Mechanical 2004 DX|Company: Autodesk"
 90
        0
280
     0
281
     0
  0
CLASS
  1
ACMNOTESTANDARDANSI
  2
AmdtNoteStdANSI
  3
"Amdt_StdImp|Product Description: AutoCAD Mechanical 2004 DX|Company: Autodesk"
 90
        0
280
     0
281
     0
  0
CLASS
  1
AMDTNOTETEMPLATEDB
  2
AmdtNoteTemplateDB
  3
AMDT_STDIMP_MODULE_NAME
 90
        0
280
     0
281
     0
  0
CLASS
  1
ACAMGLAYSTD
  2
AcAmgLayStd
  3
"AcAmgLayStd|Product Description: AutoCAD Mechanical 2000|Company: Autodesk"
 90
        0
280
     0
281
     0
  0
CLASS
  1
ACAMGDIMSTD
  2
AcAmgDimStd
  3
"AcAmgDimStd|Product Description: AutoCAD Mechanical 2000|Company: Autodesk"
 90
        0
280
     0
281
     0
  0
CLASS
  1
ACAMGHOLECHARTSTDANSI
  2
AcAmgHoleChartStdANSI
  3
ACMSYMBB_MODULE_NAME
 90
        0
280
     0
281
     0
  0
CLASS
  1
ACAMGTITLESTD
  2
AcAmgTitleStd
  3
"TITLEAPP"
 90
        0
280
     0
281
     0
  0
CLASS
  1
ACAMGFILTERDAT
  2
AcAmgFilterDat
  3
"AcadM|Product Description: AutoCAD Mechanical 2000|Company: Autodesk"
 90
        0
280
     0
281
     0
  0
ENDSEC
  0
SECTION
  2
TABLES
  0
TABLE
  2
VPORT
  5
8
330
0
100
AcDbSymbolTable
 70
     3
  0
VPORT
  5
4B0A
330
8
100
AcDbSymbolTableRecord
100
AcDbViewportTableRecord
  2
*Active
 70
     0
 10
0.0
 20
0.0
 11
1.0
 21
1.0
 12
8.5
 22
6.291281027943091
 13
0.0
 23
0.0
 14
0.0625
 24
0.0625
 15
0.5
 25
0.5
 16
0.0
 26
0.0
 36
1.0
 17
0.0
 27
0.0
 37
0.0
 40
12.72322041480151
 41
1.758308157099697
 42
50.0
 43
0.0
 44
0.0
 50
0.0
 51
0.0
 71
     0
 72
   500
 73
     1
 74
     0
 75
     0
 76
     0
 77
     0
 78
     0
281
     0
 65
     1
110
0.0
120
0.0
130
0.0
111
1.0
121
0.0
131
0.0
112
0.0
122
1.0
132
0.0
 79
     0
146
0.0
  0
ENDTAB
  0
TABLE
  2
LTYPE
  5
5
330
0
100
AcDbSymbolTable
 70
    16
  0
LTYPE
  5
13
330
5
100
AcDbSymbolTableRecord
100
AcDbLinetypeTableRecord
  2
ByBlock
 70
     0
  3

 72
    65
 73
     0
 40
0.0
  0
LTYPE
  5
14
330
5
100
AcDbSymbolTableRecord
100
AcDbLinetypeTableRecord
  2
ByLayer
 70
     0
  3

 72
    65
 73
     0
 40
0.0
  0
LTYPE
  5
15
330
5
100
AcDbSymbolTableRecord
100
AcDbLinetypeTableRecord
  2
CONTINUOUS
 70
     0
  3
Solid line
 72
    65
 73
     0
 40
0.0
  0
LTYPE
  5
2C
330
5
100
AcDbSymbolTableRecord
100
AcDbLinetypeTableRecord
  2
CENTER
 70
     0
  3
____ _ ____ _ ____ _ ____ _ ____ _ ____ _ ____ 
 72
    65
 73
     4
 40
2.0
 49
1.25
 74
     0
 49
-0.25
 74
     0
 49
0.25
 74
     0
 49
-0.25
 74
     0
  0
LTYPE
  5
430
330
5
100
AcDbSymbolTableRecord
100
AcDbLinetypeTableRecord
  2
HIDDEN
 70
     0
  3
_ _ _ _ _ _ _ _ _ _ _ _ _ _ _ _ _ _ _ _ _ _ _
 72
    65
 73
     2
 40
0.375
 49
0.25
 74
     0
 49
-0.125
 74
     0
  0
LTYPE
  5
4A88
330
5
100
AcDbSymbolTableRecord
100
AcDbLinetypeTableRecord
  2
PHANTOM2
 70
     0
  3
Phantom (.5x) ___ _ _ ___ _ _ ___ _ _ ___ _ _
 72
    65
 73
     6
 40
1.25
 49
0.625
 74
     0
 49
-0.125
 74
     0
 49
0.125
 74
     0
 49
-0.125
 74
     0
 49
0.125
 74
     0
 49
-0.125
 74
     0
  0
LTYPE
  5
4ABC
330
5
100
AcDbSymbolTableRecord
100
AcDbLinetypeTableRecord
  2
AM_ISO02W050
 70
     0
  3
__ __ __ __ __ __ __ __ __ __ __ __ __ __ __
 72
    65
 73
     2
 40
7.5
 49
6.0
 74
     0
 49
-1.5
 74
     0
  0
LTYPE
  5
4ABD
330
5
100
AcDbSymbolTableRecord
100
AcDbLinetypeTableRecord
  2
AM_ISO08W050
 70
     0
  3
____ . ____ . ____ . ____ . ____ . ____ . ____
 72
    65
 73
     4
 40
18.0
 49
12.0
 74
     0
 49
-1.5
 74
     0
 49
3.0
 74
     0
 49
-1.5
 74
     0
  0
LTYPE
  5
4ABE
330
5
100
AcDbSymbolTableRecord
100
AcDbLinetypeTableRecord
  2
AM_ISO09W050
 70
     0
  3
_____ . . _____ . . _____ . . ____ .. ____
 72
    65
 73
     6
 40
22.5
 49
12.0
 74
     0
 49
-1.5
 74
     0
 49
3.0
 74
     0
 49
-1.5
 74
     0
 49
3.0
 74
     0
 49
-1.5
 74
     0
  0
LTYPE
  5
4ABF
330
5
100
AcDbSymbolTableRecord
100
AcDbLinetypeTableRecord
  2
Amconstr
 70
     0
  3
_______________________
 72
    65
 73
     2
 40
9999.0
 49
9999.0
 74
     0
 49
0.0
 74
     0
  0
LTYPE
  5
4AC0
330
5
100
AcDbSymbolTableRecord
100
AcDbLinetypeTableRecord
  2
AM_ISO08W050x2
 70
     0
  3
__ . __ . __ . __ . __ . __
 72
    65
 73
     4
 40
9.0
 49
6.0
 74
     0
 49
-0.75
 74
     0
 49
1.5
 74
     0
 49
-0.75
 74
     0
  0
LTYPE
  5
4AC1
330
5
100
AcDbSymbolTableRecord
100
AcDbLinetypeTableRecord
  2
AM_ISO02W050x2
 70
     0
  3
 _ _ _ _ _ _ _ _ _ _ _ _
 72
    65
 73
     2
 40
3.75
 49
3.0
 74
     0
 49
-0.75
 74
     0
  0
LTYPE
  5
4AC4
330
5
100
AcDbSymbolTableRecord
100
AcDbLinetypeTableRecord
  2
Amzigzag
 70
     0
  3
/\/-/\/-/\/-/\/-/\/-/\/
 72
    65
 73
     2
 40
11.0001
 49
0.0001
 74
     4
 75
   136
340
4AC3
 46
0.04
 50
0.0
 44
0.0
 45
0.0
 49
-11.0
 74
     0
  0
LTYPE
  5
4AC5
330
5
100
AcDbSymbolTableRecord
100
AcDbLinetypeTableRecord
  2
CENTER2
 70
     0
  3
Center (.5x) ___ _ ___ _ ___ _ ___ _ ___ _ ___
 72
    65
 73
     4
 40
1.125
 49
0.75
 74
     0
 49
-0.125
 74
     0
 49
0.125
 74
     0
 49
-0.125
 74
     0
  0
LTYPE
  5
4AC6
330
5
100
AcDbSymbolTableRecord
100
AcDbLinetypeTableRecord
  2
HIDDEN2
 70
     0
  3
Hidden (.5x) _ _ _ _ _ _ _ _ _ _ _ _ _ _ _ _ _
 72
    65
 73
     2
 40
0.1875
 49
0.125
 74
     0
 49
-0.0625
 74
     0
  0
LTYPE
  5
4AC7
330
5
100
AcDbSymbolTableRecord
100
AcDbLinetypeTableRecord
  2
Amzigzag2
 70
     0
  3
/\/-/\/-/\/-/\/-/\/-/\/
 72
    65
 73
     2
 40
0.4401
 49
0.0001
 74
     4
 75
   136
340
4AC3
 46
0.0016
 50
0.0
 44
0.0
 45
0.0
 49
-0.4400000000000001
 74
     0
  0
LTYPE
  5
4AD5
330
5
100
AcDbSymbolTableRecord
100
AcDbLinetypeTableRecord
  2
ACANSTGB
 70
     0
  3
__ . . __ . .
 72
    65
 73
     6
 40
0.35433070866
 49
0.15748031496
 74
     0
 49
-0.03937007874
 74
     0
 49
0.03937007874
 74
     0
 49
-0.03937007874
 74
     0
 49
0.03937007874
 74
     0
 49
-0.03937007874
 74
     0
  0
LTYPE
  5
4AD6
330
5
100
AcDbSymbolTableRecord
100
AcDbLinetypeTableRecord
  2
ACANSTGL
 70
     0
  3
_ _ _ _ _
 72
    65
 73
     2
 40
0.11811023622
 49
0.07874015748
 74
     0
 49
-0.03937007874
 74
     0
  0
ENDTAB
  0
TABLE
  2
LAYER
  5
2
330
0
100
AcDbSymbolTable
 70
     9
  0
LAYER
  5
10
330
2
100
AcDbSymbolTableRecord
100
AcDbLayerTableRecord
  2
0
 70
     0
 62
     7
  6
CONTINUOUS
370
    -3
390
F
  0
LAYER
  5
30
330
2
100
AcDbSymbolTableRecord
100
AcDbLayerTableRecord
  2
TEXT
 70
     0
 62
     7
  6
CONTINUOUS
370
    -3
390
F
  0
LAYER
  5
31
330
2
100
AcDbSymbolTableRecord
100
AcDbLayerTableRecord
  2
DEFPOINTS
 70
     0
 62
     7
  6
CONTINUOUS
290
     0
370
    -3
390
F
  0
LAYER
  5
32
330
2
100
AcDbSymbolTableRecord
100
AcDbLayerTableRecord
  2
DIM
 70
     0
 62
     1
  6
CONTINUOUS
370
    -3
390
F
  0
LAYER
  5
33
330
2
100
AcDbSymbolTableRecord
100
AcDbLayerTableRecord
  2
CENTER
 70
     0
 62
     3
  6
CENTER
370
    -3
390
F
  0
LAYER
  5
34
330
2
100
AcDbSymbolTableRecord
100
AcDbLayerTableRecord
  2
OBJ
 70
     0
 62
     7
  6
CONTINUOUS
370
    -3
390
F
  0
LAYER
  5
8BE
330
2
100
AcDbSymbolTableRecord
100
AcDbLayerTableRecord
  2
BORDER
 70
     0
 62
     7
  6
CONTINUOUS
370
    -3
390
F
  0
LAYER
  5
8BF
330
2
100
AcDbSymbolTableRecord
100
AcDbLayerTableRecord
  2
FORM
 70
     0
 62
     7
  6
CONTINUOUS
370
    -3
390
F
  0
LAYER
  5
41C0
330
2
100
AcDbSymbolTableRecord
100
AcDbLayerTableRecord
  2
OBJECT
 70
     0
 62
     7
  6
CONTINUOUS
370
    -3
390
F
  0
ENDTAB
  0
TABLE
  2
STYLE
  5
3
330
0
100
AcDbSymbolTable
 70
     7
  0
STYLE
  5
11
330
3
100
AcDbSymbolTableRecord
100
AcDbTextStyleTableRecord
  2
STANDARD
 70
     0
 40
0.0
 41
1.0
 50
0.0
 71
     0
 42
0.2
  3
txt
  4

  0
STYLE
  5
27
330
3
100
AcDbSymbolTableRecord
100
AcDbTextStyleTableRecord
  2
ROMANS
 70
     0
 40
0.0
 41
1.0
 50
0.0
 71
     0
 42
0.09375
  3
romans
  4

  0
STYLE
  5
29
330
3
100
AcDbSymbolTableRecord
100
AcDbTextStyleTableRecord
  2
HELR
 70
     0
 40
0.0
 41
1.0
 50
0.0
 71
     0
 42
0.2
  3
HELV.shx
  4

  0
STYLE
  5
41C1
330
3
100
AcDbSymbolTableRecord
100
AcDbTextStyleTableRecord
  2
KANJI
 70
     0
 40
0.0
 41
1.0
 50
0.0
 71
     0
 42
2.0
  3
TXT
  4
BIGFONT
  0
STYLE
  5
4AC3
330
3
100
AcDbSymbolTableRecord
100
AcDbTextStyleTableRecord
  2

 70
     1
 40
0.0
 41
1.0
 50
0.0
 71
     0
 42
0.09375
  3
genltshp.shx
  4

  0
STYLE
  5
4AC8
330
3
100
AcDbSymbolTableRecord
100
AcDbTextStyleTableRecord
  2
ACANSTS
 70
     0
 40
1.0
 41
1.0
 50
0.0
 71
     0
 42
0.09375
  3
romans.shx
  4

  0
STYLE
  5
4AD4
330
3
100
AcDbSymbolTableRecord
100
AcDbTextStyleTableRecord
  2
ACANSGDT
 70
     0
 40
0.0
 41
1.0
 50
0.0
 71
     0
 42
0.09375
  3
AMGDT
  4

  0
ENDTAB
  0
TABLE
  2
VIEW
  5
6
330
0
100
AcDbSymbolTable
 70
     0
  0
ENDTAB
  0
TABLE
  2
UCS
  5
7
330
0
100
AcDbSymbolTable
 70
     0
  0
ENDTAB
  0
TABLE
  2
APPID
  5
9
330
0
100
AcDbSymbolTable
 70
    11
  0
APPID
  5
12
330
9
100
AcDbSymbolTableRecord
100
AcDbRegAppTableRecord
  2
ACAD
 70
     0
  0
APPID
  5
3E3
330
9
100
AcDbSymbolTableRecord
100
AcDbRegAppTableRecord
  2
DCO15
 70
     0
  0
APPID
  5
4A5B
330
9
100
AcDbSymbolTableRecord
100
AcDbRegAppTableRecord
  2
MCAD_NO_VIS
 70
     0
  0
APPID
  5
4A5C
330
9
100
AcDbSymbolTableRecord
100
AcDbRegAppTableRecord
  2
ACAD_TEMP_GRAPHIC
 70
     0
  0
APPID
  5
4A8A
330
9
100
AcDbSymbolTableRecord
100
AcDbRegAppTableRecord
  2
AD_DRAW
 70
     0
  0
APPID
  5
4A8D
330
9
100
AcDbSymbolTableRecord
100
AcDbRegAppTableRecord
  2
ACATTRIBSERVICES
 70
     0
  0
APPID
  5
4AAD
330
9
100
AcDbSymbolTableRecord
100
AcDbRegAppTableRecord
  2
DESIGNERASSEMBLIES
 70
     0
  0
APPID
  5
4AB3
330
9
100
AcDbSymbolTableRecord
100
AcDbRegAppTableRecord
  2
ACADM_DIM_EDIT
 70
     0
  0
APPID
  5
4AB4
330
9
100
AcDbSymbolTableRecord
100
AcDbRegAppTableRecord
  2
AMDT_DM_ADJ
 70
     0
  0
APPID
  5
4AE1
330
9
100
AcDbSymbolTableRecord
100
AcDbRegAppTableRecord
  2
ACAD_DSTYLE_DIMARC_LENGTH_SYMBOL
 70
     0
  0
APPID
  5
4AE2
330
9
100
AcDbSymbolTableRecord
100
AcDbRegAppTableRecord
  2
ACAD_DSTYLE_DIMJOGGED_JOGANGLE_SYMBOL
 70
     0
  0
ENDTAB
  0
TABLE
  2
DIMSTYLE
  5
A
330
0
100
AcDbSymbolTable
 70
     7
100
AcDbDimStyleTable
 71
     1
340
3B8
  0
DIMSTYLE
105
3B8
330
A
100
AcDbSymbolTableRecord
100
AcDbDimStyleTableRecord
  2
Standard
 70
     0
 41
0.15
 44
0.0625
140
0.09
176
     1
177
     1
178
     7
340
11
  0
DIMSTYLE
105
4AE0
330
A
100
AcDbSymbolTableRecord
100
AcDbDimStyleTableRecord
  2
AM_ANSI
 70
     0
  4
mm
 41
0.1
 42
0.05
 43
0.5
 44
0.1
 47
0.1
 48
0.1
 78
     7
 79
     2
140
0.12
141
0.0
146
0.71
147
0.06
176
   256
177
   256
178
     2
274
     4
284
     7
340
11
371
    -1
372
    -1
1001
ACAD_DSTYLE_DIMARC_LENGTH_SYMBOL
1070
   379
1070
     1
1001
ACAD_DSTYLE_DIMJOGGED_JOGANGLE_SYMBOL
1070
   384
1040
0.7853981633974483
  0
DIMSTYLE
105
4AE9
330
A
100
AcDbSymbolTableRecord
100
AcDbDimStyleTableRecord
  2
AM_ANSI$3
 70
     0
  4
mm
 41
0.1
 42
0.05
 43
0.5
 44
0.1
 47
0.1
 48
0.1
 78
     7
 79
     2
140
0.12
141
0.0
146
0.71
147
0.06
176
   256
177
   256
178
     2
274
     4
284
     7
288
     1
289
     0
340
11
371
    -1
372
    -1
1001
ACAD_DSTYLE_DIMARC_LENGTH_SYMBOL
1070
   379
1070
     1
1001
ACAD_DSTYLE_DIMJOGGED_JOGANGLE_SYMBOL
1070
   384
1040
0.7853981633974483
  0
DIMSTYLE
105
4AEC
330
A
100
AcDbSymbolTableRecord
100
AcDbDimStyleTableRecord
  2
AM_ANSI$4
 70
     0
  4
mm
 41
0.1
 42
0.05
 43
0.5
 44
0.1
 47
0.1
 48
0.1
 78
     7
 79
     2
140
0.12
141
0.0
146
0.71
147
0.06
176
   256
177
   256
178
     2
274
     4
284
     7
288
     1
289
     0
340
11
371
    -1
372
    -1
1001
ACAD_DSTYLE_DIMARC_LENGTH_SYMBOL
1070
   379
1070
     1
1001
ACAD_DSTYLE_DIMJOGGED_JOGANGLE_SYMBOL
1070
   384
1040
0.7853981633974483
  0
DIMSTYLE
105
4AF1
330
A
100
AcDbSymbolTableRecord
100
AcDbDimStyleTableRecord
  2
AM_ANSI$7
 70
     0
  4
mm
 41
0.1
 42
0.05
 43
0.5
 44
0.1
 47
0.1
 48
0.1
 78
     7
 79
     2
140
0.24
141
0.0
146
0.71
147
0.06
176
   256
177
   256
178
     2
274
     4
284
     7
340
11
371
    -1
372
    -1
1001
ACAD_DSTYLE_DIMARC_LENGTH_SYMBOL
1070
   379
1070
     1
1001
ACAD_DSTYLE_DIMJOGGED_JOGANGLE_SYMBOL
1070
   384
1040
0.7853981633974483
  0
DIMSTYLE
105
4AF4
330
A
100
AcDbSymbolTableRecord
100
AcDbDimStyleTableRecord
  2
AM_ANSI$SF
 70
     0
  4
mm
 41
0.1
 42
0.05
 43
0.5
 44
0.1
 47
0.1
 48
0.1
 75
     1
 76
     1
 78
     7
 79
     2
140
0.12
141
0.0
146
0.71
147
0.06
176
   256
177
   256
178
     2
274
     4
284
     7
340
11
371
    -1
372
    -1
1001
ACAD_DSTYLE_DIMARC_LENGTH_SYMBOL
1070
   379
1070
     1
1001
ACAD_DSTYLE_DIMJOGGED_JOGANGLE_SYMBOL
1070
   384
1040
0.7853981633974483
  0
DIMSTYLE
105
4AFB
330
A
100
AcDbSymbolTableRecord
100
AcDbDimStyleTableRecord
  2
AM_ANSI$SH
 70
     0
  4
mm
 41
0.1
 42
0.05
 43
0.5
 44
0.1
 47
0.1
 48
0.1
 75
     1
 76
     1
 78
     7
 79
     2
140
0.12
141
0.0
146
0.71
147
0.06
173
     1
176
   256
177
   256
178
     2
274
     4
284
     7
340
11
343
4AF5
371
    -1
372
    -1
1001
ACAD_DSTYLE_DIMARC_LENGTH_SYMBOL
1070
   379
1070
     1
1001
ACAD_DSTYLE_DIMJOGGED_JOGANGLE_SYMBOL
1070
   384
1040
0.7853981633974483
  0
ENDTAB
  0
TABLE
  2
BLOCK_RECORD
  5
1
330
0
100
AcDbSymbolTable
 70
     3
  0
BLOCK_RECORD
  5
1E
330
1
100
AcDbSymbolTableRecord
100
AcDbBlockTableRecord
  2
*Model_Space
340
21
  0
BLOCK_RECORD
  5
1A
330
1
100
AcDbSymbolTableRecord
100
AcDbBlockTableRecord
  2
*Paper_Space
340
1D
  0
BLOCK_RECORD
  5
597
330
1
100
AcDbSymbolTableRecord
100
AcDbBlockTableRecord
  2
_OPEN
340
0
  0
BLOCK_RECORD
  5
4AF5
330
1
100
AcDbSymbolTableRecord
100
AcDbBlockTableRecord
  2
GENAXEH
340
0
  0
ENDTAB
  0
ENDSEC
  0
SECTION
  2
BLOCKS
  0
BLOCK
  5
37
330
1E
100
AcDbEntity
  8
0
100
AcDbBlockBegin
  2
*Model_Space
 70
     0
 10
0.0
 20
0.0
 30
0.0
  3
*Model_Space
  1

  0
ENDBLK
  5
38
330
1E
100
AcDbEntity
  8
0
100
AcDbBlockEnd
  0
BLOCK
  5
35
330
1A
100
AcDbEntity
 67
     1
  8
0
100
AcDbBlockBegin
  2
*Paper_Space
 70
     0
 10
0.0
 20
0.0
 30
0.0
  3
*Paper_Space
  1

  0
ENDBLK
  5
36
330
1A
100
AcDbEntity
 67
     1
  8
0
100
AcDbBlockEnd
  0
BLOCK
  5
59B
330
597
100
AcDbEntity
  8
0
100
AcDbBlockBegin
  2
_OPEN
 70
     0
 10
0.0
 20
0.0
 30
0.0
  3
_OPEN
  1

  0
LINE
  5
598
330
597
100
AcDbEntity
  8
0
  6
ByBlock
 62
     0
100
AcDbLine
 10
-1.0
 20
0.1666666666666666
 30
0.0
 11
0.0
 21
0.0
 31
0.0
  0
LINE
  5
599
330
597
100
AcDbEntity
  8
0
  6
ByBlock
 62
     0
100
AcDbLine
 10
0.0
 20
0.0
 30
0.0
 11
-1.0
 21
-0.1666666666666666
 31
0.0
  0
LINE
  5
59A
330
597
100
AcDbEntity
  8
0
  6
ByBlock
 62
     0
100
AcDbLine
 10
0.0
 20
0.0
 30
0.0
 11
-1.0
 21
0.0
 31
0.0
  0
ENDBLK
  5
59C
330
597
100
AcDbEntity
  8
0
100
AcDbBlockEnd
  0
BLOCK
  5
4AF7
330
4AF5
100
AcDbEntity
  8
0
100
AcDbBlockBegin
  2
GENAXEH
 70
     0
 10
0.0
 20
0.0
 30
0.0
  3
GENAXEH
  1

  0
LINE
  5
4AF6
330
4AF5
100
AcDbEntity
  8
0
100
AcDbLine
 10
-1.0
 20
0.0
 30
0.0
 11
1.0
 21
0.0
 31
0.0
  0
ENDBLK
  5
4AF8
330
4AF5
100
AcDbEntity
  8
0
100
AcDbBlockEnd
  0
ENDSEC
  0
SECTION
  2
ENTITIES
  0
TEXT
  5
C7
330
1E
100
AcDbEntity
  8
DIM
 62
     1
100
AcDbText
 10
16.35516340111906
 20
7.313182641180002
 30
0.0
 40
0.125
  1

 50
90.0
100
AcDbText
  0
TEXT
  5
C9
330
1E
100
AcDbEntity
  8
DIM
 62
     1
100
AcDbText
 10
13.34837863483334
 20
7.179439377583786
 30
0.0
 40
0.125
  1

 50
90.0
100
AcDbText
  0
TEXT
  5
DA
330
1E
100
AcDbEntity
  8
DIM
 62
     1
100
AcDbText
 10
13.6904845814324
 20
8.486994831764484
 30
0.0
 40
0.125
  1

 50
90.0
100
AcDbText
  0
TEXT
  5
DB
330
1E
100
AcDbEntity
  8
DIM
 62
     1
100
AcDbText
 10
10.68369981514667
 20
8.353251568168268
 30
0.0
 40
0.125
  1

 50
90.0
100
AcDbText
  0
TEXT
  5
7BB
330
1E
100
AcDbEntity
  8
0
100
AcDbText
 10
14.54583576742788
 20
0.6371003189161656
 30
0.0
 40
0.1213397244080934
  1
802B-SSARXSX
  7
HELR
 72
     4
 11
15.25076178541776
 21
0.6977701811202124
 31
0.0
100
AcDbText
  0
TEXT
  5
9B3
330
1E
100
AcDbEntity
  8
DIM
 62
     1
100
AcDbText
 10
25.09672621712861
 20
7.640701491704227
 30
0.0
 40
0.125
  1

 50
90.0
100
AcDbText
  0
TEXT
  5
9B4
330
1E
100
AcDbEntity
  8
DIM
 62
     1
100
AcDbText
 10
22.08994145084288
 20
7.506958228108011
 30
0.0
 40
0.125
  1

 50
90.0
100
AcDbText
  0
TEXT
  5
9B5
330
1E
100
AcDbEntity
  8
DIM
 62
     1
100
AcDbText
 10
22.43204739744194
 20
8.814513682288708
 30
0.0
 40
0.125
  1

 50
90.0
100
AcDbText
  0
TEXT
  5
9B6
330
1E
100
AcDbEntity
  8
DIM
 62
     1
100
AcDbText
 10
19.42526263115621
 20
8.680770418692492
 30
0.0
 40
0.125
  1

 50
90.0
100
AcDbText
  0
TEXT
  5
9B7
330
1E
100
AcDbEntity
  8
0
100
AcDbText
 10
11.51472627349514
 20
1.620220178285536
 30
0.0
 40
0.1213397244080934
  1
OUTLINE DRAWING
  7
HELR
 72
     4
 11
12.3236577695491
 21
1.680890040489583
 31
0.0
100
AcDbText
  0
TEXT
  5
9B8
330
1E
100
AcDbEntity
  8
0
100
AcDbText
 10
12.10986873130627
 20
1.420866795770394
 30
0.0
 40
0.1213397244080934
  1
802B
  7
HELR
 72
     4
 11
12.3236577695491
 21
1.481536657974441
 31
0.0
100
AcDbText
  0
TEXT
  5
9B9
330
1E
100
AcDbEntity
  8
0
100
AcDbText
 10
11.26337970150695
 20
1.221513413255252
 30
0.0
 40
0.1213397244080934
  1
COMPACT LIMIT SWITCH
  7
HELR
 72
     4
 11
12.3236577695491
 21
1.282183275459299
 31
0.0
100
AcDbText
  0
TEXT
  5
3F15
330
1E
100
AcDbEntity
  8
FORM
100
AcDbText
 10
13.37613044214886
 20
10.59631187162067
 30
0.0
 40
0.08
  1
REVISIONS
 72
     4
 11
13.7094637754822
 21
10.63631187162067
 31
0.0
100
AcDbText
  0
TEXT
  5
3F16
330
1E
100
AcDbEntity
  8
FORM
100
AcDbText
 10
13.73530506185902
 20
10.38129937162067
 30
0.0
 40
0.06
  1
DESCRIPTION
 72
     4
 11
14.03530506185902
 21
10.41129937162067
 31
0.0
100
AcDbText
  0
TEXT
  5
3F17
330
1E
100
AcDbEntity
  8
FORM
100
AcDbText
 10
11.7146780754822
 20
10.38129937162067
 30
0.0
 40
0.06
  1
REV.
 72
     4
 11
11.8146780754822
 21
10.41129937162067
 31
0.0
100
AcDbText
  0
TEXT
  5
3F18
330
1E
100
AcDbEntity
  8
FORM
100
AcDbText
 10
16.14906399964001
 20
10.38129937162067
 30
0.0
 40
0.06
  1
DRAFTER
 72
     4
 11
16.34906399964001
 21
10.41129937162067
 31
0.0
100
AcDbText
  0
LINE
  5
3F19
330
1E
100
AcDbEntity
  8
FORM
100
AcDbLine
 10
0.1042494754821988
 20
0.3013358716206689
 30
0.0
 11
0.1042494754821988
 21
10.76133587162067
 31
0.0
  0
LINE
  5
3F1A
330
1E
100
AcDbEntity
  8
FORM
100
AcDbLine
 10
0.1042494754821988
 20
10.76133587162067
 30
0.0
 11
16.5642494754822
 21
10.76133587162067
 31
0.0
  0
LINE
  5
3F1B
330
1E
100
AcDbEntity
  8
FORM
100
AcDbLine
 10
16.5642494754822
 20
10.76133587162067
 30
0.0
 11
16.5642494754822
 21
0.3013358716206689
 31
0.0
  0
LINE
  5
3F1C
330
1E
100
AcDbEntity
  8
FORM
100
AcDbLine
 10
16.5642494754822
 20
0.3013358716206689
 30
0.0
 11
0.1042494754821988
 21
0.3013358716206689
 31
0.0
  0
LINE
  5
3F1D
330
1E
100
AcDbEntity
  8
FORM
100
AcDbLine
 10
16.5642494754822
 20
10.51128787162067
 30
0.0
 11
11.6946780754822
 21
10.51128787162067
 31
0.0
  0
LINE
  5
3F1E
330
1E
100
AcDbEntity
  8
FORM
100
AcDbLine
 10
16.5642494754822
 20
10.31131087162067
 30
0.0
 11
11.6946780754822
 21
10.31131087162067
 31
0.0
  0
LINE
  5
3F1F
330
1E
100
AcDbEntity
  8
FORM
100
AcDbLine
 10
11.6946780754822
 20
10.1116735987442
 30
0.0
 11
11.6946780754822
 21
10.76133587162067
 31
0.0
  0
LINE
  5
3F20
330
1E
100
AcDbEntity
  8
FORM
100
AcDbLine
 10
11.93467807548219
 20
10.1116735987442
 30
0.0
 11
11.93467807548219
 21
10.51128787162067
 31
0.0
  0
LINE
  5
3F21
330
1E
100
AcDbEntity
  8
FORM
100
AcDbLine
 10
16.13593204823584
 20
10.1116735987442
 30
0.0
 11
16.13593204823584
 21
10.51128787162067
 31
0.0
  0
LINE
  5
3F22
330
1E
100
AcDbEntity
  8
FORM
100
AcDbLine
 10
16.54425243591942
 20
10.1116735987442
 30
0.0
 11
11.67468103591941
 21
10.1116735987442
 31
0.0
  0
TEXT
  5
3F23
330
1E
100
AcDbEntity
  8
FORM
100
AcDbText
 10
11.8046780754822
 20
10.1814922222368
 30
0.0
 40
0.06
  1
1
 72
     4
 11
11.8146780754822
 21
10.2114922222368
 31
0.0
100
AcDbText
  0
TEXT
  5
3F24
330
1E
100
AcDbEntity
  8
FORM
100
AcDbText
 10
12.08889710857868
 20
10.1814922222368
 30
0.0
 40
0.06
  1
CREATED
 72
     4
 11
12.28889710857868
 21
10.2114922222368
 31
0.0
100
AcDbText
  0
TEXT
  5
3F25
330
1E
100
AcDbEntity
  8
FORM
100
AcDbText
 10
16.26906399964001
 20
10.1814922222368
 30
0.0
 40
0.06
  1
MJL
 72
     4
 11
16.34906399964001
 21
10.2114922222368
 31
0.0
100
AcDbText
  0
TEXT
  5
3F26
330
1E
100
AcDbEntity
  8
BORDER
100
AcDbText
 10
14.24675382472929
 20
1.832088277798209
 30
0.0
 40
0.08
  1
FOR TECHNICAL SUPPORT CALL
100
AcDbText
  0
LINE
  5
3F27
330
1E
100
AcDbEntity
  8
BORDER
 62
     7
100
AcDbLine
 10
8.164214953796033
 20
0.880152121685807
 30
0.0
 11
10.6742212964188
 21
0.880152121685807
 31
0.0
  0
LINE
  5
3F28
330
1E
100
AcDbEntity
  8
BORDER
 62
     7
100
AcDbLine
 10
8.164214953796033
 20
0.5965697534844594
 30
0.0
 11
10.6742212964188
 21
0.5965697534844594
 31
0.0
  0
LINE
  5
3F29
330
1E
100
AcDbEntity
  8
BORDER
 62
     7
100
AcDbLine
 10
8.164214953796033
 20
2.310664685980217
 30
0.0
 11
16.5642494754822
 21
2.310664685980217
 31
0.0
  0
CIRCLE
  5
3F2A
330
1E
100
AcDbEntity
  8
BORDER
100
AcDbCircle
 10
8.975235392842808
 20
1.629187519764812
 30
0.0
 40
0.1399439102212038
  0
CIRCLE
  5
3F2B
330
1E
100
AcDbEntity
  8
BORDER
100
AcDbCircle
 10
8.975235392842808
 20
1.629187519764812
 30
0.0
 40
0.2350004304560674
  0
LINE
  5
3F2C
330
1E
100
AcDbEntity
  8
BORDER
 62
     7
100
AcDbLine
 10
10.6626304614487
 20
0.5918000678843392
 30
0.0
 11
14.07264668340649
 21
0.5918000678843392
 31
0.0
  0
TEXT
  5
3F2E
330
1E
100
AcDbEntity
  8
BORDER
100
AcDbText
 10
8.252778585122825
 20
2.073417411838359
 30
0.0
 40
0.06
  1
DIMENSIONS ARE IN MM [INCHES]
  7
ROMANS
100
AcDbText
  0
LINE
  5
3F2F
330
1E
100
AcDbEntity
  8
BORDER
 62
     7
100
AcDbLine
 10
10.6742212964188
 20
1.988654942763002
 30
0.0
 11
8.164214953796033
 21
1.988654942763002
 31
0.0
  0
LINE
  5
3F30
330
1E
100
AcDbEntity
  8
BORDER
 62
     7
100
AcDbLine
 10
8.164214953796033
 20
1.163768028334882
 30
0.0
 11
10.6742212964188
 21
1.163768028334882
 31
0.0
  0
TEXT
  5
3F31
330
1E
100
AcDbEntity
  8
BORDER
100
AcDbText
 10
8.231050836667568
 20
2.185660268230411
 30
0.0
 40
0.06
  1
UNLESS OTHERWISE SPECIFIED
  7
ROMANS
 72
     4
 11
8.929622265238997
 21
2.215660268230411
 31
0.0
100
AcDbText
  0
LINE
  5
3F32
330
1E
100
AcDbEntity
  8
BORDER
 62
     7
100
AcDbLine
 10
8.164214953796033
 20
2.310664685980217
 30
0.0
 11
8.164214953796033
 21
0.3013358716206689
 31
0.0
  0
LINE
  5
3F33
330
1E
100
AcDbEntity
  8
BORDER
100
AcDbLine
 10
10.05345745430098
 20
1.86418795022088
 30
0.0
 11
10.05345745430098
 21
1.394187089308745
 31
0.0
  0
LINE
  5
3F34
330
1E
100
AcDbEntity
  8
BORDER
100
AcDbLine
 10
9.469758293584561
 20
1.769131429986016
 30
0.0
 11
9.469758293584561
 21
1.489243609543608
 31
0.0
  0
TEXT
  5
3F35
330
1E
100
AcDbEntity
  8
BORDER
100
AcDbText
 10
14.75034761914786
 20
1.677567584262366
 30
0.0
 40
0.08
  1
+1 440.646.5800
100
AcDbText
  0
TEXT
  5
3F36
330
1E
100
AcDbEntity
  8
BORDER
100
AcDbText
 10
8.849680802323176
 20
1.224269202352133
 30
0.0
 40
0.06
  1
THIRD ANGLE PROJECTION
  7
ROMANS
 72
     4
 11
9.438252230894605
 21
1.254269202352134
 31
0.0
100
AcDbText
  0
LINE
  5
3F37
330
1E
100
AcDbEntity
  8
BORDER
100
AcDbLine
 10
10.05345745430098
 20
1.394187089308745
 30
0.0
 11
9.469758293584561
 21
1.489243609543608
 31
0.0
  0
LINE
  5
3F38
330
1E
100
AcDbEntity
  8
BORDER
100
AcDbLine
 10
10.05345745430098
 20
1.86418795022088
 30
0.0
 11
9.469758293584561
 21
1.769131429986016
 31
0.0
  0
TEXT
  5
3F39
330
1E
100
AcDbEntity
  8
BORDER
100
AcDbText
 10
8.252838918385634
 20
0.9937680024362871
 30
0.0
 40
0.07
  1
MATERIAL:    N/A
  7
ROMANS
 11
8.252838918385634
 21
1.063768002436287
 31
0.0
100
AcDbText
 73
     3
  0
TEXT
  5
3F3A
330
1E
100
AcDbEntity
  8
BORDER
100
AcDbText
 10
8.252838918385634
 20
0.7101520957872121
 30
0.0
 40
0.07
  1
FINISH:    N/A
  7
ROMANS
 11
8.252838918385634
 21
0.7801520957872122
 31
0.0
100
AcDbText
 73
     3
  0
TEXT
  5
3F3B
330
1E
100
AcDbEntity
  8
BORDER
100
AcDbText
 10
8.241657103055366
 20
0.4098107168812891
 30
0.0
 40
0.07
  1
SCALE:    1 : 1
  7
ROMANS
 11
8.241657103055366
 21
0.4798107168812891
 31
0.0
100
AcDbText
 73
     3
  0
LINE
  5
3F3C
330
1E
100
AcDbEntity
  8
BORDER
 62
     7
100
AcDbLine
 10
12.50422129641874
 20
0.5918000678843392
 30
0.0
 11
12.50422129641873
 21
0.3013358716206689
 31
0.0
  0
TEXT
  5
3F3D
330
1E
100
AcDbEntity
  8
BORDER
100
AcDbText
 10
11.16346154336717
 20
0.3816849826689754
 30
0.0
 40
0.09
  1
B. FORTIER
  7
ROMANS
100
AcDbText
  0
LINE
  5
3F3E
330
1E
100
AcDbEntity
  8
BORDER
 62
     7
100
AcDbLine
 10
10.6742212964188
 20
2.310664685980217
 30
0.0
 11
10.6742212964188
 21
0.3013358716206689
 31
0.0
  0
TEXT
  5
3F3F
330
1E
100
AcDbEntity
  8
BORDER
100
AcDbText
 10
10.74583298220857
 20
0.3910254962221138
 30
0.0
 40
0.1
  1
DRW.
  7
ROMANS
 11
10.74583298220857
 21
0.4410254962221139
 31
0.0
100
AcDbText
 73
     2
  0
TEXT
  5
3F40
330
1E
100
AcDbEntity
  8
BORDER
100
AcDbText
 10
12.61209870062048
 20
0.3935679008708526
 30
0.0
 40
0.1
  1
DATE
  7
ROMANS
100
AcDbText
  0
LINE
  5
3F43
330
1E
100
AcDbEntity
  8
BORDER
 62
     7
100
AcDbLine
 10
16.16423529139655
 20
0.7613526737798431
 30
0.0
 11
16.5642494754822
 21
0.7613526737798431
 31
0.0
  0
TEXT
  5
3F44
330
1E
100
AcDbEntity
  8
BORDER
100
AcDbText
 10
16.26023335346775
 20
0.7914822653982334
 30
0.0
 40
0.06
  1
REV.
  7
ROMANS
100
AcDbText
  0
TEXT
  5
3F45
330
1E
100
AcDbEntity
  8
BORDER
100
AcDbText
 10
14.17297786485456
 20
2.008125303149491
 30
0.0
 40
0.12
  1
ROCKWELL AUTOMATION
100
AcDbText
  0
TEXT
  5
3F46
330
1E
100
AcDbEntity
  8
BORDER
100
AcDbText
 10
14.15686668632682
 20
1.240125519652671
 30
0.0
 40
0.06
  1
ROCKWELL AUTOMATION AND MAY NOT COPIED,
100
AcDbText
  0
TEXT
  5
3F47
330
1E
100
AcDbEntity
  8
BORDER
100
AcDbText
 10
14.15686668632682
 20
1.140125519652649
 30
0.0
 40
0.06
  1
USED OR DISCLOSED FOR ANY PURPOSE EXCEPT 
100
AcDbText
  0
LINE
  5
3F48
330
1E
100
AcDbEntity
  8
BORDER
 62
     7
100
AcDbLine
 10
14.08423751837659
 20
0.5013329898443751
 30
0.0
 11
16.5642494754822
 21
0.5013329898443751
 31
0.0
  0
LINE
  5
3F49
330
1E
100
AcDbEntity
  8
BORDER
 62
     7
100
AcDbLine
 10
14.08423751837659
 20
0.8813526737798476
 30
0.0
 11
16.5642494754822
 21
0.8813526737798476
 31
0.0
  0
LINE
  5
3F4A
330
1E
100
AcDbEntity
  8
BORDER
 62
     7
100
AcDbLine
 10
14.08423751837659
 20
1.483895532676335
 30
0.0
 11
16.5642494754822
 21
1.483895532676335
 31
0.0
  0
TEXT
  5
3F4B
330
1E
100
AcDbEntity
  8
BORDER
100
AcDbText
 10
15.20172277357306
 20
0.3513358716206802
 30
0.0
 40
0.0781
  1
1
  7
ROMANS
100
AcDbText
  0
TEXT
  5
3F4C
330
1E
100
AcDbEntity
  8
BORDER
100
AcDbText
 10
16.07672277357307
 20
0.3513358716206802
 30
0.0
 40
0.0781
  1
1
  7
ROMANS
100
AcDbText
  0
TEXT
  5
3F4D
330
1E
100
AcDbEntity
  8
BORDER
100
AcDbText
 10
14.45808700369694
 20
0.3539194570580584
 30
0.0
 40
0.1
  1
B
  7
ROMANS
 72
     1
 11
14.51046795607789
 21
0.3539194570580584
 31
0.0
100
AcDbText
  0
LINE
  5
3F4E
330
1E
100
AcDbEntity
  8
BORDER
 62
     7
100
AcDbLine
 10
14.08423751837659
 20
0.3013358716206689
 30
0.0
 11
14.08423751837659
 21
2.310664685980217
 31
0.0
  0
TEXT
  5
3F4F
330
1E
100
AcDbEntity
  8
BORDER
100
AcDbText
 10
14.13838683215874
 20
0.3538095471564908
 30
0.0
 40
0.08
  1
SIZE   SHEET         OF     
  7
ROMANS
100
AcDbText
  0
TEXT
  5
3F50
330
1E
100
AcDbEntity
  8
BORDER
100
AcDbText
 10
14.15686668632682
 20
1.340125519652666
 30
0.0
 40
0.06
  1
THIS DRAWING IS PROPERTY OF
100
AcDbText
  0
TEXT
  5
3F51
330
1E
100
AcDbEntity
  8
BORDER
100
AcDbText
 10
14.15686668632682
 20
1.040125519652654
 30
0.0
 40
0.06
  1
AS AUTHORIZED IN WRITING BY
100
AcDbText
  0
TEXT
  5
3F52
330
1E
100
AcDbEntity
  8
BORDER
100
AcDbText
 10
14.15686668632682
 20
0.9401255196526605
 30
0.0
 40
0.06
  1
ROCKWELL AUTOMATION.
100
AcDbText
  0
TEXT
  5
3F53
330
1E
100
AcDbEntity
  8
BORDER
100
AcDbText
 10
13.1261292903136
 20
0.3963337397533344
 30
0.0
 40
0.09375
  1
10/11/06
  7
ROMANS
100
AcDbText
  0
TEXT
  5
3F54
330
1E
100
AcDbEntity
  8
BORDER
100
AcDbText
 10
14.13838683215874
 20
0.7411669347464205
 30
0.0
 40
0.06
  1
DWG.
  7
ROMANS
100
AcDbText
  0
TEXT
  5
3F55
330
1E
100
AcDbEntity
  8
BORDER
100
AcDbText
 10
14.13838683215874
 20
0.6078336014130948
 30
0.0
 40
0.06
  1
NO.
  7
ROMANS
100
AcDbText
  0
LINE
  5
3F57
330
1E
100
AcDbEntity
  8
BORDER
 62
     7
100
AcDbLine
 10
16.16423529139655
 20
0.8813526737798476
 30
0.0
 11
16.16423529139655
 21
0.5013329898443751
 31
0.0
  0
TEXT
  5
3F58
330
1E
100
AcDbEntity
  8
BORDER
100
AcDbText
 10
16.2988682206034
 20
0.5895054857508378
 30
0.0
 40
0.1
  1
1
  7
ROMANS
 72
     1
 11
16.33934441107959
 21
0.5895054857508378
 31
0.0
100
AcDbText
  0
ARC
  5
42EF
330
1E
100
AcDbEntity
  8
OBJECT
 62
     7
100
AcDbCircle
 10
9.949086981120087
 20
5.42031243669598
 30
0.0
 40
0.1975390280867369
100
AcDbArc
 50
270.0
 51
0.0
  0
ARC
  5
42F1
330
1E
100
AcDbEntity
  8
OBJECT
 62
     7
100
AcDbCircle
 10
9.949086981120087
 20
5.815390492869457
 30
0.0
 40
0.1975390280867369
100
AcDbArc
 50
0.0
 51
90.0
  0
LINE
  5
42F6
330
1E
100
AcDbEntity
  8
OBJECT
 62
     7
100
AcDbLine
 10
10.1663799120155
 20
6.408005167153524
 30
0.0
 11
9.336715994051203
 21
6.408005167153524
 31
0.0
  0
LINE
  5
42F8
330
1E
100
AcDbEntity
  8
CENTER
 62
     3
100
AcDbLine
 10
9.190367233653644
 20
5.617839407000444
 30
0.0
 11
10.32628355952276
 21
5.617839407000444
 31
0.0
  0
ARC
  5
4305
330
1E
100
AcDbEntity
  8
OBJECT
 62
     7
100
AcDbCircle
 10
5.568588491226289
 20
6.388251264344848
 30
0.0
 40
0.0197539028086737
100
AcDbArc
 50
0.0
 51
90.0
  0
LINE
  5
430E
330
1E
100
AcDbEntity
  8
CENTER
 62
     3
100
AcDbLine
 10
6.288652951953996
 20
5.617839407000444
 30
0.0
 11
5.393818273453248
 21
5.617839407000444
 31
0.0
  0
LINE
  5
430F
330
1E
100
AcDbEntity
  8
OBJECT
 62
     7
100
AcDbLine
 10
3.478624459948493
 20
5.815388683411963
 30
0.0
 11
5.588342394034969
 21
5.815388683411963
 31
0.0
  0
LINE
  5
4310
330
1E
100
AcDbEntity
  8
OBJECT
 62
     7
100
AcDbLine
 10
3.510237306196689
 20
5.301776962061665
 30
0.0
 11
5.596247751858555
 21
5.301776962061665
 31
0.0
  0
LINE
  5
4318
330
1E
100
AcDbEntity
  8
CENTER
 62
     3
100
AcDbLine
 10
4.114701125984488
 20
7.421557976726298
 30
0.0
 11
4.114701125984488
 21
6.549980614959057
 31
0.0
  0
ARC
  5
4323
330
1E
100
AcDbEntity
  8
OBJECT
 62
     7
100
AcDbCircle
 10
3.833541231645806
 20
5.854896489029307
 30
0.0
 40
0.0395078056173474
100
AcDbArc
 50
180.9548035
 51
270.0
  0
LINE
  5
432A
330
1E
100
AcDbEntity
  8
OBJECT
 62
     7
100
AcDbLine
 10
3.450975597770671
 20
5.361038670487692
 30
0.0
 11
3.450975597770671
 21
6.198605836558751
 31
0.0
  0
ARC
  5
4330
330
1E
100
AcDbEntity
  8
OBJECT
 62
     7
100
AcDbCircle
 10
3.510237306196689
 20
5.361038670487692
 30
0.0
 40
0.0592617084260211
100
AcDbArc
 50
180.0
 51
270.0
  0
LINE
  5
4336
330
1E
100
AcDbEntity
  8
OBJECT
 62
     7
100
AcDbLine
 10
3.784809953482941
 20
6.408005167153524
 30
0.0
 11
3.794038095851089
 21
5.85423487156254
 31
0.0
  0
LINE
  5
4337
330
1E
100
AcDbEntity
  8
OBJECT
 62
     7
100
AcDbLine
 10
3.478624459948493
 20
5.815388683411963
 30
0.0
 11
3.478624459948493
 21
6.388251264344848
 31
0.0
  0
LINE
  5
433D
330
1E
100
AcDbEntity
  8
OBJECT
 62
     7
100
AcDbLine
 10
3.450970923997271
 20
6.261826404892756
 30
0.0
 11
3.478624459948493
 21
6.261826404892756
 31
0.0
  0
LINE
  5
433E
330
1E
100
AcDbEntity
  8
OBJECT
 62
     7
100
AcDbLine
 10
3.450970923997271
 20
5.939831400699203
 30
0.0
 11
3.478624459948493
 21
5.939831400699203
 31
0.0
  0
LINE
  5
433F
330
1E
100
AcDbEntity
  8
OBJECT
 62
     7
100
AcDbLine
 10
3.450970923997271
 20
5.941815952840196
 30
0.0
 11
3.450970923997271
 21
6.261826404892756
 31
0.0
  0
ARC
  5
4349
330
1E
100
AcDbEntity
  8
OBJECT
 62
     7
100
AcDbCircle
 10
3.498378362757168
 20
6.388251264344848
 30
0.0
 40
0.0197539028086737
100
AcDbArc
 50
90.0
 51
180.0
  0
LINE
  5
4355
330
1E
100
AcDbEntity
  8
OBJECT
 62
     7
100
AcDbLine
 10
4.278657373570121
 20
6.408005167153524
 30
0.0
 11
4.269429077121532
 21
5.85423487156254
 31
0.0
  0
ARC
  5
4356
330
1E
100
AcDbEntity
  8
OBJECT
 62
     7
100
AcDbCircle
 10
4.229926095407247
 20
5.854896489029307
 30
0.0
 40
0.0395078056173474
100
AcDbArc
 50
270.0
 51
359.0451965
  0
LINE
  5
4357
330
1E
100
AcDbEntity
  8
CENTER
 62
     3
100
AcDbLine
 10
4.031733738591359
 20
5.828602494712648
 30
0.0
 11
4.031733738591359
 21
6.218096382305537
 31
0.0
  0
CIRCLE
  5
4358
330
1E
100
AcDbEntity
  8
OBJECT
 62
     7
100
AcDbCircle
 10
4.031733738591359
 20
6.012927711498697
 30
0.0
 40
0.0849417860280775
  0
CIRCLE
  5
435A
330
1E
100
AcDbEntity
  8
OBJECT
 62
     7
100
AcDbCircle
 10
4.031733738591359
 20
6.012929520956195
 30
0.0
 40
0.1027202906543226
  0
CIRCLE
  5
435C
330
1E
100
AcDbEntity
  8
OBJECT
 62
     7
100
AcDbCircle
 10
4.031733738591359
 20
6.012927711498697
 30
0.0
 40
0.1027202906543226
  0
CIRCLE
  5
435D
330
1E
100
AcDbEntity
  8
OBJECT
 62
     7
100
AcDbCircle
 10
4.031733738591359
 20
6.012927711498697
 30
0.0
 40
0.1580312224693895
  0
LINE
  5
435E
330
1E
100
AcDbEntity
  8
CENTER
 62
     3
100
AcDbLine
 10
3.829218617930354
 20
6.012929520956195
 30
0.0
 11
4.232465054746562
 21
6.012929520956195
 31
0.0
  0
LINE
  5
4364
330
1E
100
AcDbEntity
  8
OBJECT
 62
     7
100
AcDbLine
 10
5.282156600241197
 20
6.408005167153524
 30
0.0
 11
5.272925893816468
 21
5.854172476885123
 31
0.0
  0
LINE
  5
4365
330
1E
100
AcDbEntity
  8
OBJECT
 62
     7
100
AcDbLine
 10
4.797537022262844
 20
5.85423487156254
 30
0.0
 11
4.788309030024358
 21
6.408005167153524
 31
0.0
  0
CIRCLE
  5
4366
330
1E
100
AcDbEntity
  8
OBJECT
 62
     7
100
AcDbCircle
 10
5.035232815132777
 20
6.012927711498697
 30
0.0
 40
0.1580312224693895
  0
LINE
  5
4367
330
1E
100
AcDbEntity
  8
CENTER
 62
     3
100
AcDbLine
 10
4.82821736539128
 20
6.012929520956195
 30
0.0
 11
5.253965649746092
 21
6.012929520956195
 31
0.0
  0
LINE
  5
436A
330
1E
100
AcDbEntity
  8
CENTER
 62
     3
100
AcDbLine
 10
5.035232815132777
 20
5.828602494712648
 30
0.0
 11
5.035232815132777
 21
6.218096382305541
 31
0.0
  0
ARC
  5
436B
330
1E
100
AcDbEntity
  8
OBJECT
 62
     7
100
AcDbCircle
 10
4.837040308187228
 20
5.854896489029307
 30
0.0
 40
0.0395078056173474
100
AcDbArc
 50
180.9548035
 51
270.0
  0
CIRCLE
  5
436D
330
1E
100
AcDbEntity
  8
OBJECT
 62
     7
100
AcDbCircle
 10
5.035232815132777
 20
6.012929520956195
 30
0.0
 40
0.1027202906543226
  0
CIRCLE
  5
436E
330
1E
100
AcDbEntity
  8
OBJECT
 62
     7
100
AcDbCircle
 10
5.035232815132777
 20
6.012927711498697
 30
0.0
 40
0.1027202906543226
  0
CIRCLE
  5
436F
330
1E
100
AcDbEntity
  8
OBJECT
 62
     7
100
AcDbCircle
 10
5.035232815132777
 20
6.012927711498697
 30
0.0
 40
0.0849417860280775
  0
ARC
  5
4370
330
1E
100
AcDbEntity
  8
OBJECT
 62
     7
100
AcDbCircle
 10
5.233425322078327
 20
5.854896489029307
 30
0.0
 40
0.0395078056173474
100
AcDbArc
 50
270.0
 51
359.0451049999999
  0
LINE
  5
4396
330
1E
100
AcDbEntity
  8
CENTER
 62
     3
100
AcDbLine
 10
9.751547953033345
 20
7.396569601784987
 30
0.0
 11
9.751547953033345
 21
5.161155794423335
 31
0.0
  0
LINE
  5
439A
330
1E
100
AcDbEntity
  8
OBJECT
 62
     7
100
AcDbLine
 10
5.62784628047799
 20
5.222773408609252
 30
0.0
 11
5.62784628047799
 21
6.012929520956195
 31
0.0
  0
LINE
  5
439B
330
1E
100
AcDbEntity
  8
OBJECT
 62
     7
100
AcDbLine
 10
6.220463364738206
 20
5.400558533887306
 30
0.0
 11
6.220463364738206
 21
5.835144395678131
 31
0.0
  0
LINE
  5
439C
330
1E
100
AcDbEntity
  8
OBJECT
 62
     7
100
AcDbLine
 10
5.983416531034118
 20
5.973421715338851
 30
0.0
 11
5.983416531034118
 21
5.262281214226595
 31
0.0
  0
LINE
  5
439D
330
1E
100
AcDbEntity
  8
OBJECT
 62
     7
100
AcDbLine
 10
5.61599773944369
 20
5.321526040967271
 30
0.0
 11
5.61599773944369
 21
6.261826404892756
 31
0.0
  0
ARC
  5
439F
330
1E
100
AcDbEntity
  8
OBJECT
 62
     7
100
AcDbCircle
 10
5.943908725416779
 20
5.262281214226595
 30
0.0
 40
0.0395078056173474
100
AcDbArc
 50
270.0
 51
0.0
  0
LINE
  5
43A4
330
1E
100
AcDbEntity
  8
OBJECT
 62
     7
100
AcDbLine
 10
5.62784628047799
 20
5.222773408609252
 30
0.0
 11
5.943908725416779
 21
5.222773408609252
 31
0.0
  0
LINE
  5
43A9
330
1E
100
AcDbEntity
  8
OBJECT
 62
     7
100
AcDbLine
 10
5.983416531034118
 20
5.380804631078632
 30
0.0
 11
6.200709461929525
 21
5.380804631078632
 31
0.0
  0
LINE
  5
43AA
330
1E
100
AcDbEntity
  8
OBJECT
 62
     7
100
AcDbLine
 10
5.62784628047799
 20
5.333376095150534
 30
0.0
 11
5.616001654667225
 21
5.321530864870338
 31
0.0
  0
ARC
  5
43AB
330
1E
100
AcDbEntity
  8
OBJECT
 62
     7
100
AcDbCircle
 10
5.596247751858555
 20
5.321530864870338
 30
0.0
 40
0.0197539028086737
100
AcDbArc
 50
270.0
 51
0.0
  0
ARC
  5
43AC
330
1E
100
AcDbEntity
  8
OBJECT
 62
     7
100
AcDbCircle
 10
6.200709461929525
 20
5.400558533887306
 30
0.0
 40
0.0197539028086737
100
AcDbArc
 50
270.0
 51
0.0
  0
LINE
  5
43AF
330
1E
100
AcDbEntity
  8
OBJECT
 62
     7
100
AcDbLine
 10
5.58834239403496
 20
5.815388683411963
 30
0.0
 11
5.58834239403496
 21
6.388251264344848
 31
0.0
  0
LINE
  5
43B0
330
1E
100
AcDbEntity
  8
OBJECT
 62
     7
100
AcDbLine
 10
5.983416531034118
 20
5.854898298486806
 30
0.0
 11
6.200709461929525
 21
5.854898298486806
 31
0.0
  0
ARC
  5
43B1
330
1E
100
AcDbEntity
  8
OBJECT
 62
     7
100
AcDbCircle
 10
5.943908725416779
 20
5.973421715338851
 30
0.0
 40
0.0395078056173474
100
AcDbArc
 50
0.0
 51
90.0
  0
LINE
  5
43B2
330
1E
100
AcDbEntity
  8
OBJECT
 62
     7
100
AcDbLine
 10
5.62784628047799
 20
6.012929520956195
 30
0.0
 11
5.943908725416779
 21
6.012929520956195
 31
0.0
  0
LINE
  5
43B3
330
1E
100
AcDbEntity
  8
OBJECT
 62
     7
100
AcDbLine
 10
5.58834239403496
 20
6.261826404892756
 30
0.0
 11
5.61599773944369
 21
6.261826404892756
 31
0.0
  0
LINE
  5
43B4
330
1E
100
AcDbEntity
  8
OBJECT
 62
     7
100
AcDbLine
 10
5.58834239403496
 20
5.939831400699203
 30
0.0
 11
5.61599773944369
 21
5.939831400699203
 31
0.0
  0
LINE
  5
43B5
330
1E
100
AcDbEntity
  8
OBJECT
 62
     7
100
AcDbLine
 10
5.616001654667225
 20
5.914147949130555
 30
0.0
 11
5.62784628047799
 21
5.902305737246706
 31
0.0
  0
LINE
  5
43B6
330
1E
100
AcDbEntity
  8
OBJECT
 62
     7
100
AcDbLine
 10
5.616001654667225
 20
6.198605836558751
 30
0.0
 11
5.616001654667225
 21
5.914147949130555
 31
0.0
  0
ARC
  5
43B7
330
1E
100
AcDbEntity
  8
OBJECT
 62
     7
100
AcDbCircle
 10
6.200709461929525
 20
5.835144395678131
 30
0.0
 40
0.0197539028086737
100
AcDbArc
 50
0.0
 51
90.0
  0
LINE
  5
43BE
330
1E
100
AcDbEntity
  8
OBJECT
 62
     7
100
AcDbLine
 10
9.356469896859882
 20
5.815390492869457
 30
0.0
 11
9.356469896859882
 21
5.42031243669598
 31
0.0
  0
CIRCLE
  5
43BF
330
1E
100
AcDbEntity
  8
OBJECT
 62
     7
100
AcDbCircle
 10
9.751547953033345
 20
5.617839407000444
 30
0.0
 40
0.2370468337040843
  0
CIRCLE
  5
43C0
330
1E
100
AcDbEntity
  8
OBJECT
 62
     7
100
AcDbCircle
 10
9.751547953033345
 20
5.617839407000444
 30
0.0
 40
0.2963085421301054
  0
ARC
  5
43C2
330
1E
100
AcDbEntity
  8
OBJECT
 62
     7
100
AcDbCircle
 10
9.554008924946611
 20
5.42031243669598
 30
0.0
 40
0.1975390280867369
100
AcDbArc
 50
180.0
 51
270.0
  0
LINE
  5
43C3
330
1E
100
AcDbEntity
  8
OBJECT
 62
     7
100
AcDbLine
 10
9.554008924946611
 20
5.222773408609252
 30
0.0
 11
9.949086981120087
 21
5.222773408609252
 31
0.0
  0
CIRCLE
  5
43C8
330
1E
100
AcDbEntity
  8
OBJECT
 62
     7
100
AcDbCircle
 10
9.751547953033345
 20
5.617839407000444
 30
0.0
 40
0.1185234168520421
  0
LINE
  5
43C9
330
1E
100
AcDbEntity
  8
OBJECT
 62
     7
100
AcDbLine
 10
9.322888021087514
 20
6.389160046594346
 30
0.0
 11
9.322888021087514
 21
5.815388683411963
 31
0.0
  0
LINE
  5
43CA
330
1E
100
AcDbEntity
  8
OBJECT
 62
     7
100
AcDbLine
 10
9.554008924946611
 20
6.012929520956195
 30
0.0
 11
9.949086981120087
 21
6.012929520956195
 31
0.0
  0
LINE
  5
43CB
330
1E
100
AcDbEntity
  8
OBJECT
 62
     7
100
AcDbLine
 10
9.405854653881563
 20
6.269727847492813
 30
0.0
 11
10.09724125218514
 21
6.269727847492813
 31
0.0
  0
LINE
  5
43CC
330
1E
100
AcDbEntity
  8
OBJECT
 62
     7
100
AcDbLine
 10
9.593516730563958
 20
6.21835973936743
 30
0.0
 11
9.909579175502738
 21
6.21835973936743
 31
0.0
  0
LINE
  5
43CD
330
1E
100
AcDbEntity
  8
OBJECT
 62
     7
100
AcDbLine
 10
9.405854653881563
 20
6.261826404892756
 30
0.0
 11
9.534255022137937
 21
6.261826404892756
 31
0.0
  0
LINE
  5
43CE
330
1E
100
AcDbEntity
  8
OBJECT
 62
     7
100
AcDbLine
 10
9.534255022137937
 20
6.105762556570475
 30
0.0
 11
9.593516730563958
 21
6.105762556570475
 31
0.0
  0
LINE
  5
43CF
330
1E
100
AcDbEntity
  8
OBJECT
 62
     7
100
AcDbLine
 10
9.534255022137937
 20
6.086008653761801
 30
0.0
 11
9.593516730563958
 21
6.086008653761801
 31
0.0
  0
ARC
  5
43D0
330
1E
100
AcDbEntity
  8
OBJECT
 62
     7
100
AcDbCircle
 10
9.554008924946611
 20
5.815390492869457
 30
0.0
 40
0.1975390280867369
100
AcDbArc
 50
90.0
 51
180.0
  0
LINE
  5
43D1
330
1E
100
AcDbEntity
  8
OBJECT
 62
     7
100
AcDbLine
 10
9.322888021087514
 20
5.815388683411963
 30
0.0
 11
9.356469896859882
 21
5.815388683411963
 31
0.0
  0
LINE
  5
43D2
330
1E
100
AcDbEntity
  8
OBJECT
 62
     7
100
AcDbLine
 10
9.554008924946611
 20
6.159098030941407
 30
0.0
 11
9.554008924946611
 21
6.105762556570475
 31
0.0
  0
LINE
  5
43D3
330
1E
100
AcDbEntity
  8
OBJECT
 62
     7
100
AcDbLine
 10
9.593516730563958
 20
6.21835973936743
 30
0.0
 11
9.554008924946611
 21
6.159098030941407
 31
0.0
  0
LINE
  5
43D4
330
1E
100
AcDbEntity
  8
OBJECT
 62
     7
100
AcDbLine
 10
9.593516730563958
 20
6.105762556570475
 30
0.0
 11
9.593516730563958
 21
6.012929520956195
 31
0.0
  0
LINE
  5
43D5
330
1E
100
AcDbEntity
  8
OBJECT
 62
     7
100
AcDbLine
 10
9.405854653881563
 20
6.269727847492813
 30
0.0
 11
9.405854653881563
 21
5.946050308578312
 31
0.0
  0
LINE
  5
43D6
330
1E
100
AcDbEntity
  8
OBJECT
 62
     7
100
AcDbLine
 10
9.534255022137948
 20
6.261826404892756
 30
0.0
 11
9.534255022137948
 21
6.011938447898375
 31
0.0
  0
LINE
  5
43D7
330
1E
100
AcDbEntity
  8
OBJECT
 62
     7
100
AcDbLine
 10
9.968840883928763
 20
6.261826404892756
 30
0.0
 11
10.09724125218514
 21
6.261826404892756
 31
0.0
  0
LINE
  5
43D8
330
1E
100
AcDbEntity
  8
OBJECT
 62
     7
100
AcDbLine
 10
9.909579175502738
 20
6.105762556570475
 30
0.0
 11
9.968840883928763
 21
6.105762556570475
 31
0.0
  0
LINE
  5
43D9
330
1E
100
AcDbEntity
  8
OBJECT
 62
     7
100
AcDbLine
 10
9.909579175502738
 20
6.086008653761801
 30
0.0
 11
9.968840883928763
 21
6.086008653761801
 31
0.0
  0
LINE
  5
43DA
330
1E
100
AcDbEntity
  8
OBJECT
 62
     7
100
AcDbLine
 10
9.949086981120087
 20
6.159098030941407
 30
0.0
 11
9.949086981120087
 21
6.105762556570475
 31
0.0
  0
LINE
  5
43DB
330
1E
100
AcDbEntity
  8
OBJECT
 62
     7
100
AcDbLine
 10
9.909579175502738
 20
6.21835973936743
 30
0.0
 11
9.949086981120087
 21
6.159098030941407
 31
0.0
  0
LINE
  5
43DC
330
1E
100
AcDbEntity
  8
OBJECT
 62
     7
100
AcDbLine
 10
9.909579175502738
 20
6.105762556570475
 30
0.0
 11
9.909579175502738
 21
6.012929520956195
 31
0.0
  0
LINE
  5
43DD
330
1E
100
AcDbEntity
  8
OBJECT
 62
     7
100
AcDbLine
 10
9.668581320239312
 20
6.012929520956195
 30
0.0
 11
9.810805442025728
 21
6.012929520956195
 31
0.0
  0
LINE
  5
43DE
330
1E
100
AcDbEntity
  8
OBJECT
 62
     7
100
AcDbLine
 10
10.09724125218514
 20
6.269727847492813
 30
0.0
 11
10.09724125218514
 21
5.946050308578312
 31
0.0
  0
LINE
  5
43DF
330
1E
100
AcDbEntity
  8
OBJECT
 62
     7
100
AcDbLine
 10
9.968840883928763
 20
6.261826404892756
 30
0.0
 11
9.968840883928763
 21
6.011938447898375
 31
0.0
  0
ARC
  5
43E2
330
1E
100
AcDbEntity
  8
OBJECT
 62
     7
100
AcDbCircle
 10
9.342641923896195
 20
6.389160046594346
 30
0.0
 40
0.0197539028086737
100
AcDbArc
 50
107.4576034999999
 51
180.0
  0
LINE
  5
4400
330
1E
100
AcDbEntity
  8
OBJECT
 62
     7
100
AcDbLine
 10
10.14662600920682
 20
5.815390492869457
 30
0.0
 11
10.14662600920682
 21
5.42031243669598
 31
0.0
  0
LINE
  5
4405
330
1E
100
AcDbEntity
  8
OBJECT
 62
     7
100
AcDbLine
 10
10.18020728050976
 20
6.389160046594346
 30
0.0
 11
10.18020728050976
 21
5.815388683411963
 31
0.0
  0
LINE
  5
4406
330
1E
100
AcDbEntity
  8
OBJECT
 62
     7
100
AcDbLine
 10
10.14662600920682
 20
5.815388683411963
 30
0.0
 11
10.18020728050976
 21
5.815388683411963
 31
0.0
  0
ARC
  5
4409
330
1E
100
AcDbEntity
  8
OBJECT
 62
     7
100
AcDbCircle
 10
10.16045337770108
 20
6.389160046594346
 30
0.0
 40
0.0197539028086737
100
AcDbArc
 50
0.0
 51
72.54221339999997
  0
LINE
  5
445A
330
1E
100
AcDbEntity
  8
DIM
 62
     1
100
AcDbLine
 10
5.616001654667229
 20
5.259030864870338
 30
0.0
 11
5.616001654667229
 21
4.487776188331011
 31
0.0
  0
LINE
  5
445B
330
1E
100
AcDbEntity
  8
DIM
 62
     1
100
AcDbLine
 10
3.450975597770668
 20
5.298538670487692
 30
0.0
 11
3.450975597770668
 21
4.487776188331011
 31
0.0
  0
LINE
  5
445C
330
1E
100
AcDbEntity
  8
DIM
 62
     1
100
AcDbLine
 10
5.466001654667229
 20
4.550276188331011
 30
0.0
 11
4.796828645175071
 21
4.550276188331011
 31
0.0
  0
LINE
  5
445D
330
1E
100
AcDbEntity
  8
DIM
 62
     1
100
AcDbLine
 10
3.600975597770668
 20
4.550276188331011
 30
0.0
 11
4.270148555256334
 21
4.550276188331011
 31
0.0
  0
SOLID
  5
445E
330
1E
100
AcDbEntity
  8
DIM
 62
     1
100
AcDbTrace
 10
5.466001654667229
 20
4.575276188331011
 30
0.0
 11
5.466001654667229
 21
4.525276188331011
 31
0.0
 12
5.616001654667229
 22
4.550276188331011
 32
0.0
 13
5.616001654667229
 23
4.550276188331011
 33
0.0
  0
SOLID
  5
445F
330
1E
100
AcDbEntity
  8
DIM
 62
     1
100
AcDbTrace
 10
3.600975597770668
 20
4.575276188331011
 30
0.0
 11
3.600975597770668
 21
4.525276188331011
 31
0.0
 12
3.450975597770668
 22
4.550276188331011
 32
0.0
 13
3.450975597770668
 23
4.550276188331011
 33
0.0
  0
MTEXT
  5
4460
330
1E
100
AcDbEntity
  8
DIM
 62
     7
100
AcDbMText
 10
4.533488626218948
 20
4.550276188331011
 30
0.0
 40
0.09
 41
0.0
 71
     5
 72
     1
  1
55\P[2.165]
 73
     1
 44
1.0
1001
ACAD
1000
MTEXTBEGIN
1070
    73
1070
     1
1070
    44
1040
1.0
1070
    74
1070
     0
1000
MTEXTEND
  0
LINE
  5
4461
330
1E
100
AcDbEntity
  8
DIM
 62
     1
100
AcDbLine
 10
4.031733738591359
 20
5.808199974748059
 30
0.0
 11
4.031733738591359
 21
4.9113771274015
 31
0.0
  0
LINE
  5
4462
330
1E
100
AcDbEntity
  8
DIM
 62
     1
100
AcDbLine
 10
5.035232815132777
 20
5.808199974748059
 30
0.0
 11
5.035232815132777
 21
4.9113771274015
 31
0.0
  0
LINE
  5
4463
330
1E
100
AcDbEntity
  8
DIM
 62
     1
100
AcDbLine
 10
3.881733738591359
 20
4.9738771274015
 30
0.0
 11
3.731733738591358
 21
4.9738771274015
 31
0.0
  0
LINE
  5
4464
330
1E
100
AcDbEntity
  8
DIM
 62
     1
100
AcDbLine
 10
5.185232815132778
 20
4.9738771274015
 30
0.0
 11
5.335232815132777
 21
4.9738771274015
 31
0.0
  0
SOLID
  5
4465
330
1E
100
AcDbEntity
  8
DIM
 62
     1
100
AcDbTrace
 10
3.881733738591359
 20
4.998877127401501
 30
0.0
 11
3.881733738591359
 21
4.9488771274015
 31
0.0
 12
4.031733738591359
 22
4.9738771274015
 32
0.0
 13
4.031733738591359
 23
4.9738771274015
 33
0.0
  0
SOLID
  5
4466
330
1E
100
AcDbEntity
  8
DIM
 62
     1
100
AcDbTrace
 10
5.185232815132778
 20
4.998877127401501
 30
0.0
 11
5.185232815132778
 21
4.9488771274015
 31
0.0
 12
5.035232815132777
 22
4.9738771274015
 32
0.0
 13
5.035232815132777
 23
4.9738771274015
 33
0.0
  0
MTEXT
  5
4467
330
1E
100
AcDbEntity
  8
DIM
 62
     7
100
AcDbMText
 10
4.533483276862068
 20
4.9738771274015
 30
0.0
 40
0.09
 41
0.0
 71
     5
 72
     1
  1
25.4%%P0.15\P[1.00±0.59]
 73
     1
 44
1.0
1001
ACAD
1000
MTEXTBEGIN
1070
    73
1070
     1
1070
    44
1040
1.0
1070
    74
1070
     0
1000
MTEXTEND
  0
LINE
  5
4468
330
1E
100
AcDbEntity
  8
DIM
 62
     1
100
AcDbLine
 10
5.616001654667225
 20
5.259030864870338
 30
0.0
 11
5.616001654667225
 21
4.488413993181602
 31
0.0
  0
LINE
  5
4469
330
1E
100
AcDbEntity
  8
DIM
 62
     1
100
AcDbLine
 10
6.220463364738206
 20
5.338058533887306
 30
0.0
 11
6.220463364738206
 21
4.488413993181602
 31
0.0
  0
MTEXT
  5
446E
330
1E
100
AcDbEntity
  8
DIM
 62
     7
100
AcDbMText
 10
5.953421068492574
 20
4.550913993181602
 30
0.0
 40
0.09
 41
0.0
 71
     5
 72
     1
  1
15\P[.59]
 73
     1
 44
1.0
1001
ACAD
1000
MTEXTBEGIN
1070
    73
1070
     1
1070
    44
1040
1.0
1070
    74
1070
     0
1000
MTEXTEND
  0
SOLID
  5
446F
330
1E
100
AcDbEntity
  8
DIM
 62
     1
100
AcDbTrace
 10
6.370463364738206
 20
4.575913993181602
 30
0.0
 11
6.370463364738206
 21
4.525913993181601
 31
0.0
 12
6.220463364738206
 22
4.550913993181602
 32
0.0
 13
6.220463364738206
 23
4.550913993181602
 33
0.0
  0
LINE
  5
4470
330
1E
100
AcDbEntity
  8
DIM
 62
     1
100
AcDbLine
 10
6.526413955120552
 20
4.550913993181602
 30
0.0
 11
6.370463364738206
 21
4.550913993181602
 31
0.0
  0
MTEXT
  5
4472
330
1E
100
AcDbEntity
  8
DIM
 62
     7
100
AcDbMText
 10
7.242747459822823
 20
4.88456304244308
 30
0.0
 40
0.09
 41
0.0
 71
     5
 72
     1
  1
TOW 4.3±0.1\P[.169±.039]\PMOUNTING HOLES
 73
     1
 44
1.0
1001
ACAD
1000
MTEXTBEGIN
1070
    73
1070
     1
1070
    44
1040
1.0
1070
    74
1070
     0
1000
MTEXTEND
  0
MTEXT
  5
4473
330
1E
100
AcDbEntity
  8
DIM
 62
     7
100
AcDbMText
 10
7.845792388712375
 20
4.960991316563848
 30
0.0
 40
0.09
 41
0.0
 71
     5
 72
     1
  1
DIA
 73
     1
 44
1.0
1001
ACAD
1000
MTEXTBEGIN
1070
    73
1070
     1
1070
    44
1040
1.0
1070
    74
1070
     0
1000
MTEXTEND
  0
LINE
  5
4474
330
1E
100
AcDbEntity
  8
DIM
 62
     1
100
AcDbLine
 10
5.532729188424809
 20
6.801267180684137
 30
0.0
 11
6.126415651101453
 21
6.801267180684135
 31
0.0
  0
LINE
  5
4475
330
1E
100
AcDbEntity
  8
DIM
 62
     1
100
AcDbLine
 10
5.316465649746092
 20
6.012929520956195
 30
0.0
 11
7.859990249562585
 21
6.012929520956195
 31
0.0
  0
LINE
  5
4476
330
1E
100
AcDbEntity
  8
DIM
 62
     1
100
AcDbLine
 10
6.072813938039743
 20
6.651267180684136
 30
0.0
 11
6.072813938039743
 21
6.585760634512434
 31
0.0
  0
LINE
  5
4477
330
1E
100
AcDbEntity
  8
DIM
 62
     1
100
AcDbLine
 10
7.16044953781899
 20
6.162929520956195
 30
0.0
 11
7.16044953781899
 21
6.56329551342038
 31
0.0
  0
SOLID
  5
4478
330
1E
100
AcDbEntity
  8
DIM
 62
     1
100
AcDbTrace
 10
6.047813938039743
 20
6.651267180684136
 30
0.0
 11
6.097813938039744
 21
6.651267180684136
 31
0.0
 12
6.072813938039743
 22
6.801267180684135
 32
0.0
 13
6.072813938039743
 23
6.801267180684135
 33
0.0
  0
SOLID
  5
4479
330
1E
100
AcDbEntity
  8
DIM
 62
     1
100
AcDbTrace
 10
7.13544953781899
 20
6.162929520956195
 30
0.0
 11
7.185449537818991
 21
6.162929520956195
 31
0.0
 12
7.16044953781899
 22
6.012929520956195
 32
0.0
 13
7.16044953781899
 23
6.012929520956195
 33
0.0
  0
MTEXT
  5
447A
330
1E
100
AcDbEntity
  8
DIM
 62
     7
100
AcDbMText
 10
6.072813938039741
 20
6.405648669622776
 30
0.0
 40
0.09
 41
0.0
 71
     5
 72
     1
  1
20\P[.787]
 73
     1
 44
1.0
1001
ACAD
1000
MTEXTBEGIN
1070
    73
1070
     1
1070
    44
1040
1.0
1070
    74
1070
     0
1000
MTEXTEND
  0
LINE
  5
447B
330
1E
100
AcDbEntity
  8
DIM
 62
     1
100
AcDbLine
 10
6.006408725416779
 20
6.012929520956195
 30
0.0
 11
6.503604565710588
 21
6.012929520956195
 31
0.0
  0
LINE
  5
447C
330
1E
100
AcDbEntity
  8
DIM
 62
     1
100
AcDbLine
 10
6.323337700075325
 20
5.617839407000444
 30
0.0
 11
7.22294953781899
 21
5.617839407000444
 31
0.0
  0
LINE
  5
447D
330
1E
100
AcDbEntity
  8
DIM
 62
     1
100
AcDbLine
 10
6.072813938039743
 20
6.162929520956195
 30
0.0
 11
6.072813938039743
 21
6.238830696516114
 31
0.0
  0
LINE
  5
447E
330
1E
100
AcDbEntity
  8
DIM
 62
     1
100
AcDbLine
 10
7.16044953781899
 20
5.467839407000443
 30
0.0
 11
7.16044953781899
 21
5.317839407000444
 31
0.0
  0
SOLID
  5
447F
330
1E
100
AcDbEntity
  8
DIM
 62
     1
100
AcDbTrace
 10
6.047813938039743
 20
6.162929520956195
 30
0.0
 11
6.097813938039744
 21
6.162929520956195
 31
0.0
 12
6.072813938039743
 22
6.012929520956195
 32
0.0
 13
6.072813938039743
 23
6.012929520956195
 33
0.0
  0
SOLID
  5
4480
330
1E
100
AcDbEntity
  8
DIM
 62
     1
100
AcDbTrace
 10
7.135449537818989
 20
5.467839407000443
 30
0.0
 11
7.18544953781899
 21
5.467839407000443
 31
0.0
 12
7.16044953781899
 22
5.617839407000444
 32
0.0
 13
7.16044953781899
 23
5.617839407000444
 33
0.0
  0
MTEXT
  5
4481
330
1E
100
AcDbEntity
  8
DIM
 62
     7
100
AcDbMText
 10
7.160449537818989
 20
5.815384463978321
 30
0.0
 40
0.09
 41
0.0
 71
     5
 72
     1
  1
10\P[.394]
 73
     1
 44
1.0
1001
ACAD
1000
MTEXTBEGIN
1070
    73
1070
     1
1070
    44
1040
1.0
1070
    74
1070
     0
1000
MTEXTEND
  0
LINE
  5
4482
330
1E
100
AcDbEntity
  8
DIM
 62
     1
100
AcDbLine
 10
3.478624459948493
 20
6.450751264344848
 30
0.0
 11
3.478624459948493
 21
9.321885912931925
 31
0.0
  0
LINE
  5
4483
330
1E
100
AcDbEntity
  8
DIM
 62
     1
100
AcDbLine
 10
5.58834239403496
 20
6.450751264344848
 30
0.0
 11
5.58834239403496
 21
7.066351975112304
 31
0.0
  0
LINE
  5
4484
330
1E
100
AcDbEntity
  8
DIM
 62
     1
100
AcDbLine
 10
3.628624459948493
 20
9.259385912931925
 30
0.0
 11
4.308483426991728
 21
9.259385912931925
 31
0.0
  0
LINE
  5
4485
330
1E
100
AcDbEntity
  8
DIM
 62
     1
100
AcDbLine
 10
5.438342394034959
 20
9.259385912931925
 30
0.0
 11
4.758483426991726
 21
9.259385912931925
 31
0.0
  0
SOLID
  5
4486
330
1E
100
AcDbEntity
  8
DIM
 62
     1
100
AcDbTrace
 10
3.628624459948493
 20
9.284385912931925
 30
0.0
 11
3.628624459948493
 21
9.234385912931925
 31
0.0
 12
3.478624459948493
 22
9.259385912931925
 32
0.0
 13
3.478624459948493
 23
9.259385912931925
 33
0.0
  0
SOLID
  5
4487
330
1E
100
AcDbEntity
  8
DIM
 62
     1
100
AcDbTrace
 10
5.438342394034959
 20
9.284385912931925
 30
0.0
 11
5.438342394034959
 21
9.234385912931925
 31
0.0
 12
5.58834239403496
 22
9.259385912931925
 32
0.0
 13
5.58834239403496
 23
9.259385912931925
 33
0.0
  0
MTEXT
  5
4488
330
1E
100
AcDbEntity
  8
DIM
 62
     7
100
AcDbMText
 10
4.533483426991726
 20
9.259385912931925
 30
0.0
 40
0.09
 41
0.0
 71
     5
 72
     1
  1
53.4\P[2.102]
 73
     1
 44
1.0
1001
ACAD
1000
MTEXTBEGIN
1070
    73
1070
     1
1070
    44
1040
1.0
1070
    74
1070
     0
1000
MTEXTEND
  0
LINE
  5
4489
330
1E
100
AcDbEntity
  8
DIM
 62
     1
100
AcDbLine
 10
4.114701125984488
 20
7.484057976726298
 30
0.0
 11
4.114701125984488
 21
8.577845450169412
 31
0.0
  0
LINE
  5
448B
330
1E
100
AcDbEntity
  8
DIM
 62
     1
100
AcDbLine
 10
4.26470112598449
 20
8.515345450169412
 30
0.0
 11
4.396493520936715
 21
8.515345450169412
 31
0.0
  0
SOLID
  5
448D
330
1E
100
AcDbEntity
  8
DIM
 62
     1
100
AcDbTrace
 10
4.26470112598449
 20
8.540345450169413
 30
0.0
 11
4.26470112598449
 21
8.490345450169412
 31
0.0
 12
4.114701125984488
 22
8.515345450169412
 32
0.0
 13
4.114701125984488
 23
8.515345450169412
 33
0.0
  0
SOLID
  5
448E
330
1E
100
AcDbEntity
  8
DIM
 62
     1
100
AcDbTrace
 10
4.885232815132777
 20
8.540345450169413
 30
0.0
 11
4.885232815132777
 21
8.490345450169412
 31
0.0
 12
5.035232815132777
 22
8.515345450169412
 32
0.0
 13
5.035232815132777
 23
8.515345450169412
 33
0.0
  0
MTEXT
  5
448F
330
1E
100
AcDbEntity
  8
DIM
 62
     7
100
AcDbMText
 10
4.598955848823122
 20
8.515345450169412
 30
0.0
 40
0.09
 41
0.0
 71
     5
 72
     1
  1
23.3\P[.917]
 73
     1
 44
1.0
1001
ACAD
1000
MTEXTBEGIN
1070
    73
1070
     1
1070
    44
1040
1.0
1070
    74
1070
     0
1000
MTEXTEND
  0
LINE
  5
4490
330
1E
100
AcDbEntity
  8
DIM
 62
     1
100
AcDbLine
 10
4.79981410110598
 20
8.515345450169412
 30
0.0
 11
4.885232815132777
 21
8.515345450169412
 31
0.0
  0
LINE
  5
4491
330
1E
100
AcDbEntity
  8
DIM
 62
     1
100
AcDbLine
 10
5.035232815132777
 20
6.280596382305541
 30
0.0
 11
5.035232815132777
 21
7.060377504683052
 31
0.0
  0
LINE
  5
4492
330
1E
100
AcDbEntity
  8
DIM
 62
     1
100
AcDbLine
 10
5.588342394034963
 20
6.450751264344848
 30
0.0
 11
5.588342394034964
 21
7.063364739897679
 31
0.0
  0
MTEXT
  5
4497
330
1E
100
AcDbEntity
  8
DIM
 62
     7
100
AcDbMText
 10
5.318130614632635
 20
8.515345450169412
 30
0.0
 40
0.09
 41
0.0
 71
     5
 72
     1
  1
14\P[.551]
 73
     1
 44
1.0
1001
ACAD
1000
MTEXTBEGIN
1070
    73
1070
     1
1070
    44
1040
1.0
1070
    74
1070
     0
1000
MTEXTEND
  0
LINE
  5
4498
330
1E
100
AcDbEntity
  8
DIM
 62
     1
100
AcDbLine
 10
5.870919405486723
 20
8.515345450169412
 30
0.0
 11
5.738342394034964
 21
8.515345450169412
 31
0.0
  0
SOLID
  5
4499
330
1E
100
AcDbEntity
  8
DIM
 62
     1
100
AcDbTrace
 10
5.738342394034964
 20
8.540345450169413
 30
0.0
 11
5.738342394034964
 21
8.490345450169412
 31
0.0
 12
5.588342394034963
 22
8.515345450169412
 32
0.0
 13
5.588342394034963
 23
8.515345450169412
 33
0.0
  0
LINE
  5
449A
330
1E
100
AcDbEntity
  8
DIM
 62
     1
100
AcDbLine
 10
3.766718617930354
 20
6.012929520956195
 30
0.0
 11
2.286353826564621
 21
6.012929520956197
 31
0.0
  0
LINE
  5
44A1
330
1E
100
AcDbEntity
  8
DIM
 62
     1
100
AcDbLine
 10
3.766718617930354
 20
6.012929520956195
 30
0.0
 11
2.967082920761384
 21
6.012929520956195
 31
0.0
  0
LINE
  5
44BC
330
1E
100
AcDbEntity
  8
DIM
 62
     1
100
AcDbLine
 10
3.766718617930354
 20
6.012929520956195
 30
0.0
 11
2.965692839452387
 21
6.012929520956195
 31
0.0
  0
LINE
  5
44BD
330
1E
100
AcDbEntity
  8
DIM
 62
     1
100
AcDbLine
 10
3.416124459948493
 20
5.815388683411963
 30
0.0
 11
2.965692839452387
 21
5.815388683411963
 31
0.0
  0
LINE
  5
44BF
330
1E
100
AcDbEntity
  8
DIM
 62
     1
100
AcDbLine
 10
3.028192839452387
 20
5.665388683411963
 30
0.0
 11
3.028192839452387
 21
5.515388683411964
 31
0.0
  0
LINE
  5
44C0
330
1E
100
AcDbEntity
  8
DIM
 62
     1
100
AcDbLine
 10
3.028192839452387
 20
5.515388683411964
 30
0.0
 11
2.878192839452387
 21
5.515388683411964
 31
0.0
  0
SOLID
  5
44C2
330
1E
100
AcDbEntity
  8
DIM
 62
     1
100
AcDbTrace
 10
3.003192839452387
 20
5.665388683411963
 30
0.0
 11
3.053192839452387
 21
5.665388683411963
 31
0.0
 12
3.028192839452387
 22
5.815388683411963
 32
0.0
 13
3.028192839452387
 23
5.815388683411963
 33
0.0
  0
MTEXT
  5
44C3
330
1E
100
AcDbEntity
  8
DIM
 62
     7
100
AcDbMText
 10
2.758192839452386
 20
5.515388683411964
 30
0.0
 40
0.09
 41
0.0
 71
     5
 72
     1
  1
5\P[.197]
 73
     1
 44
1.0
1001
ACAD
1000
MTEXTBEGIN
1070
    73
1070
     1
1070
    44
1040
1.0
1070
    74
1070
     0
1000
MTEXTEND
  0
LINE
  5
44C4
330
1E
100
AcDbEntity
  8
DIM
 62
     1
100
AcDbLine
 10
3.766718617930354
 20
6.012929520956195
 30
0.0
 11
2.288856066532488
 21
6.012929520956195
 31
0.0
  0
LINE
  5
44C5
330
1E
100
AcDbEntity
  8
DIM
 62
     1
100
AcDbLine
 10
3.447737306196689
 20
5.301776962061665
 30
0.0
 11
2.288856066532488
 21
5.301776962061665
 31
0.0
  0
LINE
  5
44C6
330
1E
100
AcDbEntity
  8
DIM
 62
     1
100
AcDbLine
 10
2.351356066532488
 20
5.862929520956195
 30
0.0
 11
2.351356066532488
 21
5.802432142205468
 31
0.0
  0
SOLID
  5
44C9
330
1E
100
AcDbEntity
  8
DIM
 62
     1
100
AcDbTrace
 10
2.326356066532488
 20
5.862929520956195
 30
0.0
 11
2.376356066532489
 21
5.862929520956195
 31
0.0
 12
2.351356066532488
 22
6.012929520956195
 32
0.0
 13
2.351356066532488
 23
6.012929520956195
 33
0.0
  0
SOLID
  5
44CA
330
1E
100
AcDbEntity
  8
DIM
 62
     1
100
AcDbTrace
 10
2.326356066532488
 20
5.451776962061665
 30
0.0
 11
2.376356066532489
 21
5.451776962061665
 31
0.0
 12
2.351356066532488
 22
5.301776962061665
 32
0.0
 13
2.351356066532488
 23
5.301776962061665
 33
0.0
  0
MTEXT
  5
44CB
330
1E
100
AcDbEntity
  8
DIM
 62
     7
100
AcDbMText
 10
2.348317962912629
 20
5.665837545284086
 30
0.0
 40
0.09
 41
0.0
 71
     5
 72
     1
  1
18.3\P[.720]
 73
     1
 44
1.0
1001
ACAD
1000
MTEXTBEGIN
1070
    73
1070
     1
1070
    44
1040
1.0
1070
    74
1070
     0
1000
MTEXTEND
  0
LINE
  5
44CC
330
1E
100
AcDbEntity
  8
DIM
 62
     1
100
AcDbLine
 10
2.351356066532488
 20
5.506036870343749
 30
0.0
 11
2.351356066532488
 21
5.451776962061665
 31
0.0
  0
LINE
  5
44CD
330
1E
100
AcDbEntity
  8
DIM
 62
     1
100
AcDbLine
 10
3.766718617930354
 20
6.012929520956195
 30
0.0
 11
1.514433183021672
 21
6.012929520956197
 31
0.0
  0
LINE
  5
44CE
330
1E
100
AcDbEntity
  8
DIM
 62
     1
100
AcDbLine
 10
5.56534628047799
 20
5.222773408609252
 30
0.0
 11
5.123372492889608
 21
5.222773408609252
 31
0.0
  0
LINE
  5
44CF
330
1E
100
AcDbEntity
  8
DIM
 62
     1
100
AcDbLine
 10
1.576933183021672
 20
5.862929520956196
 30
0.0
 11
1.576933183021672
 21
5.752851464782724
 31
0.0
  0
LINE
  5
44D0
330
1E
100
AcDbEntity
  8
DIM
 62
     1
100
AcDbLine
 10
1.576933183021672
 20
5.372773408609253
 30
0.0
 11
1.576933183021672
 21
5.482851464782725
 31
0.0
  0
SOLID
  5
44D1
330
1E
100
AcDbEntity
  8
DIM
 62
     1
100
AcDbTrace
 10
1.551933183021672
 20
5.862929520956196
 30
0.0
 11
1.601933183021673
 21
5.862929520956196
 31
0.0
 12
1.576933183021672
 22
6.012929520956197
 32
0.0
 13
1.576933183021672
 23
6.012929520956197
 33
0.0
  0
SOLID
  5
44D2
330
1E
100
AcDbEntity
  8
DIM
 62
     1
100
AcDbTrace
 10
1.551933183021672
 20
5.372773408609253
 30
0.0
 11
1.601933183021673
 21
5.372773408609253
 31
0.0
 12
1.576933183021672
 22
5.222773408609253
 32
0.0
 13
1.576933183021672
 23
5.222773408609253
 33
0.0
  0
MTEXT
  5
44D3
330
1E
100
AcDbEntity
  8
DIM
 62
     7
100
AcDbMText
 10
1.572297325044061
 20
5.617851464782725
 30
0.0
 40
0.09
 41
0.0
 71
     5
 72
     1
  1
22\P[.866]
 73
     1
 44
1.0
1001
ACAD
1000
MTEXTBEGIN
1070
    73
1070
     1
1070
    44
1040
1.0
1070
    74
1070
     0
1000
MTEXTEND
  0
LINE
  5
44D4
330
1E
100
AcDbEntity
  8
DIM
 62
     1
100
AcDbLine
 10
3.969041256139142
 20
5.222773408609252
 30
0.0
 11
3.496182702292678
 21
5.222773408609252
 31
0.0
  0
LINE
  5
44D5
330
1E
100
AcDbEntity
  8
DIM
 62
     1
100
AcDbLine
 10
4.97502472556701
 20
5.222773408609252
 30
0.0
 11
4.084937965611949
 21
5.222773408609252
 31
0.0
  0
LINE
  5
44D6
330
1E
100
AcDbEntity
  8
DIM
 62
     1
100
AcDbLine
 10
3.403465334714432
 20
5.222773408609252
 30
0.0
 11
1.514433183021672
 21
5.222773408609253
 31
0.0
  0
MTEXT
  5
44D7
330
1E
100
AcDbEntity
  8
DIM
 62
     7
100
AcDbMText
 10
1.865979916049204
 20
5.689999376681612
 30
0.0
 40
0.09
 41
0.0
 71
     5
 72
     1
  1
MAX
 73
     1
 44
1.0
1001
ACAD
1000
MTEXTBEGIN
1070
    73
1070
     1
1070
    44
1040
1.0
1070
    74
1070
     0
1000
MTEXTEND
  0
SOLID
  5
44DE
330
1E
100
AcDbEntity
  8
DIM
100
AcDbTrace
 10
5.150721447007426
 20
5.781013880318574
 30
0.0
 11
5.083933375800484
 21
5.917631425108606
 31
0.0
 12
5.191419673901116
 22
5.810059608536503
 32
0.0
 13
5.191419673901116
 23
5.810059608536503
 33
0.0
1001
ACAD
1000
DSTYLE
1002
{
1070
   147
1040
0.09
1070
    77
1070
     0
1002
}
  0
LINE
  5
44E0
330
1E
100
AcDbEntity
  8
DIM
100
AcDbLine
 10
5.17107056045427
 20
5.795536744427538
 30
0.0
 11
5.608115388963518
 21
5.183159273292093
 31
0.0
1001
ACAD
1000
DSTYLE
1002
{
1070
   147
1040
0.09
1070
    77
1070
     0
1002
}
  0
LINE
  5
44E1
330
1E
100
AcDbEntity
  8
DIM
100
AcDbLine
 10
5.776985146332286
 20
4.946542733699395
 30
0.0
 11
6.168391301065362
 21
4.946542733699395
 31
0.0
1001
ACAD
1000
DSTYLE
1002
{
1070
   147
1040
0.09
1070
    77
1070
     0
1002
}
  0
LINE
  5
44E2
330
1E
100
AcDbEntity
  8
DIM
100
AcDbLine
 10
6.281072501643194
 20
4.946542733699395
 30
0.0
 11
6.799810759561779
 21
4.946542733699395
 31
0.0
1001
ACAD
1000
DSTYLE
1002
{
1070
   147
1040
0.09
1070
    77
1070
     0
1002
}
  0
LINE
  5
44E3
330
1E
100
AcDbEntity
  8
DIM
100
AcDbLine
 10
5.64641825617446
 20
5.129490149600867
 30
0.0
 11
5.776985146332286
 21
4.946542733699395
 31
0.0
1001
ACAD
1000
DSTYLE
1002
{
1070
   147
1040
0.09
1070
    77
1070
     0
1002
}
  0
LINE
  5
44E5
330
1E
100
AcDbEntity
  8
DIM
 62
     1
100
AcDbLine
 10
9.322888021087514
 20
5.752888683411963
 30
0.0
 11
9.322888021087514
 21
4.487345106114826
 31
0.0
  0
LINE
  5
44E6
330
1E
100
AcDbEntity
  8
DIM
 62
     1
100
AcDbLine
 10
10.18020728050976
 20
5.752888683411963
 30
0.0
 11
10.18020728050976
 21
5.259990939490172
 31
0.0
  0
LINE
  5
44E7
330
1E
100
AcDbEntity
  8
DIM
 62
     1
100
AcDbLine
 10
9.472888021087515
 20
4.549845106114826
 30
0.0
 11
9.564399463864411
 21
4.549845106114826
 31
0.0
  0
SOLID
  5
44E9
330
1E
100
AcDbEntity
  8
DIM
 62
     1
100
AcDbTrace
 10
9.472888021087515
 20
4.574845106114826
 30
0.0
 11
9.472888021087515
 21
4.524845106114826
 31
0.0
 12
9.322888021087514
 22
4.549845106114826
 32
0.0
 13
9.322888021087514
 23
4.549845106114826
 33
0.0
  0
SOLID
  5
44EA
330
1E
100
AcDbEntity
  8
DIM
 62
     1
100
AcDbTrace
 10
10.03020728050976
 20
4.574845106114826
 30
0.0
 11
10.03020728050976
 21
4.524845106114826
 31
0.0
 12
10.18020728050976
 22
4.549845106114826
 32
0.0
 13
10.18020728050976
 23
4.549845106114826
 33
0.0
  0
MTEXT
  5
44EB
330
1E
100
AcDbEntity
  8
DIM
 62
     7
100
AcDbMText
 10
9.770914680619299
 20
4.549845106114826
 30
0.0
 40
0.09
 41
0.0
 71
     5
 72
     1
  1
21.7\P[.854]
 73
     1
 44
1.0
1001
ACAD
1000
MTEXTBEGIN
1070
    73
1070
     1
1070
    44
1040
1.0
1070
    74
1070
     0
1000
MTEXTEND
  0
LINE
  5
44EC
330
1E
100
AcDbEntity
  8
DIM
 62
     1
100
AcDbLine
 10
9.356469896859874
 20
5.35781243669598
 30
0.0
 11
9.356469896859874
 21
4.857010058700719
 31
0.0
  0
LINE
  5
44ED
330
1E
100
AcDbEntity
  8
DIM
 62
     1
100
AcDbLine
 10
10.14662600920682
 20
5.35781243669598
 30
0.0
 11
10.14662600920682
 21
5.259990939490172
 31
0.0
  0
LINE
  5
44EE
330
1E
100
AcDbEntity
  8
DIM
 62
     1
100
AcDbLine
 10
9.506469896859874
 20
4.919510058700719
 30
0.0
 11
9.601547953033348
 21
4.919510058700719
 31
0.0
  0
LINE
  5
44EF
330
1E
100
AcDbEntity
  8
DIM
 62
     1
100
AcDbLine
 10
9.996626009206824
 20
4.919510058700719
 30
0.0
 11
9.901547953033349
 21
4.919510058700719
 31
0.0
  0
SOLID
  5
44F0
330
1E
100
AcDbEntity
  8
DIM
 62
     1
100
AcDbTrace
 10
9.506469896859874
 20
4.94451005870072
 30
0.0
 11
9.506469896859874
 21
4.894510058700719
 31
0.0
 12
9.356469896859874
 22
4.919510058700719
 32
0.0
 13
9.356469896859874
 23
4.919510058700719
 33
0.0
  0
SOLID
  5
44F1
330
1E
100
AcDbEntity
  8
DIM
 62
     1
100
AcDbTrace
 10
9.996626009206824
 20
4.94451005870072
 30
0.0
 11
9.996626009206824
 21
4.894510058700719
 31
0.0
 12
10.14662600920682
 22
4.919510058700719
 32
0.0
 13
10.14662600920682
 23
4.919510058700719
 33
0.0
  0
MTEXT
  5
44F2
330
1E
100
AcDbEntity
  8
DIM
 62
     7
100
AcDbMText
 10
9.751547953033348
 20
4.919510058700719
 30
0.0
 40
0.09
 41
0.0
 71
     5
 72
     1
  1
21\P[.827]
 73
     1
 44
1.0
1001
ACAD
1000
MTEXTBEGIN
1070
    73
1070
     1
1070
    44
1040
1.0
1070
    74
1070
     0
1000
MTEXTEND
  0
LINE
  5
44F3
330
1E
100
AcDbEntity
  8
DIM
 62
     1
100
AcDbLine
 10
9.963652564918945
 20
4.549845106114826
 30
0.0
 11
10.03020728050976
 21
4.549845106114826
 31
0.0
  0
LEADER
  5
44F4
330
1E
100
AcDbEntity
  8
DIM
100
AcDbLeader
  3
Standard
 76
     3
 10
10.07775957526023
 20
5.269718972055187
 30
0.0
 10
10.41371646883248
 20
4.919510058700719
 30
0.0
 10
10.55004678587423
 20
4.919510058700719
 30
0.0
1001
ACAD
1000
DSTYLE
1002
{
1070
   147
1040
0.09
1070
    77
1070
     0
1002
}
  0
MTEXT
  5
44F5
330
1E
100
AcDbEntity
  8
DIM
 62
     7
100
AcDbMText
 10
11.09337565857316
 20
4.83716045790538
 30
0.0
 40
0.09
 41
0.0
 71
     5
 72
     1
  1
SEAL RUBBER\P(NBR)
 73
     1
 44
1.0
1001
ACAD
1000
MTEXTBEGIN
1070
    73
1070
     1
1070
    44
1040
1.0
1070
    74
1070
     0
1000
MTEXTEND
  0
LINE
  5
44F6
330
1E
100
AcDbEntity
  8
DIM
 62
     1
100
AcDbLine
 10
10.14662600920682
 20
5.104342547942966
 30
0.0
 11
10.14662600920682
 21
4.857010058700719
 31
0.0
  0
LINE
  5
44F7
330
1E
100
AcDbEntity
  8
DIM
 62
     1
100
AcDbLine
 10
10.18020728050976
 20
5.080022466530432
 30
0.0
 11
10.18020728050976
 21
4.487345106114826
 31
0.0
  0
LEADER
  5
4513
330
1E
100
AcDbEntity
  8
DIM
100
AcDbLeader
  3
Standard
 76
     3
 10
9.858072017618155
 20
5.554704563381839
 30
0.0
 10
10.42068887412016
 20
5.281011875797656
 30
0.0
 10
10.55278154683174
 20
5.281011875797656
 30
0.0
1001
ACAD
1000
DSTYLE
1002
{
1070
   147
1040
0.09
1070
    77
1070
     0
1002
}
  0
MTEXT
  5
4514
330
1E
100
AcDbEntity
  8
DIM
 62
     7
100
AcDbMText
 10
11.16186814590389
 20
5.286798374354624
 30
0.0
 40
0.09
 41
0.0
 71
     5
 72
     1
  1
INTERNAL \PCABLE OPENING 
 73
     1
 44
1.0
1001
ACAD
1000
MTEXTBEGIN
1070
    73
1070
     1
1070
    44
1040
1.0
1070
    74
1070
     0
1000
MTEXTEND
  0
MTEXT
  5
4515
330
1E
100
AcDbEntity
  8
DIM
 62
     7
100
AcDbMText
 10
12.03626159670349
 20
5.292579227016542
 30
0.0
 40
0.09
 41
0.0
 71
     5
 72
     1
  1
11\P[.433]
 73
     1
 44
1.0
1001
ACAD
1000
MTEXTBEGIN
1070
    73
1070
     1
1070
    44
1040
1.0
1070
    74
1070
     0
1000
MTEXTEND
  0
MTEXT
  5
4516
330
1E
100
AcDbEntity
  8
DIM
 62
     7
100
AcDbMText
 10
12.42897913551925
 20
5.307977007244524
 30
0.0
 40
0.09
 41
0.0
 71
     5
 72
     1
  1
DIA
 73
     1
 44
1.0
1001
ACAD
1000
MTEXTBEGIN
1070
    73
1070
     1
1070
    44
1040
1.0
1070
    74
1070
     0
1000
MTEXTEND
  0
LINE
  5
4829
330
1E
100
AcDbEntity
  8
DIM
 62
     1
100
AcDbLine
 10
3.526675436906785
 20
6.900302715139027
 30
0.0
 11
2.29126392485697
 21
6.900302715139027
 31
0.0
  0
LINE
  5
482A
330
1E
100
AcDbEntity
  8
DIM
 62
     1
100
AcDbLine
 10
3.766718617930354
 20
6.012929520956195
 30
0.0
 11
2.29126392485697
 21
6.012929520956195
 31
0.0
  0
LINE
  5
482B
330
1E
100
AcDbEntity
  8
DIM
 62
     1
100
AcDbLine
 10
2.35376392485697
 20
6.750302715139026
 30
0.0
 11
2.35376392485697
 21
6.641898811889188
 31
0.0
  0
LINE
  5
482C
330
1E
100
AcDbEntity
  8
DIM
 62
     1
100
AcDbLine
 10
2.35376392485697
 20
6.162929520956195
 30
0.0
 11
2.35376392485697
 21
6.241163807901088
 31
0.0
  0
SOLID
  5
482D
330
1E
100
AcDbEntity
  8
DIM
 62
     1
100
AcDbTrace
 10
2.32876392485697
 20
6.750302715139026
 30
0.0
 11
2.37876392485697
 21
6.750302715139026
 31
0.0
 12
2.35376392485697
 22
6.900302715139027
 32
0.0
 13
2.35376392485697
 23
6.900302715139027
 33
0.0
  0
SOLID
  5
482E
330
1E
100
AcDbEntity
  8
DIM
 62
     1
100
AcDbTrace
 10
2.32876392485697
 20
6.162929520956195
 30
0.0
 11
2.37876392485697
 21
6.162929520956195
 31
0.0
 12
2.35376392485697
 22
6.012929520956195
 32
0.0
 13
2.35376392485697
 23
6.012929520956195
 33
0.0
  0
MTEXT
  5
482F
330
1E
100
AcDbEntity
  8
DIM
 62
     7
100
AcDbMText
 10
2.353763924856969
 20
6.456616118047612
 30
0.0
 40
0.09
 41
0.0
 71
     5
 72
     1
  1
22.5\P[.886]
 73
     1
 44
1.0
1001
ACAD
1000
MTEXTBEGIN
1070
    73
1070
     1
1070
    44
1040
1.0
1070
    74
1070
     0
1000
MTEXTEND
  0
LINE
  5
4830
330
1E
100
AcDbEntity
  8
DIM
 62
     1
100
AcDbLine
 10
3.679175436906784
 20
7.052802715139026
 30
0.0
 11
3.679175436906784
 21
8.971685137225033
 31
0.0
  0
LINE
  5
4832
330
1E
100
AcDbEntity
  8
DIM
 62
     1
100
AcDbLine
 10
3.829175436906784
 20
8.909185137225033
 30
0.0
 11
4.132204126019781
 21
8.909185137225033
 31
0.0
  0
LINE
  5
4833
330
1E
100
AcDbEntity
  8
DIM
 62
     1
100
AcDbLine
 10
4.885232815132777
 20
8.909185137225033
 30
0.0
 11
4.58220412601978
 21
8.909185137225033
 31
0.0
  0
SOLID
  5
4834
330
1E
100
AcDbEntity
  8
DIM
 62
     1
100
AcDbTrace
 10
3.829175436906784
 20
8.934185137225034
 30
0.0
 11
3.829175436906784
 21
8.884185137225033
 31
0.0
 12
3.679175436906784
 22
8.909185137225033
 32
0.0
 13
3.679175436906784
 23
8.909185137225033
 33
0.0
  0
SOLID
  5
4835
330
1E
100
AcDbEntity
  8
DIM
 62
     1
100
AcDbTrace
 10
4.885232815132777
 20
8.934185137225034
 30
0.0
 11
4.885232815132777
 21
8.884185137225033
 31
0.0
 12
5.035232815132777
 22
8.909185137225033
 32
0.0
 13
5.035232815132777
 23
8.909185137225033
 33
0.0
  0
MTEXT
  5
4836
330
1E
100
AcDbEntity
  8
DIM
 62
     7
100
AcDbMText
 10
4.35720412601978
 20
8.909185137225033
 30
0.0
 40
0.09
 41
0.0
 71
     5
 72
     1
  1
34.6\P[1.362]
 73
     1
 44
1.0
1001
ACAD
1000
MTEXTBEGIN
1070
    73
1070
     1
1070
    44
1040
1.0
1070
    74
1070
     0
1000
MTEXTEND
  0
MTEXT
  5
4838
330
1E
100
AcDbEntity
  8
DIM
 62
     7
100
AcDbMText
 10
6.545831770421179
 20
8.263899786848767
 30
0.0
 40
0.09
 41
0.0
 71
     5
 72
     1
  1
R70\P[2.756]
 73
     1
 44
1.0
1001
ACAD
1000
MTEXTBEGIN
1070
    73
1070
     1
1070
    44
1040
1.0
1070
    74
1070
     0
1000
MTEXTEND
  0
SOLID
  5
4839
330
1E
100
AcDbEntity
  8
DIM
100
AcDbTrace
 10
5.924584323817727
 20
8.219460215310974
 30
0.0
 11
6.06652445830912
 21
8.274031253605707
 31
0.0
 12
5.94995547864258
 22
8.176375362951318
 32
0.0
 13
5.94995547864258
 23
8.176375362951318
 33
0.0
1001
ACAD
1000
DSTYLE
1002
{
1070
   147
1040
0.09
1070
    77
1070
     0
1002
}
  0
LINE
  5
4840
330
1E
100
AcDbEntity
  8
DIM
100
AcDbLine
 10
6.594606247367806
 20
7.69346890573307
 30
0.0
 11
7.195762929402322
 21
7.693468905733069
 31
0.0
  0
LINE
  5
4848
330
1E
100
AcDbEntity
  8
DIM
100
AcDbLine
 10
7.809663936689438
 20
8.032929520956194
 30
0.0
 11
7.809663936689439
 21
7.361837582059568
 31
0.0
  0
LINE
  5
4849
330
1E
100
AcDbEntity
  8
DIM
100
AcDbLine
 10
7.809663936689439
 20
6.012929520956194
 30
0.0
 11
7.809663936689439
 21
6.965603506851799
 31
0.0
  0
MTEXT
  5
484D
330
1E
100
AcDbEntity
  8
DIM
 62
     7
100
AcDbMText
 10
7.140316043918572
 20
6.75753848724061
 30
0.0
 40
0.09
 41
0.0
 71
     5
 72
     1
  1
43±1.2mm\P[1.693±.047]
 73
     1
 44
1.0
1001
ACAD
1000
MTEXTBEGIN
1070
    73
1070
     1
1070
    44
1040
1.0
1070
    74
1070
     0
1000
MTEXTEND
  0
LINE
  5
484E
330
1E
100
AcDbEntity
  8
DIM
 62
     1
100
AcDbLine
 10
7.16044953781899
 20
7.537751132089331
 30
0.0
 11
7.16044953781899
 21
6.940804310001512
 31
0.0
  0
SOLID
  5
484F
330
1E
100
AcDbEntity
  8
DIM
 62
     1
100
AcDbTrace
 10
7.13544953781899
 20
7.537751132089331
 30
0.0
 11
7.185449537818991
 21
7.537751132089331
 31
0.0
 12
7.16044953781899
 22
7.687751132089331
 32
0.0
 13
7.16044953781899
 23
7.687751132089331
 33
0.0
  0
LINE
  5
4850
330
1E
100
AcDbEntity
  8
DIM
 62
     1
100
AcDbLine
 10
5.58834239403496
 20
7.190757829085917
 30
0.0
 11
5.58834239403496
 21
7.945177870527146
 31
0.0
  0
MTEXT
  5
4852
330
1E
100
AcDbEntity
  8
DIM
 62
     7
100
AcDbMText
 10
7.820221546480039
 20
7.151109622392858
 30
0.0
 40
0.09
 41
0.0
 71
     5
 72
     1
  1
51.3mm\P[2.020]
 73
     1
 44
1.0
1001
ACAD
1000
MTEXTBEGIN
1070
    73
1070
     1
1070
    44
1040
1.0
1070
    74
1070
     0
1000
MTEXTEND
  0
SOLID
  5
4853
330
1E
100
AcDbEntity
  8
DIM
 62
     1
100
AcDbTrace
 10
7.784663936689438
 20
7.882929520956194
 30
0.0
 11
7.834663936689438
 21
7.882929520956194
 31
0.0
 12
7.809663936689438
 22
8.032929520956194
 32
0.0
 13
7.809663936689438
 23
8.032929520956194
 33
0.0
  0
SOLID
  5
4854
330
1E
100
AcDbEntity
  8
DIM
 62
     1
100
AcDbTrace
 10
7.784663936689439
 20
6.162929520956194
 30
0.0
 11
7.834663936689439
 21
6.162929520956194
 31
0.0
 12
7.809663936689439
 22
6.012929520956194
 32
0.0
 13
7.809663936689439
 23
6.012929520956194
 33
0.0
  0
LINE
  5
485F
330
1E
100
AcDbEntity
  8
CENTER
 62
     3
100
AcDbLine
 10
9.190367233653644
 20
6.012071533457509
 30
0.0
 11
10.32628355952276
 21
6.012071533457509
 31
0.0
  0
LINE
  5
4864
330
1E
100
AcDbEntity
  8
DIM
 62
     1
100
AcDbLine
 10
5.035232815132777
 20
7.361408789316868
 30
0.0
 11
5.035232815132777
 21
7.619353256813035
 31
0.0
  0
LINE
  5
4865
330
1E
100
AcDbEntity
  8
DIM
 62
     1
100
AcDbLine
 10
5.035232815132777
 20
7.187356995430739
 30
0.0
 11
5.035232815132777
 21
7.632929270503911
 31
0.0
  0
LINE
  5
4867
330
1E
100
AcDbEntity
  8
DIM
 62
     1
100
AcDbLine
 10
5.58834239403496
 20
8.080938111120669
 30
0.0
 11
5.58834239403496
 21
9.321885912931925
 31
0.0
  0
LINE
  5
4868
330
1E
100
AcDbEntity
  8
DIM
 62
     1
100
AcDbLine
 10
5.035232815132777
 20
7.775477543864059
 30
0.0
 11
5.035232815132777
 21
8.971685137225033
 31
0.0
  0
LINE
  5
4869
330
1E
100
AcDbEntity
  8
DIM
 62
     1
100
AcDbLine
 10
5.035232815132777
 20
7.748325490561118
 30
0.0
 11
5.035232815132777
 21
7.793435374398431
 31
0.0
  0
MTEXT
  5
486A
330
1E
100
AcDbEntity
  8
DIM
 62
     7
100
AcDbMText
 10
8.237259815723305
 20
7.17240577771836
 30
0.0
 40
0.09
 41
0.0
 71
     5
 72
     1
  1
MAX
 73
     1
 44
1.0
1001
ACAD
1000
MTEXTBEGIN
1070
    73
1070
     1
1070
    44
1040
1.0
1070
    74
1070
     0
1000
MTEXTEND
  0
LINE
  5
494F
330
1E
100
AcDbEntity
  8
OBJECT
 62
     7
100
AcDbLine
 10
4.493901548253067
 20
6.966890126663818
 30
0.0
 11
4.692150190181255
 21
7.001079163568856
 31
0.0
  0
LINE
  5
4950
330
1E
100
AcDbEntity
  8
OBJECT
 62
     7
100
AcDbLine
 10
4.685235664227015
 20
6.857092438850063
 30
0.0
 11
4.486987018346018
 21
6.822904607553097
 31
0.0
  0
LINE
  5
4951
330
1E
100
AcDbEntity
  8
OBJECT
 62
     7
100
AcDbLine
 10
4.691088642391443
 20
6.92349941461236
 30
0.0
 11
4.49253118692011
 21
6.880017922249457
 31
0.0
  0
LINE
  5
4952
330
1E
100
AcDbEntity
  8
OBJECT
 62
     7
100
AcDbLine
 10
4.686606021607158
 20
6.943964342850616
 30
0.0
 11
4.488048866549641
 21
6.900483455268154
 31
0.0
  0
LINE
  5
4953
330
1E
100
AcDbEntity
  8
OBJECT
 62
     7
100
AcDbLine
 10
4.49028987455156
 20
6.803424020754254
 30
0.0
 11
4.688736354788026
 21
6.836437214271407
 31
0.0
  0
LINE
  5
4954
330
1E
100
AcDbEntity
  8
OBJECT
 62
     7
100
AcDbLine
 10
3.897201402933733
 20
7.020693347553379
 30
0.0
 11
4.822575662143373
 21
7.020693347553379
 31
0.0
  0
LINE
  5
4955
330
1E
100
AcDbEntity
  8
OBJECT
 62
     7
100
AcDbLine
 10
4.688847333975711
 20
7.020560050781515
 30
0.0
 11
4.49040115810587
 21
6.987545651656294
 31
0.0
  0
LINE
  5
4956
330
1E
100
AcDbEntity
  8
OBJECT
 62
     7
100
AcDbLine
 10
4.427313624553944
 20
6.763760784024269
 30
0.0
 11
5.538033910459922
 21
6.763760784024269
 31
0.0
  0
LINE
  5
4957
330
1E
100
AcDbEntity
  8
OBJECT
 62
     7
100
AcDbLine
 10
4.246730382193868
 20
7.13927774812064
 30
0.0
 11
6.156905767097235
 21
7.139278957681526
 31
0.0
  0
LINE
  5
4958
330
1E
100
AcDbEntity
  8
OBJECT
 62
     7
100
AcDbLine
 10
4.396731735379125
 20
6.803288917546689
 30
0.0
 11
4.763283461859739
 21
6.803288917546689
 31
0.0
  0
LINE
  5
495A
330
1E
100
AcDbEntity
  8
OBJECT
 62
     7
100
AcDbLine
 10
5.39573359821848
 20
6.427770443475621
 30
0.0
 11
3.656495723231954
 21
6.427770443475621
 31
0.0
  0
LINE
  5
495B
330
1E
100
AcDbEntity
  8
OBJECT
 62
     7
100
AcDbLine
 10
5.39573359821848
 20
6.724231444893776
 30
0.0
 11
3.656495723231954
 21
6.724231444893776
 31
0.0
  0
LINE
  5
495C
330
1E
100
AcDbEntity
  8
OBJECT
 62
     7
100
AcDbLine
 10
5.569658350203589
 20
6.408005167153522
 30
0.0
 11
3.498378362757168
 21
6.408005167153522
 31
0.0
  0
LINE
  5
495D
330
1E
100
AcDbEntity
  8
DIM
 62
     1
100
AcDbLine
 10
3.676259789993167
 20
6.902108946986114
 30
0.0
 11
6.06652445830912
 21
8.274031253605707
 31
0.0
  0
LINE
  5
495E
330
1E
100
AcDbEntity
  8
OBJECT
 62
     7
100
AcDbLine
 10
3.616967589709534
 20
6.407998534332723
 30
0.0
 11
3.616967589709534
 21
6.763751131254066
 31
0.0
  0
LINE
  5
495F
330
1E
100
AcDbEntity
  8
OBJECT
 62
     7
100
AcDbLine
 10
3.502330211622953
 20
6.721750078170346
 30
0.0
 11
3.494556794666662
 21
7.018553970335561
 31
0.0
  0
LINE
  5
4960
330
1E
100
AcDbEntity
  8
OBJECT
 62
     7
100
AcDbLine
 10
3.462816553303028
 20
6.720714769155566
 30
0.0
 11
3.455038309961632
 21
7.017587420509039
 31
0.0
  0
LINE
  5
4961
330
1E
100
AcDbEntity
  8
OBJECT
 62
     7
100
AcDbLine
 10
3.538552773357056
 20
6.991240860162369
 30
0.0
 11
3.498610274316547
 21
6.680322922198803
 31
0.0
  0
ARC
  5
4962
330
1E
100
AcDbEntity
  8
OBJECT
 62
     7
100
AcDbCircle
 10
3.656495723231954
 20
6.704467378132568
 30
0.0
 40
0.0197640667612105
100
AcDbArc
 50
90.0
 51
180.0009002999999
  0
LINE
  5
4963
330
1E
100
AcDbEntity
  8
OBJECT
 62
     7
100
AcDbLine
 10
3.502330211622953
 20
6.721750078170346
 30
0.0
 11
3.462816553303028
 21
6.720714769155566
 31
0.0
  0
ARC
  5
4964
330
1E
100
AcDbEntity
  8
OBJECT
 62
     7
100
AcDbCircle
 10
3.656500545664245
 20
6.447534510236833
 30
0.0
 40
0.0197640667612105
100
AcDbArc
 50
180.0009002999999
 51
270.0
  0
LINE
  5
4967
330
1E
100
AcDbEntity
  8
OBJECT
 62
     7
100
AcDbLine
 10
3.636736478903033
 20
6.447534510236833
 30
0.0
 11
3.636731656470746
 21
6.704467378132568
 31
0.0
  0
LINE
  5
4968
330
1E
100
AcDbEntity
  8
OBJECT
 62
     7
100
AcDbLine
 10
3.498383189142272
 20
6.408008183150109
 30
0.0
 11
3.498383189142272
 21
6.676798408031716
 31
0.0
  0
LINE
  5
4969
330
1E
100
AcDbEntity
  8
CENTER
 62
     3
100
AcDbLine
 10
3.566039289499193
 20
6.902108946986114
 30
0.0
 11
3.792573022592633
 21
6.902108946986114
 31
0.0
  0
CIRCLE
  5
496A
330
1E
100
AcDbEntity
  8
OBJECT
 62
     7
100
AcDbCircle
 10
3.676259789993167
 20
6.902108946986114
 30
0.0
 40
0.0592922002836314
  0
LINE
  5
496B
330
1E
100
AcDbEntity
  8
OBJECT
 62
     7
100
AcDbLine
 10
3.573656791685615
 20
7.13927774812064
 30
0.0
 11
4.246730382193868
 21
7.13927774812064
 31
0.0
  0
CIRCLE
  5
496C
330
1E
100
AcDbEntity
  8
OBJECT
 62
     7
100
AcDbCircle
 10
3.676259789993167
 20
6.902108946986114
 30
0.0
 40
0.0592922002836314
  0
LINE
  5
496D
330
1E
100
AcDbEntity
  8
OBJECT
 62
     7
100
AcDbLine
 10
3.616967589709534
 20
7.060221481075795
 30
0.0
 11
3.755316057038008
 21
7.060221481075795
 31
0.0
  0
LINE
  5
496E
330
1E
100
AcDbEntity
  8
OBJECT
 62
     7
100
AcDbLine
 10
3.557675389425905
 20
7.033458748775336
 30
0.0
 11
3.557675389425905
 21
7.138197203109859
 31
0.0
  0
LINE
  5
496F
330
1E
100
AcDbEntity
  8
OBJECT
 62
     7
100
AcDbLine
 10
3.494624648660664
 20
7.018623935131893
 30
0.0
 11
3.557675389425905
 21
7.083343897589206
 31
0.0
  0
ARC
  5
4970
330
1E
100
AcDbEntity
  8
OBJECT
 62
     7
100
AcDbCircle
 10
3.616967589709534
 20
6.981165214030959
 30
0.0
 40
0.0790562670448419
100
AcDbArc
 50
90.0
 51
172.759201
  0
ARC
  5
4971
330
1E
100
AcDbEntity
  8
OBJECT
 62
     7
100
AcDbCircle
 10
3.573583810892697
 20
7.020693347553379
 30
0.0
 40
0.0790562670448419
100
AcDbArc
 50
101.610199
 51
181.4999999999999
  0
ARC
  5
4972
330
1E
100
AcDbEntity
  8
OBJECT
 62
     7
100
AcDbCircle
 10
3.573656791685615
 20
7.020693347553379
 30
0.0
 40
0.1185844005672628
100
AcDbArc
 50
90.0
 51
181.4999999999999
  0
LINE
  5
4973
330
1E
100
AcDbEntity
  8
OBJECT
 62
     7
100
AcDbLine
 10
3.616967589709534
 20
6.763751131254066
 30
0.0
 11
3.50932646594606
 21
6.763751131254066
 31
0.0
  0
LINE
  5
4974
330
1E
100
AcDbEntity
  8
CENTER
 62
     3
100
AcDbLine
 10
3.676259789993167
 20
6.780980456453148
 30
0.0
 11
3.676259789993167
 21
7.025581289818802
 31
0.0
  0
ARC
  5
4975
330
1E
100
AcDbEntity
  8
OBJECT
 62
     7
100
AcDbCircle
 10
3.676259789993167
 20
6.902108946986114
 30
0.0
 40
0.1581125340896838
100
AcDbArc
 50
152.0164032
 51
193.3415069999999
  0
LINE
  5
4976
330
1E
100
AcDbEntity
  8
OBJECT
 62
     7
100
AcDbLine
 10
4.226966315432656
 20
7.173510214585981
 30
0.0
 11
4.169507394406476
 21
7.140337185108124
 31
0.0
  0
LINE
  5
4977
330
1E
100
AcDbEntity
  8
OBJECT
 62
     7
100
AcDbLine
 10
3.910441782113723
 20
7.000929280792167
 30
0.0
 11
4.312661470851059
 21
7.000929280792167
 31
0.0
  0
LINE
  5
4978
330
1E
100
AcDbEntity
  8
OBJECT
 62
     7
100
AcDbLine
 10
4.427313624553944
 20
6.763760784024269
 30
0.0
 11
3.804769649548521
 21
7.049416023062348
 31
0.0
  0
ARC
  5
4979
330
1E
100
AcDbEntity
  8
OBJECT
 62
     7
100
AcDbCircle
 10
4.165555545540692
 20
7.147184461848797
 30
0.0
 40
0.0079056267044842
100
AcDbArc
 50
270.0
 51
300.0
  0
ARC
  5
497A
330
1E
100
AcDbEntity
  8
OBJECT
 62
     7
100
AcDbCircle
 10
3.897418538876802
 20
6.981165214030959
 30
0.0
 40
0.039528133522421
100
AcDbArc
 50
90.0
 51
119.0655975000001
  0
ARC
  5
497B
330
1E
100
AcDbEntity
  8
OBJECT
 62
     7
100
AcDbCircle
 10
3.755316057038008
 20
6.941637080508539
 30
0.0
 40
0.1185844005672628
100
AcDbArc
 50
65.35111239999995
 51
90.0
  0
CIRCLE
  5
497C
330
1E
100
AcDbEntity
  8
OBJECT
 62
     7
100
AcDbCircle
 10
4.492121043006685
 20
6.977212764337546
 30
0.0
 40
0.0104749553834416
  0
LINE
  5
497D
330
1E
100
AcDbEntity
  8
OBJECT
 62
     7
100
AcDbLine
 10
4.246730382193868
 20
7.13927774812064
 30
0.0
 11
4.226966315432656
 21
7.173510214585981
 31
0.0
  0
ARC
  5
497E
330
1E
100
AcDbEntity
  8
OBJECT
 62
     7
100
AcDbCircle
 10
4.312661470851059
 20
6.961401147269747
 30
0.0
 40
0.039528133522421
100
AcDbArc
 50
15.16388990000004
 51
90.0
  0
CIRCLE
  5
497F
330
1E
100
AcDbEntity
  8
OBJECT
 62
     7
100
AcDbCircle
 10
4.488666193222115
 20
6.81316853575834
 30
0.0
 40
0.0098794008069126
  0
LINE
  5
4980
330
1E
100
AcDbEntity
  8
OBJECT
 62
     7
100
AcDbLine
 10
4.483155801438115
 20
7.020693347553379
 30
0.0
 11
4.478576672715842
 21
6.803288917546689
 31
0.0
  0
LINE
  5
4981
330
1E
100
AcDbEntity
  8
OBJECT
 62
     7
100
AcDbLine
 10
4.49834073947705
 20
6.803288917546689
 30
0.0
 11
4.502919868199324
 21
7.020693347553379
 31
0.0
  0
LINE
  5
4982
330
1E
100
AcDbEntity
  8
OBJECT
 62
     7
100
AcDbLine
 10
4.493037834818725
 20
7.020693347553379
 30
0.0
 11
4.488458706096441
 21
6.803288917546689
 31
0.0
  0
LINE
  5
4983
330
1E
100
AcDbEntity
  8
OBJECT
 62
     7
100
AcDbLine
 10
4.350800245819547
 20
6.97179706615021
 30
0.0
 11
4.396731735379125
 21
6.803288917546689
 31
0.0
  0
CIRCLE
  5
4984
330
1E
100
AcDbEntity
  8
OBJECT
 62
     7
100
AcDbCircle
 10
4.49028987455156
 20
6.890251593953062
 30
0.0
 40
0.0104749553834416
  0
ARC
  5
4987
330
1E
100
AcDbEntity
  8
OBJECT
 62
     7
100
AcDbCircle
 10
5.541988174494662
 20
6.751357575136966
 30
0.0
 40
0.0276696934656947
100
AcDbArc
 50
0.0
 51
51.33121109999997
  0
LINE
  5
4988
330
1E
100
AcDbEntity
  8
OBJECT
 62
     7
100
AcDbLine
 10
5.451073949636324
 20
6.408004566325894
 30
0.0
 11
5.451073949636324
 21
6.763758368855315
 31
0.0
  0
ARC
  5
4989
330
1E
100
AcDbEntity
  8
OBJECT
 62
     7
100
AcDbCircle
 10
5.538033910459922
 20
6.732139059863376
 30
0.0
 40
0.0316225068179368
100
AcDbArc
 50
0.0
 51
90.0
  0
LINE
  5
498A
330
1E
100
AcDbEntity
  8
OBJECT
 62
     7
100
AcDbLine
 10
5.569658350203589
 20
6.408004566325894
 30
0.0
 11
5.426933414893401
 21
6.408004566325894
 31
0.0
  0
ARC
  5
498B
330
1E
100
AcDbEntity
  8
OBJECT
 62
     7
100
AcDbCircle
 10
5.39573359821848
 20
6.704467378132568
 30
0.0
 40
0.0197640667612105
100
AcDbArc
 50
0.0008742999999719
 51
90.0
  0
ARC
  5
498C
330
1E
100
AcDbEntity
  8
OBJECT
 62
     7
100
AcDbCircle
 10
5.395738420650767
 20
6.447534510236833
 30
0.0
 40
0.0197640667612105
100
AcDbArc
 50
270.0
 51
0.0008742999999719
  0
LINE
  5
498D
330
1E
100
AcDbEntity
  8
OBJECT
 62
     7
100
AcDbLine
 10
5.415502487411979
 20
6.447534510236833
 30
0.0
 11
5.415497664979689
 21
6.704467378132568
 31
0.0
  0
LINE
  5
498F
330
1E
100
AcDbEntity
  8
OBJECT
 62
     7
100
AcDbLine
 10
5.569658350203589
 20
6.408008183150109
 30
0.0
 11
5.569658350203589
 21
6.751357575136966
 31
0.0
  0
ARC
  5
4991
330
1E
100
AcDbEntity
  8
OBJECT
 62
     7
100
AcDbCircle
 10
6.374310501470553
 20
7.463480700432571
 30
0.0
 40
0.1778766008508943
100
AcDbArc
 50
0.0
 51
180.0
  0
CIRCLE
  5
4993
330
1E
100
AcDbEntity
  8
OBJECT
 62
     7
100
AcDbCircle
 10
6.374310501470553
 20
7.463480700432571
 30
0.0
 40
0.1185844005672628
  0
CIRCLE
  5
4994
330
1E
100
AcDbEntity
  8
OBJECT
 62
     7
100
AcDbCircle
 10
6.374310501470553
 20
7.463480700432571
 30
0.0
 40
0.1067259605105366
  0
ARC
  5
4995
330
1E
100
AcDbEntity
  8
OBJECT
 62
     7
100
AcDbCircle
 10
6.374310501470553
 20
7.463480700432571
 30
0.0
 40
0.2312395771533492
100
AcDbArc
 50
320.2843933
 51
219.714798
  0
ARC
  5
4996
330
1E
100
AcDbEntity
  8
OBJECT
 62
     7
100
AcDbCircle
 10
5.472835653634174
 20
6.664940450218216
 30
0.0
 40
0.1383484673284733
100
AcDbArc
 50
51.33200070000005
 51
134.4149932999999
  0
LINE
  5
4998
330
1E
100
AcDbEntity
  8
OBJECT
 62
     7
100
AcDbLine
 10
6.196433900619656
 20
7.463480700432571
 30
0.0
 11
6.196433900619656
 21
7.139278957681526
 31
0.0
  0
ARC
  5
4999
330
1E
100
AcDbEntity
  8
OBJECT
 62
     7
100
AcDbCircle
 10
4.822575662143373
 20
7.040457414314587
 30
0.0
 40
0.0197640667612105
100
AcDbArc
 50
270.0
 51
0.0
  0
CIRCLE
  5
499A
330
1E
100
AcDbEntity
  8
OBJECT
 62
     7
100
AcDbCircle
 10
4.690471015305153
 20
7.010813729341729
 30
0.0
 40
0.0098794008069126
  0
CIRCLE
  5
499B
330
1E
100
AcDbEntity
  8
OBJECT
 62
     7
100
AcDbCircle
 10
4.688847333975711
 20
6.933731275927452
 30
0.0
 40
0.0104749553834416
  0
LINE
  5
499C
330
1E
100
AcDbEntity
  8
OBJECT
 62
     7
100
AcDbLine
 10
4.842339728904585
 20
7.040457414314587
 30
0.0
 11
4.842339728904585
 21
7.060222690636686
 31
0.0
  0
ARC
  5
499D
330
1E
100
AcDbEntity
  8
OBJECT
 62
     7
100
AcDbCircle
 10
4.921395995949426
 20
7.060221481075795
 30
0.0
 40
0.0790562670448419
100
AcDbArc
 50
90.00005340000008
 51
180.0
  0
LINE
  5
499E
330
1E
100
AcDbEntity
  8
OBJECT
 62
     7
100
AcDbLine
 10
4.763283461859739
 20
6.803288917546689
 30
0.0
 11
4.783047528620953
 21
6.763760784024269
 31
0.0
  0
CIRCLE
  5
499F
330
1E
100
AcDbEntity
  8
OBJECT
 62
     7
100
AcDbCircle
 10
4.687016465934403
 20
6.846770105542968
 30
0.0
 40
0.0104749553834416
  0
LINE
  5
49A0
330
1E
100
AcDbEntity
  8
OBJECT
 62
     7
100
AcDbLine
 10
4.680796469050223
 20
7.020693347553379
 30
0.0
 11
4.676217340327939
 21
6.803288917546689
 31
0.0
  0
LINE
  5
49A1
330
1E
100
AcDbEntity
  8
OBJECT
 62
     7
100
AcDbLine
 10
4.695981407089156
 20
6.803288917546689
 30
0.0
 11
4.70056053581143
 21
7.020693347553379
 31
0.0
  0
LINE
  5
49A2
330
1E
100
AcDbEntity
  8
OBJECT
 62
     7
100
AcDbLine
 10
4.690678502430827
 20
7.020693347553379
 30
0.0
 11
4.686099373708549
 21
6.803288917546689
 31
0.0
  0
ARC
  5
49A3
330
1E
100
AcDbEntity
  8
OBJECT
 62
     7
100
AcDbCircle
 10
6.156905767097235
 20
7.139278957681526
 30
0.0
 40
0.039528133522421
100
AcDbArc
 50
270.0
 51
0.0
  0
ARC
  5
49A4
330
1E
100
AcDbEntity
  8
OBJECT
 62
     7
100
AcDbCircle
 10
6.156905767097235
 20
7.178805881643066
 30
0.0
 40
0.039528133522421
100
AcDbArc
 50
270.0
 51
0.0
  0
LINE
  5
49A5
330
1E
100
AcDbEntity
  8
OBJECT
 62
     7
100
AcDbLine
 10
5.13880073032274
 20
7.099749614598215
 30
0.0
 11
5.13880073032274
 21
7.13927774812064
 31
0.0
  0
LINE
  5
49A7
330
1E
100
AcDbEntity
  8
OBJECT
 62
     7
100
AcDbLine
 10
6.552187102321443
 20
7.463481909993456
 30
0.0
 11
6.552187102321443
 21
7.13927774812064
 31
0.0
  0
LINE
  5
49A9
330
1E
100
AcDbEntity
  8
OBJECT
 62
     7
100
AcDbLine
 10
6.552187102321443
 20
7.13927774812064
 30
0.0
 11
6.552187102321443
 21
7.099749614598215
 31
0.0
  0
LINE
  5
49AA
330
1E
100
AcDbEntity
  8
CENTER
 62
     3
100
AcDbLine
 10
6.045730998216562
 20
7.463480700432571
 30
0.0
 11
6.664841318373891
 21
7.463480700432571
 31
0.0
  0
LINE
  5
49AB
330
1E
100
AcDbEntity
  8
CENTER
 62
     3
100
AcDbLine
 10
6.374310501470553
 20
7.069584357016294
 30
0.0
 11
6.374310501470553
 21
7.754012122116352
 31
0.0
  0
ARC
  5
49AC
330
1E
100
AcDbEntity
  8
OBJECT
 62
     7
100
AcDbCircle
 10
10.04642456220121
 20
6.947828654456904
 30
0.0
 40
0.0196584406111915
100
AcDbArc
 50
270.0
 51
0.0
  0
LINE
  5
49AD
330
1E
100
AcDbEntity
  8
OBJECT
 62
     7
100
AcDbLine
 10
10.0247983588651
 20
7.046122957034318
 30
0.0
 11
10.06411524008748
 21
7.046122957034318
 31
0.0
  0
ARC
  5
49AE
330
1E
100
AcDbEntity
  8
OBJECT
 62
     7
100
AcDbCircle
 10
9.997278460673234
 20
7.097235924862328
 30
0.0
 40
0.066838698078051
100
AcDbArc
 50
0.0
 51
90.0
  0
ARC
  5
49AF
330
1E
100
AcDbEntity
  8
OBJECT
 62
     7
100
AcDbCircle
 10
10.04642456220121
 20
6.810222570056598
 30
0.0
 40
0.0196584406111915
100
AcDbArc
 50
270.0
 51
0.0
  0
LINE
  5
49B1
330
1E
100
AcDbEntity
  8
CENTER
 62
     3
100
AcDbLine
 10
10.08770921008021
 20
7.46688545737269
 30
0.0
 11
9.415386699918167
 21
7.46688545737269
 31
0.0
  0
LINE
  5
49B2
330
1E
100
AcDbEntity
  8
OBJECT
 62
     7
100
AcDbLine
 10
10.14471676525717
 20
6.790564129445408
 30
0.0
 11
9.35837914080951
 21
6.790564129445408
 31
0.0
  0
LINE
  5
49B3
330
1E
100
AcDbEntity
  8
OBJECT
 62
     7
100
AcDbLine
 10
9.338720700198322
 20
6.770905688834215
 30
0.0
 11
9.338720700198322
 21
6.408005167153524
 31
0.0
  0
LINE
  5
49B5
330
1E
100
AcDbEntity
  8
OBJECT
 62
     7
100
AcDbLine
 10
9.604109648449405
 20
7.710650003000822
 30
0.0
 11
9.604109648449405
 21
7.223120915676245
 31
0.0
  0
LINE
  5
49B6
330
1E
100
AcDbEntity
  8
OBJECT
 62
     7
100
AcDbLine
 10
9.898986257617281
 20
7.710650003000822
 30
0.0
 11
9.898986257617281
 21
7.223120915676245
 31
0.0
  0
LINE
  5
49B7
330
1E
100
AcDbEntity
  8
OBJECT
 62
     7
100
AcDbLine
 10
9.611971106030079
 20
7.716547295351201
 30
0.0
 11
9.611971106030079
 21
7.217223623325866
 31
0.0
  0
LINE
  5
49B8
330
1E
100
AcDbEntity
  8
OBJECT
 62
     7
100
AcDbLine
 10
9.891124803968292
 20
7.716547295351201
 30
0.0
 11
9.891124803968292
 21
7.217223623325866
 31
0.0
  0
LINE
  5
49B9
330
1E
100
AcDbEntity
  8
OBJECT
 62
     7
100
AcDbLine
 10
9.594280428143811
 20
7.663469863484602
 30
0.0
 11
9.594280428143811
 21
7.171938058160176
 31
0.0
  0
LINE
  5
49BA
330
1E
100
AcDbEntity
  8
OBJECT
 62
     7
100
AcDbLine
 10
9.554963546921428
 20
7.663469863484602
 30
0.0
 11
9.554963546921428
 21
7.164074501058044
 31
0.0
  0
LINE
  5
49BB
330
1E
100
AcDbEntity
  8
OBJECT
 62
     7
100
AcDbLine
 10
9.908815477922875
 20
7.663469863484602
 30
0.0
 11
9.908815477922875
 21
7.171938058160176
 31
0.0
  0
LINE
  5
49BC
330
1E
100
AcDbEntity
  8
OBJECT
 62
     7
100
AcDbLine
 10
9.948132359145262
 20
7.663469863484602
 30
0.0
 11
9.948132359145262
 21
7.164074501058044
 31
0.0
  0
LINE
  5
49BD
330
1E
100
AcDbEntity
  8
OBJECT
 62
     7
100
AcDbLine
 10
9.611971106030079
 20
7.217223623325866
 30
0.0
 11
9.604109648449405
 21
7.223120915676245
 31
0.0
  0
ARC
  5
49BE
330
1E
100
AcDbEntity
  8
OBJECT
 62
     7
100
AcDbCircle
 10
9.673893275291534
 20
7.054336571988409
 30
0.0
 40
0.0629070099558127
100
AcDbArc
 50
118.9710999
 51
180.0
  0
LINE
  5
49BF
330
1E
100
AcDbEntity
  8
OBJECT
 62
     7
100
AcDbLine
 10
9.997278460673234
 20
7.124757619835667
 30
0.0
 11
9.505817445393452
 21
7.124757619835667
 31
0.0
  0
LINE
  5
49C0
330
1E
100
AcDbEntity
  8
OBJECT
 62
     7
100
AcDbLine
 10
9.928473918534063
 20
6.829881313407772
 30
0.0
 11
9.574621987532621
 21
6.829881313407772
 31
0.0
  0
LINE
  5
49C1
330
1E
100
AcDbEntity
  8
OBJECT
 62
     7
100
AcDbLine
 10
9.602141885724485
 20
7.164074501058044
 30
0.0
 11
9.882553031884706
 21
7.164074501058044
 31
0.0
  0
LINE
  5
49C2
330
1E
100
AcDbEntity
  8
OBJECT
 62
     7
100
AcDbLine
 10
9.548061975610611
 20
7.026465416779709
 30
0.0
 11
9.948132359145262
 21
7.026465416779709
 31
0.0
  0
ARC
  5
49C3
330
1E
100
AcDbEntity
  8
OBJECT
 62
     7
100
AcDbCircle
 10
9.602141885724485
 20
7.171938058160176
 30
0.0
 40
0.0078633762444766
100
AcDbArc
 50
180.0
 51
270.0
  0
LINE
  5
49C4
330
1E
100
AcDbEntity
  8
OBJECT
 62
     7
100
AcDbLine
 10
9.573311748534193
 20
7.026465416779709
 30
0.0
 11
9.565819846046887
 21
7.124757619835667
 31
0.0
  0
ARC
  5
49C5
330
1E
100
AcDbEntity
  8
OBJECT
 62
     7
100
AcDbCircle
 10
9.505817445393452
 20
7.097235924862328
 30
0.0
 40
0.0275218168556681
100
AcDbArc
 50
90.0
 51
180.0
  0
LINE
  5
49C6
330
1E
100
AcDbEntity
  8
OBJECT
 62
     7
100
AcDbLine
 10
9.378037581420704
 20
7.085440738613279
 30
0.0
 11
9.417354462643087
 21
7.085440738613279
 31
0.0
  0
ARC
  5
49C7
330
1E
100
AcDbEntity
  8
OBJECT
 62
     7
100
AcDbCircle
 10
9.505817445393452
 20
7.097235924862328
 30
0.0
 40
0.066838698078051
100
AcDbArc
 50
90.0
 51
180.0
  0
LINE
  5
49C8
330
1E
100
AcDbEntity
  8
OBJECT
 62
     7
100
AcDbLine
 10
9.517028901770364
 20
6.997487994620669
 30
0.0
 11
9.498133570370196
 21
6.92817021384571
 31
0.0
  0
LINE
  5
49C9
330
1E
100
AcDbEntity
  8
OBJECT
 62
     7
100
AcDbLine
 10
9.514211638851305
 20
6.987148535557322
 30
0.0
 11
9.47829755113327
 21
6.987148535557322
 31
0.0
  0
LINE
  5
49CA
330
1E
100
AcDbEntity
  8
OBJECT
 62
     7
100
AcDbLine
 10
9.456671343865469
 20
6.92817021384571
 30
0.0
 11
9.498133570370196
 21
6.92817021384571
 31
0.0
  0
LINE
  5
49CB
330
1E
100
AcDbEntity
  8
OBJECT
 62
     7
100
AcDbLine
 10
9.438980669910888
 20
6.987148535557322
 30
0.0
 11
9.437012903254281
 21
6.987148535557322
 31
0.0
  0
ARC
  5
49CC
330
1E
100
AcDbEntity
  8
OBJECT
 62
     7
100
AcDbCircle
 10
9.456671343865469
 20
6.947828654456904
 30
0.0
 40
0.0196584406111915
100
AcDbArc
 50
180.0
 51
270.0
  0
LINE
  5
49CD
330
1E
100
AcDbEntity
  8
OBJECT
 62
     7
100
AcDbLine
 10
9.438980669910888
 20
7.046122957034318
 30
0.0
 11
9.47829755113327
 21
7.046122957034318
 31
0.0
  0
ARC
  5
49CE
330
1E
100
AcDbEntity
  8
OBJECT
 62
     7
100
AcDbCircle
 10
9.417354462643087
 20
7.065782298002085
 30
0.0
 40
0.0196584406111915
100
AcDbArc
 50
0.0
 51
90.0
  0
LINE
  5
49CF
330
1E
100
AcDbEntity
  8
OBJECT
 62
     7
100
AcDbLine
 10
9.438980669910888
 20
7.097235924862328
 30
0.0
 11
9.438980669910888
 21
6.939259882251352
 31
0.0
  0
LINE
  5
49D0
330
1E
100
AcDbEntity
  8
OBJECT
 62
     7
100
AcDbLine
 10
9.47829755113327
 20
7.097235924862328
 30
0.0
 11
9.47829755113327
 21
6.92817021384571
 31
0.0
  0
ARC
  5
49D1
330
1E
100
AcDbEntity
  8
OBJECT
 62
     7
100
AcDbCircle
 10
9.378037581420704
 20
7.065782298002085
 30
0.0
 40
0.0196584406111915
100
AcDbArc
 50
90.0
 51
180.0
  0
ARC
  5
49D2
330
1E
100
AcDbEntity
  8
OBJECT
 62
     7
100
AcDbCircle
 10
9.594280428143811
 20
7.164074501058044
 30
0.0
 40
0.039316881222383
100
AcDbArc
 50
180.0
 51
270.0
  0
ARC
  5
49D3
330
1E
100
AcDbEntity
  8
OBJECT
 62
     7
100
AcDbCircle
 10
9.554963546921428
 20
6.987148535557322
 30
0.0
 40
0.039316881222383
100
AcDbArc
 50
90.0
 51
164.8361053
  0
LINE
  5
49D4
330
1E
100
AcDbEntity
  8
OBJECT
 62
     7
100
AcDbLine
 10
9.505817445393452
 20
7.164074501058044
 30
0.0
 11
9.554963546921428
 21
7.164074501058044
 31
0.0
  0
LINE
  5
49D5
330
1E
100
AcDbEntity
  8
OBJECT
 62
     7
100
AcDbLine
 10
9.554963546921428
 20
6.810222872796584
 30
0.0
 11
9.554963546921428
 21
6.790564129445408
 31
0.0
  0
ARC
  5
49D6
330
1E
100
AcDbEntity
  8
OBJECT
 62
     7
100
AcDbCircle
 10
9.35837914080951
 20
6.770905688834215
 30
0.0
 40
0.0196584406111915
100
AcDbArc
 50
90.0
 51
180.0
  0
ARC
  5
49D7
330
1E
100
AcDbEntity
  8
OBJECT
 62
     7
100
AcDbCircle
 10
9.456671343865469
 20
6.810222570056598
 30
0.0
 40
0.0196584406111915
100
AcDbArc
 50
180.0
 51
270.0
  0
ARC
  5
49D8
330
1E
100
AcDbEntity
  8
OBJECT
 62
     7
100
AcDbCircle
 10
9.574621987532621
 20
6.810222872796584
 30
0.0
 40
0.0196584406111915
100
AcDbArc
 50
90.0
 51
180.0
  0
LINE
  5
49D9
330
1E
100
AcDbEntity
  8
OBJECT
 62
     7
100
AcDbLine
 10
9.35837914080951
 20
7.065782298002085
 30
0.0
 11
9.35837914080951
 21
6.790564129445408
 31
0.0
  0
LINE
  5
49DA
330
1E
100
AcDbEntity
  8
OBJECT
 62
     7
100
AcDbLine
 10
9.437012903254281
 20
7.065782298002085
 30
0.0
 11
9.437012903254281
 21
6.810222570056598
 31
0.0
  0
LINE
  5
49DB
330
1E
100
AcDbEntity
  8
OBJECT
 62
     7
100
AcDbLine
 10
10.0247983588651
 20
7.097235924862328
 30
0.0
 11
10.0247983588651
 21
6.92817021384571
 31
0.0
  0
ARC
  5
49DC
330
1E
100
AcDbEntity
  8
OBJECT
 62
     7
100
AcDbCircle
 10
9.908815477922875
 20
7.164074501058044
 30
0.0
 40
0.039316881222383
100
AcDbArc
 50
270.0
 51
0.0
  0
ARC
  5
49DD
330
1E
100
AcDbEntity
  8
OBJECT
 62
     7
100
AcDbCircle
 10
9.900954024273888
 20
7.171938058160176
 30
0.0
 40
0.0078633762444766
100
AcDbArc
 50
270.0
 51
0.0
  0
LINE
  5
49DE
330
1E
100
AcDbEntity
  8
OBJECT
 62
     7
100
AcDbLine
 10
9.948132359145262
 20
7.164074501058044
 30
0.0
 11
9.997278460673234
 21
7.164074501058044
 31
0.0
  0
LINE
  5
49DF
330
1E
100
AcDbEntity
  8
OBJECT
 62
     7
100
AcDbLine
 10
9.836080210925059
 20
7.124757619835667
 30
0.0
 11
9.836080210925059
 21
7.093304295715411
 31
0.0
  0
CIRCLE
  5
49E0
330
1E
100
AcDbEntity
  8
OBJECT
 62
     7
100
AcDbCircle
 10
9.849840156089303
 20
7.114928399530068
 30
0.0
 40
0.0098292203055957
  0
CIRCLE
  5
49E1
330
1E
100
AcDbEntity
  8
OBJECT
 62
     7
100
AcDbCircle
 10
9.849840156089303
 20
7.089372367760196
 30
0.0
 40
0.0098292203055957
  0
ARC
  5
49E2
330
1E
100
AcDbEntity
  8
OBJECT
 62
     7
100
AcDbCircle
 10
9.751547953033345
 20
6.656886973122279
 30
0.0
 40
0.4678708708196047
100
AcDbArc
 50
79.08914950000005
 51
79.59107969999999
  0
ARC
  5
49E3
330
1E
100
AcDbEntity
  8
OBJECT
 62
     7
100
AcDbCircle
 10
9.810523274866916
 20
7.158807434723527
 30
0.0
 40
0.039316881222383
100
AcDbArc
 50
7.699182999999986
 51
90.0
  0
LINE
  5
49E4
330
1E
100
AcDbEntity
  8
OBJECT
 62
     7
100
AcDbLine
 10
9.891124803968292
 20
7.217223623325866
 30
0.0
 11
9.898986257617281
 21
7.223120915676245
 31
0.0
  0
LINE
  5
49E5
330
1E
100
AcDbEntity
  8
OBJECT
 62
     7
100
AcDbLine
 10
9.882553031884706
 20
7.164074501058044
 30
0.0
 11
9.900954024273888
 21
7.164074501058044
 31
0.0
  0
ARC
  5
49E6
330
1E
100
AcDbEntity
  8
OBJECT
 62
     7
100
AcDbCircle
 10
9.948132359145262
 20
6.987148535557322
 30
0.0
 40
0.039316881222383
100
AcDbArc
 50
15.16388990000004
 51
90.0
  0
LINE
  5
49E7
330
1E
100
AcDbEntity
  8
OBJECT
 62
     7
100
AcDbLine
 10
9.986067008228012
 20
6.997487994620669
 30
0.0
 11
10.00496233962818
 21
6.92817021384571
 31
0.0
  0
CIRCLE
  5
49E8
330
1E
100
AcDbEntity
  8
OBJECT
 62
     7
100
AcDbCircle
 10
9.849840156089303
 20
7.00287564976158
 30
0.0
 40
0.0098292203055957
  0
LINE
  5
49E9
330
1E
100
AcDbEntity
  8
OBJECT
 62
     7
100
AcDbLine
 10
9.892103884739555
 20
7.026465416779709
 30
0.0
 11
9.892103884739555
 21
7.054336870796708
 31
0.0
  0
LINE
  5
49EA
330
1E
100
AcDbEntity
  8
OBJECT
 62
     7
100
AcDbLine
 10
9.937276063951491
 20
7.124757619835667
 30
0.0
 11
9.929784161464175
 21
7.026465416779709
 31
0.0
  0
ARC
  5
49EB
330
1E
100
AcDbEntity
  8
OBJECT
 62
     7
100
AcDbCircle
 10
9.829197834115644
 20
7.054336870796708
 30
0.0
 40
0.0629070099558127
100
AcDbArc
 50
0.0
 51
61.02658080000002
  0
ARC
  5
49EC
330
1E
100
AcDbEntity
  8
OBJECT
 62
     7
100
AcDbCircle
 10
9.997278460673234
 20
7.097235924862328
 30
0.0
 40
0.0275218168556681
100
AcDbArc
 50
0.0
 51
90.0
  0
LINE
  5
49ED
330
1E
100
AcDbEntity
  8
OBJECT
 62
     7
100
AcDbLine
 10
10.0247983588651
 20
6.987148535557322
 30
0.0
 11
9.988884271147062
 21
6.987148535557322
 31
0.0
  0
LINE
  5
49EE
330
1E
100
AcDbEntity
  8
OBJECT
 62
     7
100
AcDbLine
 10
10.00496233962818
 20
6.92817021384571
 30
0.0
 11
10.04642456220121
 21
6.92817021384571
 31
0.0
  0
LINE
  5
49EF
330
1E
100
AcDbEntity
  8
OBJECT
 62
     7
100
AcDbLine
 10
9.948132359145262
 20
6.810222872796584
 30
0.0
 11
9.948132359145262
 21
6.790564129445408
 31
0.0
  0
ARC
  5
49F0
330
1E
100
AcDbEntity
  8
OBJECT
 62
     7
100
AcDbCircle
 10
9.928473918534063
 20
6.810222872796584
 30
0.0
 40
0.0196584406111915
100
AcDbArc
 50
0.0
 51
90.0
  0
CIRCLE
  5
49F1
330
1E
100
AcDbEntity
  8
OBJECT
 62
     7
100
AcDbCircle
 10
9.849840156089303
 20
6.839710533713368
 30
0.0
 40
0.0098292203055957
  0
LINE
  5
49F2
330
1E
100
AcDbEntity
  8
OBJECT
 62
     7
100
AcDbLine
 10
9.840010935783704
 20
7.114928399530068
 30
0.0
 11
9.840010935783704
 21
6.829881313407772
 31
0.0
  0
LINE
  5
49F3
330
1E
100
AcDbEntity
  8
OBJECT
 62
     7
100
AcDbLine
 10
9.859669376394897
 20
7.114928399530068
 30
0.0
 11
9.859669376394897
 21
6.829881313407772
 31
0.0
  0
LINE
  5
49F4
330
1E
100
AcDbEntity
  8
OBJECT
 62
     7
100
AcDbLine
 10
9.849840156089303
 20
7.134816611926812
 30
0.0
 11
9.849840156089303
 21
6.820418648317501
 31
0.0
  0
CIRCLE
  5
49F5
330
1E
100
AcDbEntity
  8
OBJECT
 62
     7
100
AcDbCircle
 10
9.849840156089303
 20
6.916378330214689
 30
0.0
 40
0.0098292203055957
  0
LINE
  5
49F6
330
1E
100
AcDbEntity
  8
OBJECT
 62
     7
100
AcDbLine
 10
9.667015699073319
 20
7.124757619835667
 30
0.0
 11
9.667015699073319
 21
7.093304295715411
 31
0.0
  0
CIRCLE
  5
49F7
330
1E
100
AcDbEntity
  8
OBJECT
 62
     7
100
AcDbCircle
 10
9.653255749977386
 20
7.114928399530068
 30
0.0
 40
0.0098292203055957
  0
ARC
  5
49F8
330
1E
100
AcDbEntity
  8
OBJECT
 62
     7
100
AcDbCircle
 10
9.751547953033345
 20
6.656886973122279
 30
0.0
 40
0.4678708708196047
100
AcDbArc
 50
100.4088973999999
 51
100.9108963
  0
ARC
  5
49F9
330
1E
100
AcDbEntity
  8
OBJECT
 62
     7
100
AcDbCircle
 10
9.692572631199769
 20
7.158807434723527
 30
0.0
 40
0.039316881222383
100
AcDbArc
 50
90.0
 51
172.3007965
  0
CIRCLE
  5
49FA
330
1E
100
AcDbEntity
  8
OBJECT
 62
     7
100
AcDbCircle
 10
9.653255749977386
 20
6.959627139392281
 30
0.0
 40
0.0098292203055957
  0
CIRCLE
  5
49FB
330
1E
100
AcDbEntity
  8
OBJECT
 62
     7
100
AcDbCircle
 10
9.653255749977386
 20
7.046124160130883
 30
0.0
 40
0.0098292203055957
  0
LINE
  5
49FC
330
1E
100
AcDbEntity
  8
OBJECT
 62
     7
100
AcDbLine
 10
9.610992025258815
 20
7.026465416779709
 30
0.0
 11
9.610992025258815
 21
7.054336571988409
 31
0.0
  0
CIRCLE
  5
49FD
330
1E
100
AcDbEntity
  8
OBJECT
 62
     7
100
AcDbCircle
 10
9.653255749977386
 20
6.873129521037091
 30
0.0
 40
0.0098292203055957
  0
LINE
  5
49FE
330
1E
100
AcDbEntity
  8
OBJECT
 62
     7
100
AcDbLine
 10
9.663084970282985
 20
7.114928399530068
 30
0.0
 11
9.663084970282985
 21
6.829881313407772
 31
0.0
  0
LINE
  5
49FF
330
1E
100
AcDbEntity
  8
OBJECT
 62
     7
100
AcDbLine
 10
9.643426529671787
 20
7.114928399530068
 30
0.0
 11
9.643426529671787
 21
6.829881313407772
 31
0.0
  0
LINE
  5
4A00
330
1E
100
AcDbEntity
  8
OBJECT
 62
     7
100
AcDbLine
 10
9.653255749977386
 20
6.820418648317501
 30
0.0
 11
9.653255749977386
 21
7.134816611926812
 31
0.0
  0
LINE
  5
4A01
330
1E
100
AcDbEntity
  8
OBJECT
 62
     7
100
AcDbLine
 10
9.891124803968292
 20
7.217223623325866
 30
0.0
 11
9.611971106030079
 21
7.217223623325866
 31
0.0
  0
LINE
  5
4A02
330
1E
100
AcDbEntity
  8
OBJECT
 62
     7
100
AcDbLine
 10
9.836080210925059
 20
7.093304295715411
 30
0.0
 11
9.667015699073319
 21
7.093304295715411
 31
0.0
  0
LINE
  5
4A03
330
1E
100
AcDbEntity
  8
OBJECT
 62
     7
100
AcDbLine
 10
9.847728411013655
 20
7.098972413896836
 30
0.0
 11
9.651144004901738
 21
7.055723907459221
 31
0.0
  0
LINE
  5
4A04
330
1E
100
AcDbEntity
  8
OBJECT
 62
     7
100
AcDbLine
 10
9.655367498984718
 20
7.036524408870853
 30
0.0
 11
9.851951905096635
 21
7.079772919240152
 31
0.0
  0
LINE
  5
4A05
330
1E
100
AcDbEntity
  8
OBJECT
 62
     7
100
AcDbLine
 10
9.847728411013655
 20
7.012475397089927
 30
0.0
 11
9.651144004901738
 21
6.969226886720623
 31
0.0
  0
LINE
  5
4A06
330
1E
100
AcDbEntity
  8
OBJECT
 62
     7
100
AcDbLine
 10
9.655367498984718
 20
6.950027690872243
 30
0.0
 11
9.851951905096635
 21
6.993275902433243
 31
0.0
  0
LINE
  5
4A07
330
1E
100
AcDbEntity
  8
OBJECT
 62
     7
100
AcDbLine
 10
9.847728411013655
 20
6.925978376351329
 30
0.0
 11
9.651144004901738
 21
6.882729567173731
 31
0.0
  0
LINE
  5
4A08
330
1E
100
AcDbEntity
  8
OBJECT
 62
     7
100
AcDbLine
 10
9.655367498984718
 20
6.863530072517047
 30
0.0
 11
9.851951905096635
 21
6.906778582886341
 31
0.0
  0
LINE
  5
4A09
330
1E
100
AcDbEntity
  8
OBJECT
 62
     7
100
AcDbLine
 10
9.810523274866916
 20
7.198124315945911
 30
0.0
 11
9.692572631199769
 21
7.198124315945911
 31
0.0
  0
LINE
  5
4A0A
330
1E
100
AcDbEntity
  8
OBJECT
 62
     7
100
AcDbLine
 10
9.604109648449405
 20
7.710650003000822
 30
0.0
 11
9.611971106030079
 21
7.716547295351201
 31
0.0
  0
LINE
  5
4A0B
330
1E
100
AcDbEntity
  8
OBJECT
 62
     7
100
AcDbLine
 10
9.594280428143811
 20
7.663469863484602
 30
0.0
 11
9.554963546921428
 21
7.663469863484602
 31
0.0
  0
LINE
  5
4A0C
330
1E
100
AcDbEntity
  8
OBJECT
 62
     7
100
AcDbLine
 10
9.515646665699046
 20
7.573040317174196
 30
0.0
 11
9.527443652661252
 21
7.584836101039837
 31
0.0
  0
LINE
  5
4A0D
330
1E
100
AcDbEntity
  8
OBJECT
 62
     7
100
AcDbLine
 10
9.554963546921428
 20
7.584836101039837
 30
0.0
 11
9.527443652661252
 21
7.584836101039837
 31
0.0
  0
LINE
  5
4A0E
330
1E
100
AcDbEntity
  8
OBJECT
 62
     7
100
AcDbLine
 10
9.604109648449405
 20
7.55436516030887
 30
0.0
 11
9.594280428143811
 21
7.55436516030887
 31
0.0
  0
LINE
  5
4A0F
330
1E
100
AcDbEntity
  8
OBJECT
 62
     7
100
AcDbLine
 10
9.604109648449405
 20
7.379404559203315
 30
0.0
 11
9.594280428143811
 21
7.379404559203315
 31
0.0
  0
LINE
  5
4A10
330
1E
100
AcDbEntity
  8
OBJECT
 62
     7
100
AcDbLine
 10
9.515646665699046
 20
7.360729999954585
 30
0.0
 11
9.527443652661252
 21
7.348934813705538
 31
0.0
  0
LINE
  5
4A11
330
1E
100
AcDbEntity
  8
OBJECT
 62
     7
100
AcDbLine
 10
9.554963546921428
 20
7.348934813705538
 30
0.0
 11
9.527443652661252
 21
7.348934813705538
 31
0.0
  0
LINE
  5
4A12
330
1E
100
AcDbEntity
  8
OBJECT
 62
     7
100
AcDbLine
 10
9.527443652661252
 20
7.584836101039837
 30
0.0
 11
9.527443652661252
 21
7.348934813705538
 31
0.0
  0
LINE
  5
4A13
330
1E
100
AcDbEntity
  8
OBJECT
 62
     7
100
AcDbLine
 10
9.515646665699046
 20
7.573040317174196
 30
0.0
 11
9.515646665699046
 21
7.360729999954585
 31
0.0
  0
LINE
  5
4A14
330
1E
100
AcDbEntity
  8
OBJECT
 62
     7
100
AcDbLine
 10
9.948132359145262
 20
7.663469863484602
 30
0.0
 11
9.908815477922875
 21
7.663469863484602
 31
0.0
  0
LINE
  5
4A15
330
1E
100
AcDbEntity
  8
OBJECT
 62
     7
100
AcDbLine
 10
9.891124803968292
 20
7.716547295351201
 30
0.0
 11
9.898986257617281
 21
7.710650003000822
 31
0.0
  0
LINE
  5
4A16
330
1E
100
AcDbEntity
  8
OBJECT
 62
     7
100
AcDbLine
 10
9.891124803968292
 20
7.716547295351201
 30
0.0
 11
9.611971106030079
 21
7.716547295351201
 31
0.0
  0
LINE
  5
4A17
330
1E
100
AcDbEntity
  8
OBJECT
 62
     7
100
AcDbLine
 10
9.908815477922875
 20
7.55436516030887
 30
0.0
 11
9.898986257617281
 21
7.55436516030887
 31
0.0
  0
LINE
  5
4A18
330
1E
100
AcDbEntity
  8
OBJECT
 62
     7
100
AcDbLine
 10
9.967790799756446
 20
7.553381876563008
 30
0.0
 11
9.948132359145262
 21
7.553381876563008
 31
0.0
  0
LINE
  5
4A19
330
1E
100
AcDbEntity
  8
OBJECT
 62
     7
100
AcDbLine
 10
9.908815477922875
 20
7.379404559203315
 30
0.0
 11
9.898986257617281
 21
7.379404559203315
 31
0.0
  0
LINE
  5
4A1A
330
1E
100
AcDbEntity
  8
OBJECT
 62
     7
100
AcDbLine
 10
9.967790799756446
 20
7.380388440565779
 30
0.0
 11
9.948132359145262
 21
7.380388440565779
 31
0.0
  0
LINE
  5
4A1B
330
1E
100
AcDbEntity
  8
OBJECT
 62
     7
100
AcDbLine
 10
9.967790799756446
 20
7.553381876563008
 30
0.0
 11
9.967790799756446
 21
7.380388440565779
 31
0.0
  0
LINE
  5
4A1C
330
1E
100
AcDbEntity
  8
OBJECT
 62
     7
100
AcDbLine
 10
10.16437520586836
 20
6.770905688834215
 30
0.0
 11
10.16437520586836
 21
6.408005167153524
 31
0.0
  0
LINE
  5
4A1E
330
1E
100
AcDbEntity
  8
OBJECT
 62
     7
100
AcDbLine
 10
10.0857414434236
 20
7.085440738613279
 30
0.0
 11
10.12505832464598
 21
7.085440738613279
 31
0.0
  0
LINE
  5
4A1F
330
1E
100
AcDbEntity
  8
OBJECT
 62
     7
100
AcDbLine
 10
10.0660830028124
 20
6.987148535557322
 30
0.0
 11
10.06411524008748
 21
6.987148535557322
 31
0.0
  0
ARC
  5
4A20
330
1E
100
AcDbEntity
  8
OBJECT
 62
     7
100
AcDbCircle
 10
10.0857414434236
 20
7.065782298002085
 30
0.0
 40
0.0196584406111915
100
AcDbArc
 50
90.0
 51
180.0
  0
ARC
  5
4A21
330
1E
100
AcDbEntity
  8
OBJECT
 62
     7
100
AcDbCircle
 10
10.12505832464598
 20
7.065782298002085
 30
0.0
 40
0.0196584406111915
100
AcDbArc
 50
0.0
 51
90.0
  0
LINE
  5
4A22
330
1E
100
AcDbEntity
  8
OBJECT
 62
     7
100
AcDbLine
 10
10.06411524008748
 20
7.097235924862328
 30
0.0
 11
10.06411524008748
 21
6.939259882251352
 31
0.0
  0
ARC
  5
4A23
330
1E
100
AcDbEntity
  8
OBJECT
 62
     7
100
AcDbCircle
 10
10.14471676525717
 20
6.770905688834215
 30
0.0
 40
0.0196584406111915
100
AcDbArc
 50
0.0
 51
90.0
  0
LINE
  5
4A24
330
1E
100
AcDbEntity
  8
OBJECT
 62
     7
100
AcDbLine
 10
10.14471676525717
 20
7.065782298002085
 30
0.0
 11
10.14471676525717
 21
6.790564129445408
 31
0.0
  0
LINE
  5
4A25
330
1E
100
AcDbEntity
  8
OBJECT
 62
     7
100
AcDbLine
 10
10.0660830028124
 20
7.065782298002085
 30
0.0
 11
10.0660830028124
 21
6.810222570056598
 31
0.0
  0
LEADER
  5
4A31
330
1E
100
AcDbEntity
  8
DIM
100
AcDbLeader
  3
Standard
 76
     3
 10
9.744390770108232
 20
7.71653497066601
 30
0.0
 10
10.24453994268097
 20
8.314468372799979
 30
0.0
 10
10.38392580581945
 20
8.314468372799979
 30
0.0
1001
ACAD
1000
DSTYLE
1002
{
1070
   147
1040
0.09
1070
    77
1070
     0
1002
}
  0
MTEXT
  5
4A32
330
1E
100
AcDbEntity
  8
DIM
 62
     7
100
AcDbMText
 10
11.28348934542698
 20
8.242957023997199
 30
0.0
 40
0.09
 41
0.0
 71
     5
 72
     1
  1
12.7 DIA x 7.5 WIDTH\P[.500 DIA X .295 WIDTH]
 73
     1
 44
1.0
1001
ACAD
1000
MTEXTBEGIN
1070
    73
1070
     1
1070
    44
1040
1.0
1070
    74
1070
     0
1000
MTEXTEND
  0
SOLID
  5
4A3A
330
1E
100
AcDbEntity
  8
DIM
 62
     1
100
AcDbTrace
 10
3.003192839452387
 20
6.167274172219761
 30
0.0
 11
3.053192839452387
 21
6.167274172219761
 31
0.0
 12
3.028192839452387
 22
6.01727417221976
 32
0.0
 13
3.028192839452387
 23
6.01727417221976
 33
0.0
  0
LINE
  5
4A3B
330
1E
100
AcDbEntity
  8
DIM
 62
     1
100
AcDbLine
 10
3.028192839452387
 20
6.167274172219761
 30
0.0
 11
3.028192839452387
 21
6.31727417221976
 31
0.0
  0
ARC
  5
4A40
330
1E
100
AcDbEntity
  8
DIM
100
AcDbCircle
 10
3.676259789993167
 20
6.902108946986114
 30
0.0
 40
2.756
100
AcDbArc
 50
11.75286851649782
 51
31.56376611884326
  0
LINE
  5
4A41
330
1E
100
AcDbEntity
  8
OBJECT
 62
     7
100
AcDbLine
 10
4.85293218034634
 20
7.099751208018085
 30
0.0
 11
6.552187102321443
 21
7.099752284019956
 31
0.0
  0
LINE
  5
4A43
330
1E
100
AcDbEntity
  8
DIM
100
AcDbLine
 10
6.06652445830912
 20
8.274031253605707
 30
0.0
 11
6.34379515363193
 21
8.274031253605707
 31
0.0
  0
LINE
  5
4A44
330
1E
100
AcDbEntity
  8
DIM
 62
     1
100
AcDbLine
 10
6.48153486163612
 20
8.032929520956194
 30
0.0
 11
7.859990249562585
 21
8.032929520956194
 31
0.0
  0
ARC
  5
4A49
330
1E
100
AcDbEntity
  8
OBJECT
100
AcDbCircle
 10
6.287762325164295
 20
7.748614572911685
 30
0.0
 40
0.284982455808481
100
AcDbArc
 50
333.5583882955353
 51
240.2113961473439
  0
ENDSEC
  0
SECTION
  2
OBJECTS
  0
DICTIONARY
  5
C
330
0
100
AcDbDictionary
281
     1
  3
ACAD_COLOR
350
4A4E
  3
ACAD_GROUP
350
D
  3
ACAD_LAYOUT
350
19
  3
ACAD_MATERIAL
350
4A4D
  3
ACAD_MLINESTYLE
350
16
  3
ACAD_PLOTSETTINGS
350
18
  3
ACAD_PLOTSTYLENAME
350
E
  3
ACAD_TABLESTYLE
350
4A4F
  3
AcadDim
350
44BB
  3
ACDBHEADERROUNDTRIPXREC
350
4B0B
  3
AcDbVariableDictionary
350
3CD
  3
AcmDictionary
350
4AAE
  3
AMG
350
4A56
  3
AMGSNAPSETTINGS
350
4B01
  3
ASE_INDEX_DICTIONARY
350
3E2
  0
DICTIONARY
  5
4A4E
102
{ACAD_REACTORS
330
C
102
}
330
C
100
AcDbDictionary
281
     1
  0
DICTIONARY
  5
D
102
{ACAD_REACTORS
330
C
102
}
330
C
100
AcDbDictionary
281
     1
  0
DICTIONARY
  5
19
102
{ACAD_REACTORS
330
C
102
}
330
C
100
AcDbDictionary
281
     1
  3
Layout1
350
1D
  3
Model
350
21
  0
DICTIONARY
  5
4A4D
102
{ACAD_REACTORS
330
C
102
}
330
C
100
AcDbDictionary
281
     1
  0
DICTIONARY
  5
16
102
{ACAD_REACTORS
330
C
102
}
330
C
100
AcDbDictionary
281
     1
  3
Standard
350
17
  0
DICTIONARY
  5
18
102
{ACAD_REACTORS
330
C
102
}
330
C
100
AcDbDictionary
281
     1
  0
ACDBDICTIONARYWDFLT
  5
E
102
{ACAD_REACTORS
330
C
102
}
330
C
100
AcDbDictionary
281
     1
  3
Normal
350
F
100
AcDbDictionaryWithDefault
340
F
  0
DICTIONARY
  5
4A4F
102
{ACAD_REACTORS
330
C
102
}
330
C
100
AcDbDictionary
281
     1
  3
Standard
350
4A50
  0
XRECORD
  5
44BB
102
{ACAD_REACTORS
330
C
102
}
330
C
100
AcDbXrecord
280
     1
 90
   990106
  3

 60
     0
 61
     0
 62
     1
 63
     3
 64
     0
 65
     0
 66
     0
 67
     3
 68
     1
 69
     0
 70
     0
 71
     0
 72
     0
 40
0.0
170
     0
  0
DICTIONARY
  5
4B0B
102
{ACAD_REACTORS
330
C
102
}
330
C
100
AcDbDictionary
281
     1
  0
DICTIONARY
  5
3CD
102
{ACAD_REACTORS
330
C
102
}
330
C
100
AcDbDictionary
281
     1
  3
CTABLESTYLE
350
4B08
  3
DIMASSOC
350
3CF
  3
HIDETEXT
350
3CE
  3
PROJECTNAME
350
4B09
  0
DICTIONARY
  5
4AAE
102
{ACAD_REACTORS
330
C
102
}
330
C
100
AcDbDictionary
281
     1
  3
AcmStdDictionary
350
4AB9
  3
AMDTSECTSYM_ARROWCOLOR
350
4AD7
  0
DICTIONARY
  5
4A56
102
{ACAD_REACTORS
330
C
102
}
330
C
100
AcDbDictionary
281
     1
  0
DICTIONARY
  5
4B01
102
{ACAD_REACTORS
330
C
102
}
330
C
100
AcDbDictionary
281
     1
  0
DICTIONARY
  5
3E2
102
{ACAD_REACTORS
330
C
102
}
330
C
100
AcDbDictionary
281
     1
  3
ASEBlockHierarchyIndexRecord
350
3E4
1001
DCO15
1040
1464945035.036
  0
LAYOUT
  5
1D
102
{ACAD_XDICTIONARY
360
4B0C
102
}
102
{ACAD_REACTORS
330
19
102
}
330
19
100
AcDbPlotSettings
  1

  2
C:\Program Files\AutoCAD 2002\plotters\DWF ePlot (optimized for plotting).pc3
  4

  6

 40
0.0
 41
0.0
 42
0.0
 43
0.0
 44
0.0
 45
0.0
 46
0.0
 47
0.0
 48
0.0
 49
0.0
140
0.0
141
0.0
142
1.0
143
1.0
 70
   688
 72
     0
 73
     0
 74
     5
  7
standard.ctb
 75
    16
147
1.0
148
0.0
149
0.0
100
AcDbLayout
  1
Layout1
 70
     1
 71
     1
 10
0.0
 20
0.0
 11
12.0
 21
9.0
 12
0.0
 22
0.0
 32
0.0
 14
1.000000000000000E+20
 24
1.000000000000000E+20
 34
1.000000000000000E+20
 15
-1.000000000000000E+20
 25
-1.000000000000000E+20
 35
-1.000000000000000E+20
146
0.0
 13
0.0
 23
0.0
 33
0.0
 16
1.0
 26
0.0
 36
0.0
 17
0.0
 27
1.0
 37
0.0
 76
     0
330
1A
  0
LAYOUT
  5
21
102
{ACAD_XDICTIONARY
360
4B0E
102
}
102
{ACAD_REACTORS
330
19
102
}
330
19
100
AcDbPlotSettings
  1

  2
\\USCHMMGMT015\USCHMPD0026
  4
Tabloid
  6

 40
5.027083396911621
 41
5.027085304260253
 42
5.027099609375
 43
5.027069091796875
 44
279.3999938964844
 45
431.7999877929687
 46
0.0
 47
0.0
 48
0.0
 49
0.0
140
0.0
141
0.0
142
1.0
143
0.9914069849915843
 70
 11952
 72
     0
 73
     1
 74
     1
  7
standard.ctb
 75
     0
147
1.008667494922368
148
-2.622321565056127
149
-7.644107715091882
100
AcDbLayout
  1
Model
 70
     1
 71
     0
 10
0.0
 20
0.0
 11
12.0
 21
9.0
 12
0.0
 22
0.0
 32
0.0
 14
0.0
 24
0.0
 34
0.0
 15
0.0
 25
0.0
 35
0.0
146
0.0
 13
0.0
 23
0.0
 33
0.0
 16
1.0
 26
0.0
 36
0.0
 17
0.0
 27
1.0
 37
0.0
 76
     0
330
1E
  0
MLINESTYLE
  5
17
102
{ACAD_REACTORS
330
16
102
}
330
16
100
AcDbMlineStyle
  2
STANDARD
 70
     0
  3

 62
   256
 51
90.0
 52
90.0
 71
     2
 49
0.5
 62
   256
  6
BYLAYER
 49
-0.5
 62
   256
  6
BYLAYER
  0
ACDBPLACEHOLDER
  5
F
102
{ACAD_REACTORS
330
E
102
}
330
E
  0
TABLESTYLE
  5
4A50
102
{ACAD_REACTORS
330
4A4F
102
}
330
4A4F
100
AcDbTableStyle
  3
Standard
 70
     0
 71
     0
 40
0.06
 41
0.06
280
     0
281
     0
  7
STANDARD
140
0.18
170
     2
 62
     0
 63
     7
283
     0
274
    -2
284
     1
 64
     0
275
    -2
285
     1
 65
     0
276
    -2
286
     1
 66
     0
277
    -2
287
     1
 67
     0
278
    -2
288
     1
 68
     0
279
    -2
289
     1
 69
     0
  7
STANDARD
140
0.25
170
     5
 62
     0
 63
     7
283
     0
274
    -2
284
     1
 64
     0
275
    -2
285
     1
 65
     0
276
    -2
286
     1
 66
     0
277
    -2
287
     1
 67
     0
278
    -2
288
     1
 68
     0
279
    -2
289
     1
 69
     0
  7
STANDARD
140
0.18
170
     5
 62
     0
 63
     7
283
     0
274
    -2
284
     1
 64
     0
275
    -2
285
     1
 65
     0
276
    -2
286
     1
 66
     0
277
    -2
287
     1
 67
     0
278
    -2
288
     1
 68
     0
279
    -2
289
     1
 69
     0
  0
DICTIONARYVAR
  5
4B08
102
{ACAD_REACTORS
330
3CD
102
}
330
3CD
100
DictionaryVariables
280
     0
  1
STANDARD
  0
DICTIONARYVAR
  5
3CF
102
{ACAD_REACTORS
330
3CD
102
}
330
3CD
100
DictionaryVariables
280
     0
  1
0
  0
DICTIONARYVAR
  5
3CE
102
{ACAD_REACTORS
330
3CD
102
}
330
3CD
100
DictionaryVariables
280
     0
  1
1
  0
DICTIONARYVAR
  5
4B09
102
{ACAD_REACTORS
330
3CD
102
}
330
3CD
100
DictionaryVariables
280
     0
  1

  0
DICTIONARY
  5
4AB9
102
{ACAD_REACTORS
330
4AAE
102
}
330
4AAE
100
AcDbDictionary
281
     1
  0
XRECORD
  5
4AD7
102
{ACAD_REACTORS
330
4AAE
102
}
330
4AAE
100
AcDbXrecord
280
     1
 90
-1023410169
  0
XRECORD
  5
3E4
102
{ACAD_REACTORS
330
3E2
102
}
330
3E2
100
AcDbXrecord
280
     1
330
0
330
0
  0
DICTIONARY
  5
4B0C
330
1D
100
AcDbDictionary
280
     1
281
     1
  3
ACAD_XREC_ROUNDTRIP
360
4B0D
  0
DICTIONARY
  5
4B0E
330
21
100
AcDbDictionary
280
     1
281
     1
  3
ACAD_XREC_ROUNDTRIP
360
4B0F
  0
XRECORD
  5
4B0D
102
{ACAD_REACTORS
330
4B0C
102
}
330
4B0C
100
AcDbXrecord
280
     1
102
SHADEPLOT
 70
     0
102
SHADEPLOTRESLEVEL
 70
     2
102
SHADEPLOTCUSTOMDPI
 70
   300
  0
XRECORD
  5
4B0F
102
{ACAD_REACTORS
330
4B0E
102
}
330
4B0E
100
AcDbXrecord
280
     1
102
SHADEPLOT
 70
     0
102
SHADEPLOTRESLEVEL
 70
     2
102
SHADEPLOTCUSTOMDPI
 70
   300
  0
ENDSEC
  0
EOF
