  0
SECTION
  2
HEADER
  9
$ACADVER
  1
AC1015
  9
$ACADMAINTVER
 70
    20
  9
$DWGCODEPAGE
  3
ANSI_1252
  9
$INSBASE
 10
0.0
 20
0.0
 30
0.0
  9
$EXTMIN
 10
0.1042494754821988
 20
0.3013358716206689
 30
0.0
  9
$EXTMAX
 10
16.5642494754822
 20
10.76133587162067
 30
0.0
  9
$LIMMIN
 10
0.0
 20
0.0
  9
$LIMMAX
 10
17.0
 20
11.0
  9
$ORTHOMODE
 70
     0
  9
$REGENMODE
 70
     1
  9
$FILLMODE
 70
     1
  9
$QTEXTMODE
 70
     0
  9
$MIRRTEXT
 70
     1
  9
$LTSCALE
 40
0.25
  9
$ATTMODE
 70
     1
  9
$TEXTSIZE
 40
0.09375
  9
$TRACEWID
 40
0.05
  9
$TEXTSTYLE
  7
ROMANS
  9
$CLAYER
  8
DIM
  9
$CELTYPE
  6
ByLayer
  9
$CECOLOR
 62
   256
  9
$CELTSCALE
 40
1.0
  9
$DISPSILH
 70
     0
  9
$DIMSCALE
 40
1.0
  9
$DIMASZ
 40
0.15
  9
$DIMEXO
 40
0.0625
  9
$DIMDLI
 40
0.38
  9
$DIMRND
 40
0.0
  9
$DIMDLE
 40
0.0
  9
$DIMEXE
 40
0.0625
  9
$DIMTP
 40
0.0
  9
$DIMTM
 40
0.0
  9
$DIMTXT
 40
0.09
  9
$DIMCEN
 40
0.09
  9
$DIMTSZ
 40
0.0
  9
$DIMTOL
 70
     0
  9
$DIMLIM
 70
     0
  9
$DIMTIH
 70
     1
  9
$DIMTOH
 70
     1
  9
$DIMSE1
 70
     0
  9
$DIMSE2
 70
     0
  9
$DIMTAD
 70
     0
  9
$DIMZIN
 70
     0
  9
$DIMBLK
  1

  9
$DIMASO
 70
     0
  9
$DIMSHO
 70
     1
  9
$DIMPOST
  1

  9
$DIMAPOST
  1

  9
$DIMALT
 70
     0
  9
$DIMALTD
 70
     2
  9
$DIMALTF
 40
25.4
  9
$DIMLFAC
 40
1.0
  9
$DIMTOFL
 70
     0
  9
$DIMTVP
 40
0.0
  9
$DIMTIX
 70
     0
  9
$DIMSOXD
 70
     0
  9
$DIMSAH
 70
     0
  9
$DIMBLK1
  1

  9
$DIMBLK2
  1

  9
$DIMSTYLE
  2
Standard
  9
$DIMCLRD
 70
     1
  9
$DIMCLRE
 70
     1
  9
$DIMCLRT
 70
     7
  9
$DIMTFAC
 40
1.0
  9
$DIMGAP
 40
0.09
  9
$DIMJUST
 70
     0
  9
$DIMSD1
 70
     0
  9
$DIMSD2
 70
     0
  9
$DIMTOLJ
 70
     1
  9
$DIMTZIN
 70
     0
  9
$DIMALTZ
 70
     0
  9
$DIMALTTZ
 70
     0
  9
$DIMUPT
 70
     0
  9
$DIMDEC
 70
     4
  9
$DIMTDEC
 70
     4
  9
$DIMALTU
 70
     2
  9
$DIMALTTD
 70
     2
  9
$DIMTXSTY
  7
STANDARD
  9
$DIMAUNIT
 70
     0
  9
$DIMADEC
 70
     0
  9
$DIMALTRND
 40
0.0
  9
$DIMAZIN
 70
     0
  9
$DIMDSEP
 70
    46
  9
$DIMATFIT
 70
     3
  9
$DIMFRAC
 70
     0
  9
$DIMLDRBLK
  1

  9
$DIMLUNIT
 70
     2
  9
$DIMLWD
 70
    -2
  9
$DIMLWE
 70
    -2
  9
$DIMTMOVE
 70
     0
  9
$LUNITS
 70
     2
  9
$LUPREC
 70
     4
  9
$SKETCHINC
 40
0.1
  9
$FILLETRAD
 40
0.0
  9
$AUNITS
 70
     0
  9
$AUPREC
 70
     0
  9
$MENU
  1
acad
  9
$ELEVATION
 40
0.0
  9
$PELEVATION
 40
0.0
  9
$THICKNESS
 40
0.0
  9
$LIMCHECK
 70
     0
  9
$CHAMFERA
 40
0.0
  9
$CHAMFERB
 40
0.0
  9
$CHAMFERC
 40
0.0
  9
$CHAMFERD
 40
0.0
  9
$SKPOLY
 70
     0
  9
$TDCREATE
 40
2449766.541135301
  9
$TDUCREATE
 40
2449766.749468635
  9
$TDUPDATE
 40
2455028.606910093
  9
$TDUUPDATE
 40
2455028.815243426
  9
$TDINDWG
 40
2.0513635648
  9
$TDUSRTIMER
 40
2.0513635648
  9
$USRTIMER
 70
     1
  9
$ANGBASE
 50
0.0
  9
$ANGDIR
 70
     0
  9
$PDMODE
 70
     0
  9
$PDSIZE
 40
0.0
  9
$PLINEWID
 40
0.0
  9
$SPLFRAME
 70
     0
  9
$SPLINETYPE
 70
     6
  9
$SPLINESEGS
 70
     8
  9
$HANDSEED
  5
45E9
  9
$SURFTAB1
 70
     6
  9
$SURFTAB2
 70
     6
  9
$SURFTYPE
 70
     6
  9
$SURFU
 70
     6
  9
$SURFV
 70
     6
  9
$UCSBASE
  2

  9
$UCSNAME
  2

  9
$UCSORG
 10
0.0
 20
0.0
 30
0.0
  9
$UCSXDIR
 10
1.0
 20
0.0
 30
0.0
  9
$UCSYDIR
 10
0.0
 20
1.0
 30
0.0
  9
$UCSORTHOREF
  2

  9
$UCSORTHOVIEW
 70
     0
  9
$UCSORGTOP
 10
0.0
 20
0.0
 30
0.0
  9
$UCSORGBOTTOM
 10
0.0
 20
0.0
 30
0.0
  9
$UCSORGLEFT
 10
0.0
 20
0.0
 30
0.0
  9
$UCSORGRIGHT
 10
0.0
 20
0.0
 30
0.0
  9
$UCSORGFRONT
 10
0.0
 20
0.0
 30
0.0
  9
$UCSORGBACK
 10
0.0
 20
0.0
 30
0.0
  9
$PUCSBASE
  2

  9
$PUCSNAME
  2

  9
$PUCSORG
 10
0.0
 20
0.0
 30
0.0
  9
$PUCSXDIR
 10
1.0
 20
0.0
 30
0.0
  9
$PUCSYDIR
 10
0.0
 20
1.0
 30
0.0
  9
$PUCSORTHOREF
  2

  9
$PUCSORTHOVIEW
 70
     0
  9
$PUCSORGTOP
 10
0.0
 20
0.0
 30
0.0
  9
$PUCSORGBOTTOM
 10
0.0
 20
0.0
 30
0.0
  9
$PUCSORGLEFT
 10
0.0
 20
0.0
 30
0.0
  9
$PUCSORGRIGHT
 10
0.0
 20
0.0
 30
0.0
  9
$PUCSORGFRONT
 10
0.0
 20
0.0
 30
0.0
  9
$PUCSORGBACK
 10
0.0
 20
0.0
 30
0.0
  9
$USERI1
 70
     0
  9
$USERI2
 70
     0
  9
$USERI3
 70
     0
  9
$USERI4
 70
     0
  9
$USERI5
 70
     0
  9
$USERR1
 40
0.0
  9
$USERR2
 40
0.0
  9
$USERR3
 40
0.0
  9
$USERR4
 40
0.0
  9
$USERR5
 40
0.0
  9
$WORLDVIEW
 70
     1
  9
$SHADEDGE
 70
     3
  9
$SHADEDIF
 70
    70
  9
$TILEMODE
 70
     1
  9
$MAXACTVP
 70
    16
  9
$PINSBASE
 10
0.0
 20
0.0
 30
0.0
  9
$PLIMCHECK
 70
     0
  9
$PEXTMIN
 10
1.000000000000000E+20
 20
1.000000000000000E+20
 30
1.000000000000000E+20
  9
$PEXTMAX
 10
-1.000000000000000E+20
 20
-1.000000000000000E+20
 30
-1.000000000000000E+20
  9
$PLIMMIN
 10
0.0
 20
0.0
  9
$PLIMMAX
 10
12.0
 20
9.0
  9
$UNITMODE
 70
     0
  9
$VISRETAIN
 70
     0
  9
$PLINEGEN
 70
     0
  9
$PSLTSCALE
 70
     1
  9
$TREEDEPTH
 70
  3020
  9
$CMLSTYLE
  2
Standard
  9
$CMLJUST
 70
     0
  9
$CMLSCALE
 40
1.0
  9
$PROXYGRAPHICS
 70
     1
  9
$MEASUREMENT
 70
     0
  9
$CELWEIGHT
370
    -1
  9
$ENDCAPS
280
     0
  9
$JOINSTYLE
280
     0
  9
$LWDISPLAY
290
     0
  9
$INSUNITS
 70
     0
  9
$HYPERLINKBASE
  1

  9
$STYLESHEET
  1
standard.ctb
  9
$XEDIT
290
     1
  9
$CEPSNTYPE
380
     0
  9
$PSTYLEMODE
290
     1
  9
$FINGERPRINTGUID
  2
{15A91E55-5219-469D-BD62-5FAE47C117F2}
  9
$VERSIONGUID
  2
{D045D1C7-4486-488B-9911-FD2ED87E179A}
  9
$EXTNAMES
290
     1
  9
$PSVPSCALE
 40
0.0
  9
$OLESTARTUP
290
     0
  0
ENDSEC
  0
SECTION
  2
CLASSES
  0
CLASS
  1
ACDBDICTIONARYWDFLT
  2
AcDbDictionaryWithDefault
  3
ObjectDBX Classes
 90
        0
280
     0
281
     0
  0
CLASS
  1
ACDBPLACEHOLDER
  2
AcDbPlaceHolder
  3
ObjectDBX Classes
 90
        0
280
     0
281
     0
  0
CLASS
  1
LAYOUT
  2
AcDbLayout
  3
ObjectDBX Classes
 90
        0
280
     0
281
     0
  0
CLASS
  1
DICTIONARYVAR
  2
AcDbDictionaryVar
  3
ObjectDBX Classes
 90
        0
280
     0
281
     0
  0
CLASS
  1
DIMASSOC
  2
AcDbDimAssoc
  3
"AcDbDimAssoc|Product Desc:     AcDim ARX App For Dimension|Company:          Autodesk, Inc.|WEB Address:      www.autodesk.com"
 90
    32768
280
     0
281
     0
  0
CLASS
  1
TABLESTYLE
  2
AcDbTableStyle
  3
ObjectDBX Classes
 90
     2047
280
     0
281
     0
  0
CLASS
  1
ACME_DOCUMENT
  2
AcMeDbDoc
  3
AcMeServices
 90
        0
280
     0
281
     0
  0
CLASS
  1
AMGSETTINGSOBJ
  2
AmgSettingsObj
  3
"AcadM|Product Description: AutoCAD Mechanical 2000|Company: Autodesk"
 90
        0
280
     0
281
     0
  0
CLASS
  1
ACMESCOPE
  2
AcMeScope
  3
AcMeServices
 90
        0
280
     0
281
     0
  0
CLASS
  1
ACMECOMMANDHISTORY
  2
AcMeCommandHistory
  3
AcMeServices
 90
        0
280
     0
281
     0
  0
CLASS
  1
ACIMSYSVARMAN
  2
AcImSysVarManager
  3
AcMeServices
 90
        0
280
     0
281
     0
  0
CLASS
  1
ACIMINTSYSVAR
  2
AcImIntSysVar
  3
AcMeServices
 90
        0
280
     0
281
     0
  0
CLASS
  1
ACMEDRAWINGMAN
  2
AcMeDrawingMan
  3
AcMeServices
 90
        0
280
     0
281
     0
  0
CLASS
  1
ACMEVIEW
  2
AcMeView
  3
AcMeServices
 90
        0
280
     0
281
     0
  0
CLASS
  1
ACDBENTITYCACHE
  2
AcMeEntityCache
  3
AcMeServices
 90
        0
280
     0
281
     0
  0
CLASS
  1
GSMANAGER
  2
AcMeGSManager
  3
AcMeServices
 90
        0
280
     0
281
     0
  0
CLASS
  1
AMDTINTERNALREACTOR
  2
AmdtInternalReactor
  3
AcMeServices
 90
        0
280
     0
281
     0
  0
CLASS
  1
ACMESTATEMGR
  2
AcMeStateMgr
  3
AcMeServices
 90
        0
280
     0
281
     0
  0
CLASS
  1
ACGREFMASTER
  2
AcGrefMaster
  3
AcAttribServices
 90
        0
280
     0
281
     0
  0
CLASS
  1
AM_DRAWING_MGR
  2
AcDmDwgMgr
  3
AcMechDwgViewMgmt
 90
        0
280
     0
281
     0
  0
CLASS
  1
AM_DWG_DOCUMENT
  2
AcDmDwgDocument
  3
AcMechDwgViewMgmt
 90
        0
280
     0
281
     0
  0
CLASS
  1
AM_DWG_SHEET
  2
AcDmSheet
  3
AcMechDwgViewMgmt
 90
        0
280
     0
281
     0
  0
CLASS
  1
AM_VIEWDIMPARMAP
  2
AcDmViewDimParMap
  3
AcMechDwgViewMgmt
 90
        0
280
     0
281
     0
  0
CLASS
  1
ACIMREALSYSVAR
  2
AcImRealSysVar
  3
AcMeServices
 90
        0
280
     0
281
     0
  0
CLASS
  1
AM_DWGMGR_NAME
  2
AcDmDwgMgrName
  3
AcMechDwgViewMgmt
 90
        0
280
     0
281
     0
  0
CLASS
  1
ACME_DATABASE
  2
AcMeDbDatabase
  3
AcMeServices
 90
        0
280
     0
281
     0
  0
CLASS
  1
ACRFINSADJUSTERMGR
  2
AcRfInsAdjusterMgr
  3
AcMeServices
 90
        0
280
     0
281
     0
  0
CLASS
  1
ACGREFACADMASTER
  2
AcGrefacadMaster
  3
AcGrefServices
 90
        0
280
     0
281
     0
  0
CLASS
  1
AMDTMENUSTATEMGR
  2
AmdtMenuStateMgr
  3
McadcomServices
 90
        0
280
     0
281
     0
  0
CLASS
  1
AMDTMCOMMENUSTATE
  2
AmdtMcomMenuState
  3
McadcomServices
 90
        0
280
     0
281
     0
  0
CLASS
  1
AMIMASTER
  2
AmiMaster
  3
AmiServices
 90
        0
280
     0
281
     0
  0
CLASS
  1
MAPIAMMOUDLE
  2
MApiAmModule
  3
MApiAmServices
 90
        0
280
     0
281
     0
  0
CLASS
  1
ACIMSTRSYSVAR
  2
AcImStrSysVar
  3
AcMeServices
 90
        0
280
     0
281
     0
  0
CLASS
  1
AMDTADMENUSTATE
  2
AmdtAdMenuState
  3
DesignerServices
 90
        0
280
     0
281
     0
  0
CLASS
  1
ADAPPL
  2
AcAdAppl
  3
DesignerServices
 90
        0
280
     0
281
     0
  0
CLASS
  1
DEPMGR
  2
AcAdDepMgr
  3
DesignerServices
 90
        0
280
     0
281
     0
  0
CLASS
  1
PARAMMGR
  2
AcAdParamMgr
  3
DesignerServices
 90
        0
280
     0
281
     0
  0
CLASS
  1
PARAMSCOPE
  2
AcAdParamScope
  3
DesignerServices
 90
        0
280
     0
281
     0
  0
CLASS
  1
NAMEDAPPL
  2
AcAdNamedAppl
  3
DesignerServices
 90
        0
280
     0
281
     0
  0
CLASS
  1
AMDTDMMENUSTATE
  2
AmdtDmMenuState
  3
AcMechDwgViewMgmt
 90
        0
280
     0
281
     0
  0
CLASS
  1
AMDTAMMENUSTATE
  2
AmdtAmMenuState
  3
DesignerAssemblies
 90
        0
280
     0
281
     0
  0
CLASS
  1
ACAMPROJECT
  2
AcAmProject
  3
DesignerAssemblies
 90
        0
280
     0
281
     0
  0
CLASS
  1
ACAMGRCOMPDEF
  2
AcAmGrCompDef
  3
DesignerAssemblies
 90
        0
280
     0
281
     0
  0
CLASS
  1
ACCMCONTEXT
  2
AcCmContext
  3
DesignerAssemblies
 90
        0
280
     0
281
     0
  0
CLASS
  1
ACAMCOMPDEF
  2
AcAmCompDef
  3
DesignerAssemblies
 90
        0
280
     0
281
     0
  0
CLASS
  1
ACAMCOMPDEFMGR
  2
AcAmCompDefMgr
  3
DesignerAssemblies
 90
        0
280
     0
281
     0
  0
CLASS
  1
AMCONTEXTMGR
  2
AcAmContextMgr
  3
DesignerAssemblies
 90
        0
280
     0
281
     0
  0
CLASS
  1
ACAMCONTEXTMODELER
  2
AcAmContextModeler
  3
DesignerAssemblies
 90
        0
280
     0
281
     0
  0
CLASS
  1
ACMDATADICTIONARY
  2
AcmDataDictionary
  3
"AcmSymBB|Product Description: AutoCAD Mechanical 2004 DX|Company: Autodesk"
 90
        0
280
     0
281
     0
  0
CLASS
  1
CATALOGSTATE
  2
AcAmCatalogState
  3
DesignerAssemblies
 90
        0
280
     0
281
     0
  0
CLASS
  1
ACAMGRCOMPDEFSET
  2
AcAmGrCompDefSet
  3
DesignerAssemblies
 90
        0
280
     0
281
     0
  0
CLASS
  1
AMDTBROWSERDBTAB
  2
AmdtBrowserDbTab
  3
McadcomServices
 90
        0
280
     0
281
     0
  0
CLASS
  1
CBROWSERAPPOBJECT
  2
CBrowserAppObject
  3
McadcomServices
 90
        0
280
     0
281
     0
  0
CLASS
  1
DM_PLACEHOLDER
  2
AcDmSelsetPlaceholder
  3
AcMechDwgViewMgmt
 90
        0
280
     0
281
     0
  0
CLASS
  1
ACMSTANDARDANSI
  2
AcmStandardANSI
  3
"Amdt_StdImp|Product Description: AutoCAD Mechanical 2004 DX|Company: Autodesk"
 90
        0
280
     0
281
     0
  0
CLASS
  1
AMGOBJPROPCFG
  2
AmgObjPropCfg
  3
"AmgLay|Product Description: AutoCAD Mechanical 2000|Company: Autodesk"
 90
        1
280
     0
281
     0
  0
CLASS
  1
ACMSURFSTANDARDANSI
  2
AcmSurfTextStdANSI
  3
"Amdt_StdImp|Product Description: AutoCAD Mechanical 2004 DX|Company: Autodesk"
 90
        0
280
     0
281
     0
  0
CLASS
  1
ACMFCFSTANDARDANSI
  2
AcmFCFStdANSI
  3
"Amdt_StdImp|Product Description: AutoCAD Mechanical 2004 DX|Company: Autodesk"
 90
        0
280
     0
281
     0
  0
CLASS
  1
ACMWELDSTANDARDANSI
  2
AcmWeldingStdANSI
  3
"Amdt_StdImp|Product Description: AutoCAD Mechanical 2004 DX|Company: Autodesk"
 90
        0
280
     0
281
     0
  0
CLASS
  1
ACMIDSTANDARDANSI
  2
AcmIdStdANSI
  3
"Amdt_StdImp|Product Description: AutoCAD Mechanical 2004 DX|Company: Autodesk"
 90
        0
280
     0
281
     0
  0
CLASS
  1
ACMDATUMSTANDARDANSI
  2
AcmDatumStdANSI
  3
"Amdt_StdImp|Product Description: AutoCAD Mechanical 2004 DX|Company: Autodesk"
 90
        0
280
     0
281
     0
  0
CLASS
  1
ACMBOMSTANDARDANSI
  2
AcmBOMStdANSI
  3
"Amdt_StdImp|Product Description: AutoCAD Mechanical 2004 DX|Company: Autodesk"
 90
        0
280
     0
281
     0
  0
CLASS
  1
ACMDETAILSTANDARDANSI
  2
AmdtDetailSymStdANSI
  3
"Amdt_StdImp|Product Description: AutoCAD Mechanical 2004 DX|Company: Autodesk"
 90
        0
280
     0
281
     0
  0
CLASS
  1
ACMSECTIONSTANDARDANSI
  2
AmdtSectionSymStdANSI
  3
"Amdt_StdImp|Product Description: AutoCAD Mechanical 2004 DX|Company: Autodesk"
 90
        0
280
     0
281
     0
  0
CLASS
  1
ACMCENTERLINESTANDARDANSI
  2
AmdtCenterLineStdANSI
  3
"Amdt_StdImp|Product Description: AutoCAD Mechanical 2004 DX|Company: Autodesk"
 90
        0
280
     0
281
     0
  0
CLASS
  1
ACMTHREADLINESTANDARDANSI
  2
AmdtThreadLineStdANSI
  3
"Amdt_StdImp|Product Description: AutoCAD Mechanical 2004 DX|Company: Autodesk"
 90
        0
280
     0
281
     0
  0
CLASS
  1
ACMNOTESTANDARDANSI
  2
AmdtNoteStdANSI
  3
"Amdt_StdImp|Product Description: AutoCAD Mechanical 2004 DX|Company: Autodesk"
 90
        0
280
     0
281
     0
  0
CLASS
  1
AMDTNOTETEMPLATEDB
  2
AmdtNoteTemplateDB
  3
AMDT_STDIMP_MODULE_NAME
 90
        0
280
     0
281
     0
  0
CLASS
  1
ACAMGLAYSTD
  2
AcAmgLayStd
  3
"AcAmgLayStd|Product Description: AutoCAD Mechanical 2000|Company: Autodesk"
 90
        0
280
     0
281
     0
  0
CLASS
  1
ACAMGDIMSTD
  2
AcAmgDimStd
  3
"AcAmgDimStd|Product Description: AutoCAD Mechanical 2000|Company: Autodesk"
 90
        0
280
     0
281
     0
  0
CLASS
  1
ACAMGHOLECHARTSTDANSI
  2
AcAmgHoleChartStdANSI
  3
ACMSYMBB_MODULE_NAME
 90
        0
280
     0
281
     0
  0
CLASS
  1
ACAMGTITLESTD
  2
AcAmgTitleStd
  3
"TITLEAPP"
 90
        0
280
     0
281
     0
  0
CLASS
  1
ACAMGFILTERDAT
  2
AcAmgFilterDat
  3
"AcadM|Product Description: AutoCAD Mechanical 2000|Company: Autodesk"
 90
        0
280
     0
281
     0
  0
ENDSEC
  0
SECTION
  2
TABLES
  0
TABLE
  2
VPORT
  5
8
330
0
100
AcDbSymbolTable
 70
     3
  0
VPORT
  5
45E3
330
8
100
AcDbSymbolTableRecord
100
AcDbViewportTableRecord
  2
*Active
 70
     0
 10
0.0
 20
0.0
 11
1.0
 21
1.0
 12
8.499999999999998
 22
6.290741664511202
 13
0.0
 23
0.0
 14
0.0625
 24
0.0625
 15
0.5
 25
0.5
 16
0.0
 26
0.0
 36
1.0
 17
0.0
 27
0.0
 37
0.0
 40
12.7238275407011
 41
1.758308157099697
 42
50.0
 43
0.0
 44
0.0
 50
0.0
 51
0.0
 71
     0
 72
   500
 73
     1
 74
     0
 75
     0
 76
     0
 77
     0
 78
     0
281
     0
 65
     1
110
0.0
120
0.0
130
0.0
111
1.0
121
0.0
131
0.0
112
0.0
122
1.0
132
0.0
 79
     0
146
0.0
  0
ENDTAB
  0
TABLE
  2
LTYPE
  5
5
330
0
100
AcDbSymbolTable
 70
    16
  0
LTYPE
  5
13
330
5
100
AcDbSymbolTableRecord
100
AcDbLinetypeTableRecord
  2
ByBlock
 70
     0
  3

 72
    65
 73
     0
 40
0.0
  0
LTYPE
  5
14
330
5
100
AcDbSymbolTableRecord
100
AcDbLinetypeTableRecord
  2
ByLayer
 70
     0
  3

 72
    65
 73
     0
 40
0.0
  0
LTYPE
  5
15
330
5
100
AcDbSymbolTableRecord
100
AcDbLinetypeTableRecord
  2
CONTINUOUS
 70
     0
  3
Solid line
 72
    65
 73
     0
 40
0.0
  0
LTYPE
  5
2C
330
5
100
AcDbSymbolTableRecord
100
AcDbLinetypeTableRecord
  2
CENTER
 70
     0
  3
____ _ ____ _ ____ _ ____ _ ____ _ ____ _ ____ 
 72
    65
 73
     4
 40
2.0
 49
1.25
 74
     0
 49
-0.25
 74
     0
 49
0.25
 74
     0
 49
-0.25
 74
     0
  0
LTYPE
  5
430
330
5
100
AcDbSymbolTableRecord
100
AcDbLinetypeTableRecord
  2
HIDDEN
 70
     0
  3
_ _ _ _ _ _ _ _ _ _ _ _ _ _ _ _ _ _ _ _ _ _ _
 72
    65
 73
     2
 40
0.375
 49
0.25
 74
     0
 49
-0.125
 74
     0
  0
LTYPE
  5
4561
330
5
100
AcDbSymbolTableRecord
100
AcDbLinetypeTableRecord
  2
PHANTOM2
 70
     0
  3
Phantom (.5x) ___ _ _ ___ _ _ ___ _ _ ___ _ _
 72
    65
 73
     6
 40
1.25
 49
0.625
 74
     0
 49
-0.125
 74
     0
 49
0.125
 74
     0
 49
-0.125
 74
     0
 49
0.125
 74
     0
 49
-0.125
 74
     0
  0
LTYPE
  5
4595
330
5
100
AcDbSymbolTableRecord
100
AcDbLinetypeTableRecord
  2
AM_ISO02W050
 70
     0
  3
__ __ __ __ __ __ __ __ __ __ __ __ __ __ __
 72
    65
 73
     2
 40
7.5
 49
6.0
 74
     0
 49
-1.5
 74
     0
  0
LTYPE
  5
4596
330
5
100
AcDbSymbolTableRecord
100
AcDbLinetypeTableRecord
  2
AM_ISO08W050
 70
     0
  3
____ . ____ . ____ . ____ . ____ . ____ . ____
 72
    65
 73
     4
 40
18.0
 49
12.0
 74
     0
 49
-1.5
 74
     0
 49
3.0
 74
     0
 49
-1.5
 74
     0
  0
LTYPE
  5
4597
330
5
100
AcDbSymbolTableRecord
100
AcDbLinetypeTableRecord
  2
AM_ISO09W050
 70
     0
  3
_____ . . _____ . . _____ . . ____ .. ____
 72
    65
 73
     6
 40
22.5
 49
12.0
 74
     0
 49
-1.5
 74
     0
 49
3.0
 74
     0
 49
-1.5
 74
     0
 49
3.0
 74
     0
 49
-1.5
 74
     0
  0
LTYPE
  5
4598
330
5
100
AcDbSymbolTableRecord
100
AcDbLinetypeTableRecord
  2
Amconstr
 70
     0
  3
_______________________
 72
    65
 73
     2
 40
9999.0
 49
9999.0
 74
     0
 49
0.0
 74
     0
  0
LTYPE
  5
4599
330
5
100
AcDbSymbolTableRecord
100
AcDbLinetypeTableRecord
  2
AM_ISO08W050x2
 70
     0
  3
__ . __ . __ . __ . __ . __
 72
    65
 73
     4
 40
9.0
 49
6.0
 74
     0
 49
-0.75
 74
     0
 49
1.5
 74
     0
 49
-0.75
 74
     0
  0
LTYPE
  5
459A
330
5
100
AcDbSymbolTableRecord
100
AcDbLinetypeTableRecord
  2
AM_ISO02W050x2
 70
     0
  3
 _ _ _ _ _ _ _ _ _ _ _ _
 72
    65
 73
     2
 40
3.75
 49
3.0
 74
     0
 49
-0.75
 74
     0
  0
LTYPE
  5
459D
330
5
100
AcDbSymbolTableRecord
100
AcDbLinetypeTableRecord
  2
Amzigzag
 70
     0
  3
/\/-/\/-/\/-/\/-/\/-/\/
 72
    65
 73
     2
 40
11.0001
 49
0.0001
 74
     4
 75
   136
340
459C
 46
0.04
 50
0.0
 44
0.0
 45
0.0
 49
-11.0
 74
     0
  0
LTYPE
  5
459E
330
5
100
AcDbSymbolTableRecord
100
AcDbLinetypeTableRecord
  2
CENTER2
 70
     0
  3
Center (.5x) ___ _ ___ _ ___ _ ___ _ ___ _ ___
 72
    65
 73
     4
 40
1.125
 49
0.75
 74
     0
 49
-0.125
 74
     0
 49
0.125
 74
     0
 49
-0.125
 74
     0
  0
LTYPE
  5
459F
330
5
100
AcDbSymbolTableRecord
100
AcDbLinetypeTableRecord
  2
HIDDEN2
 70
     0
  3
Hidden (.5x) _ _ _ _ _ _ _ _ _ _ _ _ _ _ _ _ _
 72
    65
 73
     2
 40
0.1875
 49
0.125
 74
     0
 49
-0.0625
 74
     0
  0
LTYPE
  5
45A0
330
5
100
AcDbSymbolTableRecord
100
AcDbLinetypeTableRecord
  2
Amzigzag2
 70
     0
  3
/\/-/\/-/\/-/\/-/\/-/\/
 72
    65
 73
     2
 40
0.4401
 49
0.0001
 74
     4
 75
   136
340
459C
 46
0.0016
 50
0.0
 44
0.0
 45
0.0
 49
-0.4400000000000001
 74
     0
  0
LTYPE
  5
45AE
330
5
100
AcDbSymbolTableRecord
100
AcDbLinetypeTableRecord
  2
ACANSTGB
 70
     0
  3
__ . . __ . .
 72
    65
 73
     6
 40
0.35433070866
 49
0.15748031496
 74
     0
 49
-0.03937007874
 74
     0
 49
0.03937007874
 74
     0
 49
-0.03937007874
 74
     0
 49
0.03937007874
 74
     0
 49
-0.03937007874
 74
     0
  0
LTYPE
  5
45AF
330
5
100
AcDbSymbolTableRecord
100
AcDbLinetypeTableRecord
  2
ACANSTGL
 70
     0
  3
_ _ _ _ _
 72
    65
 73
     2
 40
0.11811023622
 49
0.07874015748
 74
     0
 49
-0.03937007874
 74
     0
  0
ENDTAB
  0
TABLE
  2
LAYER
  5
2
330
0
100
AcDbSymbolTable
 70
     9
  0
LAYER
  5
10
330
2
100
AcDbSymbolTableRecord
100
AcDbLayerTableRecord
  2
0
 70
     0
 62
     7
  6
CONTINUOUS
370
    -3
390
F
  0
LAYER
  5
30
330
2
100
AcDbSymbolTableRecord
100
AcDbLayerTableRecord
  2
TEXT
 70
     0
 62
     7
  6
CONTINUOUS
370
    -3
390
F
  0
LAYER
  5
31
330
2
100
AcDbSymbolTableRecord
100
AcDbLayerTableRecord
  2
DEFPOINTS
 70
     0
 62
     7
  6
CONTINUOUS
290
     0
370
    -3
390
F
  0
LAYER
  5
32
330
2
100
AcDbSymbolTableRecord
100
AcDbLayerTableRecord
  2
DIM
 70
     0
 62
     1
  6
CONTINUOUS
370
    -3
390
F
  0
LAYER
  5
33
330
2
100
AcDbSymbolTableRecord
100
AcDbLayerTableRecord
  2
CENTER
 70
     0
 62
     3
  6
CENTER
370
    -3
390
F
  0
LAYER
  5
34
330
2
100
AcDbSymbolTableRecord
100
AcDbLayerTableRecord
  2
OBJ
 70
     0
 62
     7
  6
CONTINUOUS
370
    -3
390
F
  0
LAYER
  5
8BE
330
2
100
AcDbSymbolTableRecord
100
AcDbLayerTableRecord
  2
BORDER
 70
     0
 62
     7
  6
CONTINUOUS
370
    -3
390
F
  0
LAYER
  5
8BF
330
2
100
AcDbSymbolTableRecord
100
AcDbLayerTableRecord
  2
FORM
 70
     0
 62
     7
  6
CONTINUOUS
370
    -3
390
F
  0
LAYER
  5
41C0
330
2
100
AcDbSymbolTableRecord
100
AcDbLayerTableRecord
  2
OBJECT
 70
     0
 62
     7
  6
CONTINUOUS
370
    -3
390
F
  0
ENDTAB
  0
TABLE
  2
STYLE
  5
3
330
0
100
AcDbSymbolTable
 70
     7
  0
STYLE
  5
11
330
3
100
AcDbSymbolTableRecord
100
AcDbTextStyleTableRecord
  2
STANDARD
 70
     0
 40
0.0
 41
1.0
 50
0.0
 71
     0
 42
0.2
  3
txt
  4

  0
STYLE
  5
27
330
3
100
AcDbSymbolTableRecord
100
AcDbTextStyleTableRecord
  2
ROMANS
 70
     0
 40
0.0
 41
1.0
 50
0.0
 71
     0
 42
0.09375
  3
romans
  4

  0
STYLE
  5
29
330
3
100
AcDbSymbolTableRecord
100
AcDbTextStyleTableRecord
  2
HELR
 70
     0
 40
0.0
 41
1.0
 50
0.0
 71
     0
 42
0.2
  3
HELV.shx
  4

  0
STYLE
  5
41C1
330
3
100
AcDbSymbolTableRecord
100
AcDbTextStyleTableRecord
  2
KANJI
 70
     0
 40
0.0
 41
1.0
 50
0.0
 71
     0
 42
2.0
  3
TXT
  4
BIGFONT
  0
STYLE
  5
459C
330
3
100
AcDbSymbolTableRecord
100
AcDbTextStyleTableRecord
  2

 70
     1
 40
0.0
 41
1.0
 50
0.0
 71
     0
 42
0.09375
  3
genltshp.shx
  4

  0
STYLE
  5
45A1
330
3
100
AcDbSymbolTableRecord
100
AcDbTextStyleTableRecord
  2
ACANSTS
 70
     0
 40
1.0
 41
1.0
 50
0.0
 71
     0
 42
0.09375
  3
romans.shx
  4

  0
STYLE
  5
45AD
330
3
100
AcDbSymbolTableRecord
100
AcDbTextStyleTableRecord
  2
ACANSGDT
 70
     0
 40
0.0
 41
1.0
 50
0.0
 71
     0
 42
0.09375
  3
AMGDT
  4

  0
ENDTAB
  0
TABLE
  2
VIEW
  5
6
330
0
100
AcDbSymbolTable
 70
     0
  0
ENDTAB
  0
TABLE
  2
UCS
  5
7
330
0
100
AcDbSymbolTable
 70
     0
  0
ENDTAB
  0
TABLE
  2
APPID
  5
9
330
0
100
AcDbSymbolTable
 70
    11
  0
APPID
  5
12
330
9
100
AcDbSymbolTableRecord
100
AcDbRegAppTableRecord
  2
ACAD
 70
     0
  0
APPID
  5
3E3
330
9
100
AcDbSymbolTableRecord
100
AcDbRegAppTableRecord
  2
DCO15
 70
     0
  0
APPID
  5
4534
330
9
100
AcDbSymbolTableRecord
100
AcDbRegAppTableRecord
  2
MCAD_NO_VIS
 70
     0
  0
APPID
  5
4535
330
9
100
AcDbSymbolTableRecord
100
AcDbRegAppTableRecord
  2
ACAD_TEMP_GRAPHIC
 70
     0
  0
APPID
  5
4563
330
9
100
AcDbSymbolTableRecord
100
AcDbRegAppTableRecord
  2
AD_DRAW
 70
     0
  0
APPID
  5
4566
330
9
100
AcDbSymbolTableRecord
100
AcDbRegAppTableRecord
  2
ACATTRIBSERVICES
 70
     0
  0
APPID
  5
4586
330
9
100
AcDbSymbolTableRecord
100
AcDbRegAppTableRecord
  2
DESIGNERASSEMBLIES
 70
     0
  0
APPID
  5
458C
330
9
100
AcDbSymbolTableRecord
100
AcDbRegAppTableRecord
  2
ACADM_DIM_EDIT
 70
     0
  0
APPID
  5
458D
330
9
100
AcDbSymbolTableRecord
100
AcDbRegAppTableRecord
  2
AMDT_DM_ADJ
 70
     0
  0
APPID
  5
45BA
330
9
100
AcDbSymbolTableRecord
100
AcDbRegAppTableRecord
  2
ACAD_DSTYLE_DIMARC_LENGTH_SYMBOL
 70
     0
  0
APPID
  5
45BB
330
9
100
AcDbSymbolTableRecord
100
AcDbRegAppTableRecord
  2
ACAD_DSTYLE_DIMJOGGED_JOGANGLE_SYMBOL
 70
     0
  0
ENDTAB
  0
TABLE
  2
DIMSTYLE
  5
A
330
0
100
AcDbSymbolTable
 70
     7
100
AcDbDimStyleTable
 71
     1
340
3B8
  0
DIMSTYLE
105
3B8
330
A
100
AcDbSymbolTableRecord
100
AcDbDimStyleTableRecord
  2
Standard
 70
     0
 41
0.15
 44
0.0625
140
0.09
176
     1
177
     1
178
     7
340
11
  0
DIMSTYLE
105
45B9
330
A
100
AcDbSymbolTableRecord
100
AcDbDimStyleTableRecord
  2
AM_ANSI
 70
     0
  4
mm
 41
0.1
 42
0.05
 43
0.5
 44
0.1
 47
0.1
 48
0.1
 78
     7
 79
     2
140
0.12
141
0.0
146
0.71
147
0.06
176
   256
177
   256
178
     2
274
     4
284
     7
340
11
371
    -1
372
    -1
1001
ACAD_DSTYLE_DIMARC_LENGTH_SYMBOL
1070
   379
1070
     1
1001
ACAD_DSTYLE_DIMJOGGED_JOGANGLE_SYMBOL
1070
   384
1040
0.7853981633974483
  0
DIMSTYLE
105
45C2
330
A
100
AcDbSymbolTableRecord
100
AcDbDimStyleTableRecord
  2
AM_ANSI$3
 70
     0
  4
mm
 41
0.1
 42
0.05
 43
0.5
 44
0.1
 47
0.1
 48
0.1
 78
     7
 79
     2
140
0.12
141
0.0
146
0.71
147
0.06
176
   256
177
   256
178
     2
274
     4
284
     7
288
     1
289
     0
340
11
371
    -1
372
    -1
1001
ACAD_DSTYLE_DIMARC_LENGTH_SYMBOL
1070
   379
1070
     1
1001
ACAD_DSTYLE_DIMJOGGED_JOGANGLE_SYMBOL
1070
   384
1040
0.7853981633974483
  0
DIMSTYLE
105
45C5
330
A
100
AcDbSymbolTableRecord
100
AcDbDimStyleTableRecord
  2
AM_ANSI$4
 70
     0
  4
mm
 41
0.1
 42
0.05
 43
0.5
 44
0.1
 47
0.1
 48
0.1
 78
     7
 79
     2
140
0.12
141
0.0
146
0.71
147
0.06
176
   256
177
   256
178
     2
274
     4
284
     7
288
     1
289
     0
340
11
371
    -1
372
    -1
1001
ACAD_DSTYLE_DIMARC_LENGTH_SYMBOL
1070
   379
1070
     1
1001
ACAD_DSTYLE_DIMJOGGED_JOGANGLE_SYMBOL
1070
   384
1040
0.7853981633974483
  0
DIMSTYLE
105
45CA
330
A
100
AcDbSymbolTableRecord
100
AcDbDimStyleTableRecord
  2
AM_ANSI$7
 70
     0
  4
mm
 41
0.1
 42
0.05
 43
0.5
 44
0.1
 47
0.1
 48
0.1
 78
     7
 79
     2
140
0.24
141
0.0
146
0.71
147
0.06
176
   256
177
   256
178
     2
274
     4
284
     7
340
11
371
    -1
372
    -1
1001
ACAD_DSTYLE_DIMARC_LENGTH_SYMBOL
1070
   379
1070
     1
1001
ACAD_DSTYLE_DIMJOGGED_JOGANGLE_SYMBOL
1070
   384
1040
0.7853981633974483
  0
DIMSTYLE
105
45CD
330
A
100
AcDbSymbolTableRecord
100
AcDbDimStyleTableRecord
  2
AM_ANSI$SF
 70
     0
  4
mm
 41
0.1
 42
0.05
 43
0.5
 44
0.1
 47
0.1
 48
0.1
 75
     1
 76
     1
 78
     7
 79
     2
140
0.12
141
0.0
146
0.71
147
0.06
176
   256
177
   256
178
     2
274
     4
284
     7
340
11
371
    -1
372
    -1
1001
ACAD_DSTYLE_DIMARC_LENGTH_SYMBOL
1070
   379
1070
     1
1001
ACAD_DSTYLE_DIMJOGGED_JOGANGLE_SYMBOL
1070
   384
1040
0.7853981633974483
  0
DIMSTYLE
105
45D4
330
A
100
AcDbSymbolTableRecord
100
AcDbDimStyleTableRecord
  2
AM_ANSI$SH
 70
     0
  4
mm
 41
0.1
 42
0.05
 43
0.5
 44
0.1
 47
0.1
 48
0.1
 75
     1
 76
     1
 78
     7
 79
     2
140
0.12
141
0.0
146
0.71
147
0.06
173
     1
176
   256
177
   256
178
     2
274
     4
284
     7
340
11
343
45CE
371
    -1
372
    -1
1001
ACAD_DSTYLE_DIMARC_LENGTH_SYMBOL
1070
   379
1070
     1
1001
ACAD_DSTYLE_DIMJOGGED_JOGANGLE_SYMBOL
1070
   384
1040
0.7853981633974483
  0
ENDTAB
  0
TABLE
  2
BLOCK_RECORD
  5
1
330
0
100
AcDbSymbolTable
 70
     3
  0
BLOCK_RECORD
  5
1E
330
1
100
AcDbSymbolTableRecord
100
AcDbBlockTableRecord
  2
*Model_Space
340
21
  0
BLOCK_RECORD
  5
1A
330
1
100
AcDbSymbolTableRecord
100
AcDbBlockTableRecord
  2
*Paper_Space
340
1D
  0
BLOCK_RECORD
  5
597
330
1
100
AcDbSymbolTableRecord
100
AcDbBlockTableRecord
  2
_OPEN
340
0
  0
BLOCK_RECORD
  5
45CE
330
1
100
AcDbSymbolTableRecord
100
AcDbBlockTableRecord
  2
GENAXEH
340
0
  0
ENDTAB
  0
ENDSEC
  0
SECTION
  2
BLOCKS
  0
BLOCK
  5
37
330
1E
100
AcDbEntity
  8
0
100
AcDbBlockBegin
  2
*Model_Space
 70
     0
 10
0.0
 20
0.0
 30
0.0
  3
*Model_Space
  1

  0
ENDBLK
  5
38
330
1E
100
AcDbEntity
  8
0
100
AcDbBlockEnd
  0
BLOCK
  5
35
330
1A
100
AcDbEntity
 67
     1
  8
0
100
AcDbBlockBegin
  2
*Paper_Space
 70
     0
 10
0.0
 20
0.0
 30
0.0
  3
*Paper_Space
  1

  0
ENDBLK
  5
36
330
1A
100
AcDbEntity
 67
     1
  8
0
100
AcDbBlockEnd
  0
BLOCK
  5
59B
330
597
100
AcDbEntity
  8
0
100
AcDbBlockBegin
  2
_OPEN
 70
     0
 10
0.0
 20
0.0
 30
0.0
  3
_OPEN
  1

  0
LINE
  5
598
330
597
100
AcDbEntity
  8
0
  6
ByBlock
 62
     0
100
AcDbLine
 10
-1.0
 20
0.1666666666666666
 30
0.0
 11
0.0
 21
0.0
 31
0.0
  0
LINE
  5
599
330
597
100
AcDbEntity
  8
0
  6
ByBlock
 62
     0
100
AcDbLine
 10
0.0
 20
0.0
 30
0.0
 11
-1.0
 21
-0.1666666666666666
 31
0.0
  0
LINE
  5
59A
330
597
100
AcDbEntity
  8
0
  6
ByBlock
 62
     0
100
AcDbLine
 10
0.0
 20
0.0
 30
0.0
 11
-1.0
 21
0.0
 31
0.0
  0
ENDBLK
  5
59C
330
597
100
AcDbEntity
  8
0
100
AcDbBlockEnd
  0
BLOCK
  5
45D0
330
45CE
100
AcDbEntity
  8
0
100
AcDbBlockBegin
  2
GENAXEH
 70
     0
 10
0.0
 20
0.0
 30
0.0
  3
GENAXEH
  1

  0
LINE
  5
45CF
330
45CE
100
AcDbEntity
  8
0
100
AcDbLine
 10
-1.0
 20
0.0
 30
0.0
 11
1.0
 21
0.0
 31
0.0
  0
ENDBLK
  5
45D1
330
45CE
100
AcDbEntity
  8
0
100
AcDbBlockEnd
  0
ENDSEC
  0
SECTION
  2
ENTITIES
  0
TEXT
  5
C7
330
1E
100
AcDbEntity
  8
DIM
 62
     1
100
AcDbText
 10
16.35516340111906
 20
7.313182641180002
 30
0.0
 40
0.125
  1

 50
90.0
100
AcDbText
  0
TEXT
  5
C9
330
1E
100
AcDbEntity
  8
DIM
 62
     1
100
AcDbText
 10
13.34837863483334
 20
7.179439377583786
 30
0.0
 40
0.125
  1

 50
90.0
100
AcDbText
  0
TEXT
  5
DA
330
1E
100
AcDbEntity
  8
DIM
 62
     1
100
AcDbText
 10
13.6904845814324
 20
8.486994831764484
 30
0.0
 40
0.125
  1

 50
90.0
100
AcDbText
  0
TEXT
  5
DB
330
1E
100
AcDbEntity
  8
DIM
 62
     1
100
AcDbText
 10
10.68369981514667
 20
8.353251568168268
 30
0.0
 40
0.125
  1

 50
90.0
100
AcDbText
  0
TEXT
  5
7BB
330
1E
100
AcDbEntity
  8
0
100
AcDbText
 10
14.54583576742788
 20
0.6371003189161656
 30
0.0
 40
0.1213397244080934
  1
802B-SSABXSX
  7
HELR
 72
     4
 11
15.25076178541776
 21
0.6977701811202124
 31
0.0
100
AcDbText
  0
TEXT
  5
9B3
330
1E
100
AcDbEntity
  8
DIM
 62
     1
100
AcDbText
 10
25.09672621712861
 20
7.640701491704227
 30
0.0
 40
0.125
  1

 50
90.0
100
AcDbText
  0
TEXT
  5
9B4
330
1E
100
AcDbEntity
  8
DIM
 62
     1
100
AcDbText
 10
22.08994145084288
 20
7.506958228108011
 30
0.0
 40
0.125
  1

 50
90.0
100
AcDbText
  0
TEXT
  5
9B5
330
1E
100
AcDbEntity
  8
DIM
 62
     1
100
AcDbText
 10
22.43204739744194
 20
8.814513682288708
 30
0.0
 40
0.125
  1

 50
90.0
100
AcDbText
  0
TEXT
  5
9B6
330
1E
100
AcDbEntity
  8
DIM
 62
     1
100
AcDbText
 10
19.42526263115621
 20
8.680770418692492
 30
0.0
 40
0.125
  1

 50
90.0
100
AcDbText
  0
TEXT
  5
9B7
330
1E
100
AcDbEntity
  8
0
100
AcDbText
 10
11.51472627349514
 20
1.620220178285536
 30
0.0
 40
0.1213397244080934
  1
OUTLINE DRAWING
  7
HELR
 72
     4
 11
12.3236577695491
 21
1.680890040489583
 31
0.0
100
AcDbText
  0
TEXT
  5
9B8
330
1E
100
AcDbEntity
  8
0
100
AcDbText
 10
12.10986873130627
 20
1.420866795770394
 30
0.0
 40
0.1213397244080934
  1
802B
  7
HELR
 72
     4
 11
12.3236577695491
 21
1.481536657974441
 31
0.0
100
AcDbText
  0
TEXT
  5
9B9
330
1E
100
AcDbEntity
  8
0
100
AcDbText
 10
11.26337970150695
 20
1.221513413255252
 30
0.0
 40
0.1213397244080934
  1
COMPACT LIMIT SWITCH
  7
HELR
 72
     4
 11
12.3236577695491
 21
1.282183275459299
 31
0.0
100
AcDbText
  0
TEXT
  5
3F15
330
1E
100
AcDbEntity
  8
FORM
100
AcDbText
 10
13.37613044214886
 20
10.59631187162067
 30
0.0
 40
0.08
  1
REVISIONS
 72
     4
 11
13.7094637754822
 21
10.63631187162067
 31
0.0
100
AcDbText
  0
TEXT
  5
3F16
330
1E
100
AcDbEntity
  8
FORM
100
AcDbText
 10
13.73530506185902
 20
10.38129937162067
 30
0.0
 40
0.06
  1
DESCRIPTION
 72
     4
 11
14.03530506185902
 21
10.41129937162067
 31
0.0
100
AcDbText
  0
TEXT
  5
3F17
330
1E
100
AcDbEntity
  8
FORM
100
AcDbText
 10
11.7146780754822
 20
10.38129937162067
 30
0.0
 40
0.06
  1
REV.
 72
     4
 11
11.8146780754822
 21
10.41129937162067
 31
0.0
100
AcDbText
  0
TEXT
  5
3F18
330
1E
100
AcDbEntity
  8
FORM
100
AcDbText
 10
16.14906399964001
 20
10.38129937162067
 30
0.0
 40
0.06
  1
DRAFTER
 72
     4
 11
16.34906399964001
 21
10.41129937162067
 31
0.0
100
AcDbText
  0
LINE
  5
3F19
330
1E
100
AcDbEntity
  8
FORM
100
AcDbLine
 10
0.1042494754821988
 20
0.3013358716206689
 30
0.0
 11
0.1042494754821988
 21
10.76133587162067
 31
0.0
  0
LINE
  5
3F1A
330
1E
100
AcDbEntity
  8
FORM
100
AcDbLine
 10
0.1042494754821988
 20
10.76133587162067
 30
0.0
 11
16.5642494754822
 21
10.76133587162067
 31
0.0
  0
LINE
  5
3F1B
330
1E
100
AcDbEntity
  8
FORM
100
AcDbLine
 10
16.5642494754822
 20
10.76133587162067
 30
0.0
 11
16.5642494754822
 21
0.3013358716206689
 31
0.0
  0
LINE
  5
3F1C
330
1E
100
AcDbEntity
  8
FORM
100
AcDbLine
 10
16.5642494754822
 20
0.3013358716206689
 30
0.0
 11
0.1042494754821988
 21
0.3013358716206689
 31
0.0
  0
LINE
  5
3F1D
330
1E
100
AcDbEntity
  8
FORM
100
AcDbLine
 10
16.5642494754822
 20
10.51128787162067
 30
0.0
 11
11.6946780754822
 21
10.51128787162067
 31
0.0
  0
LINE
  5
3F1E
330
1E
100
AcDbEntity
  8
FORM
100
AcDbLine
 10
16.5642494754822
 20
10.31131087162067
 30
0.0
 11
11.6946780754822
 21
10.31131087162067
 31
0.0
  0
LINE
  5
3F1F
330
1E
100
AcDbEntity
  8
FORM
100
AcDbLine
 10
11.6946780754822
 20
10.1116735987442
 30
0.0
 11
11.6946780754822
 21
10.76133587162067
 31
0.0
  0
LINE
  5
3F20
330
1E
100
AcDbEntity
  8
FORM
100
AcDbLine
 10
11.93467807548219
 20
10.1116735987442
 30
0.0
 11
11.93467807548219
 21
10.51128787162067
 31
0.0
  0
LINE
  5
3F21
330
1E
100
AcDbEntity
  8
FORM
100
AcDbLine
 10
16.13593204823584
 20
10.1116735987442
 30
0.0
 11
16.13593204823584
 21
10.51128787162067
 31
0.0
  0
LINE
  5
3F22
330
1E
100
AcDbEntity
  8
FORM
100
AcDbLine
 10
16.54425243591942
 20
10.1116735987442
 30
0.0
 11
11.67468103591941
 21
10.1116735987442
 31
0.0
  0
TEXT
  5
3F23
330
1E
100
AcDbEntity
  8
FORM
100
AcDbText
 10
11.8046780754822
 20
10.1814922222368
 30
0.0
 40
0.06
  1
1
 72
     4
 11
11.8146780754822
 21
10.2114922222368
 31
0.0
100
AcDbText
  0
TEXT
  5
3F24
330
1E
100
AcDbEntity
  8
FORM
100
AcDbText
 10
12.08889710857868
 20
10.1814922222368
 30
0.0
 40
0.06
  1
CREATED
 72
     4
 11
12.28889710857868
 21
10.2114922222368
 31
0.0
100
AcDbText
  0
TEXT
  5
3F25
330
1E
100
AcDbEntity
  8
FORM
100
AcDbText
 10
16.26906399964001
 20
10.1814922222368
 30
0.0
 40
0.06
  1
MJL
 72
     4
 11
16.34906399964001
 21
10.2114922222368
 31
0.0
100
AcDbText
  0
TEXT
  5
3F26
330
1E
100
AcDbEntity
  8
BORDER
100
AcDbText
 10
14.24675382472929
 20
1.832088277798209
 30
0.0
 40
0.08
  1
FOR TECHNICAL SUPPORT CALL
100
AcDbText
  0
LINE
  5
3F27
330
1E
100
AcDbEntity
  8
BORDER
 62
     7
100
AcDbLine
 10
8.164214953796033
 20
0.880152121685807
 30
0.0
 11
10.6742212964188
 21
0.880152121685807
 31
0.0
  0
LINE
  5
3F28
330
1E
100
AcDbEntity
  8
BORDER
 62
     7
100
AcDbLine
 10
8.164214953796033
 20
0.5965697534844594
 30
0.0
 11
10.6742212964188
 21
0.5965697534844594
 31
0.0
  0
LINE
  5
3F29
330
1E
100
AcDbEntity
  8
BORDER
 62
     7
100
AcDbLine
 10
8.164214953796033
 20
2.310664685980217
 30
0.0
 11
16.5642494754822
 21
2.310664685980217
 31
0.0
  0
CIRCLE
  5
3F2A
330
1E
100
AcDbEntity
  8
BORDER
100
AcDbCircle
 10
8.975235392842808
 20
1.629187519764812
 30
0.0
 40
0.1399439102212038
  0
CIRCLE
  5
3F2B
330
1E
100
AcDbEntity
  8
BORDER
100
AcDbCircle
 10
8.975235392842808
 20
1.629187519764812
 30
0.0
 40
0.2350004304560674
  0
LINE
  5
3F2C
330
1E
100
AcDbEntity
  8
BORDER
 62
     7
100
AcDbLine
 10
10.6626304614487
 20
0.5918000678843392
 30
0.0
 11
14.07264668340649
 21
0.5918000678843392
 31
0.0
  0
TEXT
  5
3F2E
330
1E
100
AcDbEntity
  8
BORDER
100
AcDbText
 10
8.252778585122825
 20
2.073417411838359
 30
0.0
 40
0.06
  1
DIMENSIONS ARE IN MM [INCHES]
  7
ROMANS
100
AcDbText
  0
LINE
  5
3F2F
330
1E
100
AcDbEntity
  8
BORDER
 62
     7
100
AcDbLine
 10
10.6742212964188
 20
1.988654942763002
 30
0.0
 11
8.164214953796033
 21
1.988654942763002
 31
0.0
  0
LINE
  5
3F30
330
1E
100
AcDbEntity
  8
BORDER
 62
     7
100
AcDbLine
 10
8.164214953796033
 20
1.163768028334882
 30
0.0
 11
10.6742212964188
 21
1.163768028334882
 31
0.0
  0
TEXT
  5
3F31
330
1E
100
AcDbEntity
  8
BORDER
100
AcDbText
 10
8.231050836667568
 20
2.185660268230411
 30
0.0
 40
0.06
  1
UNLESS OTHERWISE SPECIFIED
  7
ROMANS
 72
     4
 11
8.929622265238997
 21
2.215660268230411
 31
0.0
100
AcDbText
  0
LINE
  5
3F32
330
1E
100
AcDbEntity
  8
BORDER
 62
     7
100
AcDbLine
 10
8.164214953796033
 20
2.310664685980217
 30
0.0
 11
8.164214953796033
 21
0.3013358716206689
 31
0.0
  0
LINE
  5
3F33
330
1E
100
AcDbEntity
  8
BORDER
100
AcDbLine
 10
10.05345745430098
 20
1.86418795022088
 30
0.0
 11
10.05345745430098
 21
1.394187089308745
 31
0.0
  0
LINE
  5
3F34
330
1E
100
AcDbEntity
  8
BORDER
100
AcDbLine
 10
9.469758293584561
 20
1.769131429986016
 30
0.0
 11
9.469758293584561
 21
1.489243609543608
 31
0.0
  0
TEXT
  5
3F35
330
1E
100
AcDbEntity
  8
BORDER
100
AcDbText
 10
14.75034761914786
 20
1.677567584262366
 30
0.0
 40
0.08
  1
+1 440.646.5800
100
AcDbText
  0
TEXT
  5
3F36
330
1E
100
AcDbEntity
  8
BORDER
100
AcDbText
 10
8.849680802323176
 20
1.224269202352133
 30
0.0
 40
0.06
  1
THIRD ANGLE PROJECTION
  7
ROMANS
 72
     4
 11
9.438252230894605
 21
1.254269202352134
 31
0.0
100
AcDbText
  0
LINE
  5
3F37
330
1E
100
AcDbEntity
  8
BORDER
100
AcDbLine
 10
10.05345745430098
 20
1.394187089308745
 30
0.0
 11
9.469758293584561
 21
1.489243609543608
 31
0.0
  0
LINE
  5
3F38
330
1E
100
AcDbEntity
  8
BORDER
100
AcDbLine
 10
10.05345745430098
 20
1.86418795022088
 30
0.0
 11
9.469758293584561
 21
1.769131429986016
 31
0.0
  0
TEXT
  5
3F39
330
1E
100
AcDbEntity
  8
BORDER
100
AcDbText
 10
8.252838918385634
 20
0.9937680024362871
 30
0.0
 40
0.07
  1
MATERIAL:    N/A
  7
ROMANS
 11
8.252838918385634
 21
1.063768002436287
 31
0.0
100
AcDbText
 73
     3
  0
TEXT
  5
3F3A
330
1E
100
AcDbEntity
  8
BORDER
100
AcDbText
 10
8.252838918385634
 20
0.7101520957872121
 30
0.0
 40
0.07
  1
FINISH:    N/A
  7
ROMANS
 11
8.252838918385634
 21
0.7801520957872122
 31
0.0
100
AcDbText
 73
     3
  0
TEXT
  5
3F3B
330
1E
100
AcDbEntity
  8
BORDER
100
AcDbText
 10
8.241657103055366
 20
0.4098107168812891
 30
0.0
 40
0.07
  1
SCALE:    1 : 1
  7
ROMANS
 11
8.241657103055366
 21
0.4798107168812891
 31
0.0
100
AcDbText
 73
     3
  0
LINE
  5
3F3C
330
1E
100
AcDbEntity
  8
BORDER
 62
     7
100
AcDbLine
 10
12.50422129641874
 20
0.5918000678843392
 30
0.0
 11
12.50422129641873
 21
0.3013358716206689
 31
0.0
  0
TEXT
  5
3F3D
330
1E
100
AcDbEntity
  8
BORDER
100
AcDbText
 10
11.16346154336717
 20
0.3816849826689754
 30
0.0
 40
0.09
  1
B. FORTIER
  7
ROMANS
100
AcDbText
  0
LINE
  5
3F3E
330
1E
100
AcDbEntity
  8
BORDER
 62
     7
100
AcDbLine
 10
10.6742212964188
 20
2.310664685980217
 30
0.0
 11
10.6742212964188
 21
0.3013358716206689
 31
0.0
  0
TEXT
  5
3F3F
330
1E
100
AcDbEntity
  8
BORDER
100
AcDbText
 10
10.74583298220857
 20
0.3910254962221138
 30
0.0
 40
0.1
  1
DRW.
  7
ROMANS
 11
10.74583298220857
 21
0.4410254962221139
 31
0.0
100
AcDbText
 73
     2
  0
TEXT
  5
3F40
330
1E
100
AcDbEntity
  8
BORDER
100
AcDbText
 10
12.61209870062048
 20
0.3935679008708526
 30
0.0
 40
0.1
  1
DATE
  7
ROMANS
100
AcDbText
  0
LINE
  5
3F43
330
1E
100
AcDbEntity
  8
BORDER
 62
     7
100
AcDbLine
 10
16.16423529139655
 20
0.7613526737798431
 30
0.0
 11
16.5642494754822
 21
0.7613526737798431
 31
0.0
  0
TEXT
  5
3F44
330
1E
100
AcDbEntity
  8
BORDER
100
AcDbText
 10
16.26023335346775
 20
0.7914822653982334
 30
0.0
 40
0.06
  1
REV.
  7
ROMANS
100
AcDbText
  0
TEXT
  5
3F45
330
1E
100
AcDbEntity
  8
BORDER
100
AcDbText
 10
14.17297786485456
 20
2.008125303149491
 30
0.0
 40
0.12
  1
ROCKWELL AUTOMATION
100
AcDbText
  0
TEXT
  5
3F46
330
1E
100
AcDbEntity
  8
BORDER
100
AcDbText
 10
14.15686668632682
 20
1.240125519652671
 30
0.0
 40
0.06
  1
ROCKWELL AUTOMATION AND MAY NOT COPIED,
100
AcDbText
  0
TEXT
  5
3F47
330
1E
100
AcDbEntity
  8
BORDER
100
AcDbText
 10
14.15686668632682
 20
1.140125519652649
 30
0.0
 40
0.06
  1
USED OR DISCLOSED FOR ANY PURPOSE EXCEPT 
100
AcDbText
  0
LINE
  5
3F48
330
1E
100
AcDbEntity
  8
BORDER
 62
     7
100
AcDbLine
 10
14.08423751837659
 20
0.5013329898443751
 30
0.0
 11
16.5642494754822
 21
0.5013329898443751
 31
0.0
  0
LINE
  5
3F49
330
1E
100
AcDbEntity
  8
BORDER
 62
     7
100
AcDbLine
 10
14.08423751837659
 20
0.8813526737798476
 30
0.0
 11
16.5642494754822
 21
0.8813526737798476
 31
0.0
  0
LINE
  5
3F4A
330
1E
100
AcDbEntity
  8
BORDER
 62
     7
100
AcDbLine
 10
14.08423751837659
 20
1.483895532676335
 30
0.0
 11
16.5642494754822
 21
1.483895532676335
 31
0.0
  0
TEXT
  5
3F4B
330
1E
100
AcDbEntity
  8
BORDER
100
AcDbText
 10
15.20172277357306
 20
0.3513358716206802
 30
0.0
 40
0.0781
  1
1
  7
ROMANS
100
AcDbText
  0
TEXT
  5
3F4C
330
1E
100
AcDbEntity
  8
BORDER
100
AcDbText
 10
16.07672277357307
 20
0.3513358716206802
 30
0.0
 40
0.0781
  1
1
  7
ROMANS
100
AcDbText
  0
TEXT
  5
3F4D
330
1E
100
AcDbEntity
  8
BORDER
100
AcDbText
 10
14.45808700369694
 20
0.3539194570580584
 30
0.0
 40
0.1
  1
B
  7
ROMANS
 72
     1
 11
14.51046795607789
 21
0.3539194570580584
 31
0.0
100
AcDbText
  0
LINE
  5
3F4E
330
1E
100
AcDbEntity
  8
BORDER
 62
     7
100
AcDbLine
 10
14.08423751837659
 20
0.3013358716206689
 30
0.0
 11
14.08423751837659
 21
2.310664685980217
 31
0.0
  0
TEXT
  5
3F4F
330
1E
100
AcDbEntity
  8
BORDER
100
AcDbText
 10
14.13838683215874
 20
0.3538095471564908
 30
0.0
 40
0.08
  1
SIZE   SHEET         OF     
  7
ROMANS
100
AcDbText
  0
TEXT
  5
3F50
330
1E
100
AcDbEntity
  8
BORDER
100
AcDbText
 10
14.15686668632682
 20
1.340125519652666
 30
0.0
 40
0.06
  1
THIS DRAWING IS PROPERTY OF
100
AcDbText
  0
TEXT
  5
3F51
330
1E
100
AcDbEntity
  8
BORDER
100
AcDbText
 10
14.15686668632682
 20
1.040125519652654
 30
0.0
 40
0.06
  1
AS AUTHORIZED IN WRITING BY
100
AcDbText
  0
TEXT
  5
3F52
330
1E
100
AcDbEntity
  8
BORDER
100
AcDbText
 10
14.15686668632682
 20
0.9401255196526605
 30
0.0
 40
0.06
  1
ROCKWELL AUTOMATION.
100
AcDbText
  0
TEXT
  5
3F53
330
1E
100
AcDbEntity
  8
BORDER
100
AcDbText
 10
13.1261292903136
 20
0.3963337397533344
 30
0.0
 40
0.09375
  1
10/11/06
  7
ROMANS
100
AcDbText
  0
TEXT
  5
3F54
330
1E
100
AcDbEntity
  8
BORDER
100
AcDbText
 10
14.13838683215874
 20
0.7411669347464205
 30
0.0
 40
0.06
  1
DWG.
  7
ROMANS
100
AcDbText
  0
TEXT
  5
3F55
330
1E
100
AcDbEntity
  8
BORDER
100
AcDbText
 10
14.13838683215874
 20
0.6078336014130948
 30
0.0
 40
0.06
  1
NO.
  7
ROMANS
100
AcDbText
  0
LINE
  5
3F57
330
1E
100
AcDbEntity
  8
BORDER
 62
     7
100
AcDbLine
 10
16.16423529139655
 20
0.8813526737798476
 30
0.0
 11
16.16423529139655
 21
0.5013329898443751
 31
0.0
  0
TEXT
  5
3F58
330
1E
100
AcDbEntity
  8
BORDER
100
AcDbText
 10
16.2988682206034
 20
0.5895054857508378
 30
0.0
 40
0.1
  1
1
  7
ROMANS
 72
     1
 11
16.33934441107959
 21
0.5895054857508378
 31
0.0
100
AcDbText
  0
LINE
  5
42ED
330
1E
100
AcDbEntity
  8
OBJECT
 62
     7
100
AcDbLine
 10
9.36832175654985
 20
7.055059514876029
 30
0.0
 11
10.13477354504742
 21
7.055059514876029
 31
0.0
  0
ARC
  5
42EF
330
1E
100
AcDbEntity
  8
OBJECT
 62
     7
100
AcDbCircle
 10
9.949086981120087
 20
5.711796533862359
 30
0.0
 40
0.1975390280867369
100
AcDbArc
 50
270.0
 51
0.0
  0
ARC
  5
42F1
330
1E
100
AcDbEntity
  8
OBJECT
 62
     7
100
AcDbCircle
 10
9.949086981120087
 20
6.106874590035836
 30
0.0
 40
0.1975390280867369
100
AcDbArc
 50
0.0
 51
90.0
  0
LINE
  5
42F5
330
1E
100
AcDbEntity
  8
OBJECT
 62
     7
100
AcDbLine
 10
9.395977702477226
 20
7.134075126110727
 30
0.0
 11
10.10711820358947
 21
7.134075126110727
 31
0.0
  0
LINE
  5
42F6
330
1E
100
AcDbEntity
  8
OBJECT
 62
     7
100
AcDbLine
 10
10.1663799120155
 20
6.699489264319902
 30
0.0
 11
9.336715994051203
 21
6.699489264319902
 31
0.0
  0
LINE
  5
42F8
330
1E
100
AcDbEntity
  8
CENTER
 62
     3
100
AcDbLine
 10
9.190367233653644
 20
5.909323504166822
 30
0.0
 11
10.32628355952276
 21
5.909323504166822
 31
0.0
  0
ARC
  5
4305
330
1E
100
AcDbEntity
  8
OBJECT
 62
     7
100
AcDbCircle
 10
5.568588491226289
 20
6.679735361511228
 30
0.0
 40
0.0197539028086737
100
AcDbArc
 50
0.0
 51
90.0
  0
LINE
  5
430E
330
1E
100
AcDbEntity
  8
CENTER
 62
     3
100
AcDbLine
 10
6.288652951953996
 20
5.909323504166822
 30
0.0
 11
5.393818273453248
 21
5.909323504166822
 31
0.0
  0
LINE
  5
430F
330
1E
100
AcDbEntity
  8
OBJECT
 62
     7
100
AcDbLine
 10
3.478624459948493
 20
6.106872780578342
 30
0.0
 11
5.588342394034969
 21
6.106872780578342
 31
0.0
  0
LINE
  5
4310
330
1E
100
AcDbEntity
  8
OBJECT
 62
     7
100
AcDbLine
 10
3.51023730619669
 20
5.593261059228043
 30
0.0
 11
5.596247751858555
 21
5.593261059228043
 31
0.0
  0
LINE
  5
4316
330
1E
100
AcDbEntity
  8
OBJECT
 62
     7
100
AcDbLine
 10
4.39125576530592
 20
7.134075126110727
 30
0.0
 11
4.39125576530592
 21
7.430383668240827
 31
0.0
  0
LINE
  5
4317
330
1E
100
AcDbEntity
  8
OBJECT
 62
     7
100
AcDbLine
 10
3.838146636792721
 20
7.134075126110727
 30
0.0
 11
3.838146636792721
 21
7.430383668240827
 31
0.0
  0
LINE
  5
4318
330
1E
100
AcDbEntity
  8
CENTER
 62
     3
100
AcDbLine
 10
4.114701125984489
 20
7.713042073892675
 30
0.0
 11
4.114701125984489
 21
6.841464712125437
 31
0.0
  0
LINE
  5
431B
330
1E
100
AcDbEntity
  8
OBJECT
 62
     7
100
AcDbLine
 10
3.529984125255815
 20
7.055059514876029
 30
0.0
 11
5.536982128208997
 21
7.055059514876029
 31
0.0
  0
LINE
  5
431F
330
1E
100
AcDbEntity
  8
OBJECT
 62
     7
100
AcDbLine
 10
3.759131025558024
 20
7.134075126110727
 30
0.0
 11
4.470271376540618
 21
7.134075126110727
 31
0.0
  0
LINE
  5
4320
330
1E
100
AcDbEntity
  8
OBJECT
 62
     7
100
AcDbLine
 10
5.394755292236322
 20
7.015551709258681
 30
0.0
 11
3.656411845073039
 21
7.015551709258681
 31
0.0
  0
LINE
  5
4321
330
1E
100
AcDbEntity
  8
OBJECT
 62
     7
100
AcDbLine
 10
5.394755292236322
 20
6.719243167128576
 30
0.0
 11
3.656411845073039
 21
6.719243167128576
 31
0.0
  0
LINE
  5
4322
330
1E
100
AcDbEntity
  8
OBJECT
 62
     7
100
AcDbLine
 10
5.568588491226289
 20
6.699489264319902
 30
0.0
 11
3.498378362757168
 21
6.699489264319902
 31
0.0
  0
ARC
  5
4323
330
1E
100
AcDbEntity
  8
OBJECT
 62
     7
100
AcDbCircle
 10
3.833541231645805
 20
6.146380586195686
 30
0.0
 40
0.0395078056173474
100
AcDbArc
 50
180.9548035
 51
270.0
  0
LINE
  5
432A
330
1E
100
AcDbEntity
  8
OBJECT
 62
     7
100
AcDbLine
 10
3.450975597770672
 20
5.652522767654071
 30
0.0
 11
3.450975597770672
 21
6.49008993372513
 31
0.0
  0
ARC
  5
4330
330
1E
100
AcDbEntity
  8
OBJECT
 62
     7
100
AcDbCircle
 10
3.51023730619669
 20
5.652522767654071
 30
0.0
 40
0.0592617084260211
100
AcDbArc
 50
180.0
 51
270.0
  0
LINE
  5
4336
330
1E
100
AcDbEntity
  8
OBJECT
 62
     7
100
AcDbLine
 10
3.78480995348294
 20
6.699489264319902
 30
0.0
 11
3.794038095851088
 21
6.145718968728918
 31
0.0
  0
LINE
  5
4337
330
1E
100
AcDbEntity
  8
OBJECT
 62
     7
100
AcDbLine
 10
3.478624459948493
 20
6.106872780578342
 30
0.0
 11
3.478624459948493
 21
6.679735361511228
 31
0.0
  0
LINE
  5
433D
330
1E
100
AcDbEntity
  8
OBJECT
 62
     7
100
AcDbLine
 10
3.450970923997271
 20
6.553310502059135
 30
0.0
 11
3.478624459948493
 21
6.553310502059135
 31
0.0
  0
LINE
  5
433E
330
1E
100
AcDbEntity
  8
OBJECT
 62
     7
100
AcDbLine
 10
3.450970923997271
 20
6.231315497865582
 30
0.0
 11
3.478624459948493
 21
6.231315497865582
 31
0.0
  0
LINE
  5
433F
330
1E
100
AcDbEntity
  8
OBJECT
 62
     7
100
AcDbLine
 10
3.450970923997271
 20
6.233300050006574
 30
0.0
 11
3.450970923997271
 21
6.553310502059135
 31
0.0
  0
ARC
  5
4345
330
1E
100
AcDbEntity
  8
OBJECT
 62
     7
100
AcDbCircle
 10
3.529984125255815
 20
7.023449532943744
 30
0.0
 40
0.0316062444938779
100
AcDbArc
 50
90.0
 51
180.0
  0
LINE
  5
4346
330
1E
100
AcDbEntity
  8
OBJECT
 62
     7
100
AcDbLine
 10
3.759131025558024
 20
7.055059514876029
 30
0.0
 11
3.759131025558024
 21
7.134075126110727
 31
0.0
  0
ARC
  5
4347
330
1E
100
AcDbEntity
  8
OBJECT
 62
     7
100
AcDbCircle
 10
3.656411845073039
 20
6.995797806450012
 30
0.0
 40
0.0197539028086737
100
AcDbArc
 50
90.0
 51
180.0009003000001
  0
ARC
  5
4348
330
1E
100
AcDbEntity
  8
OBJECT
 62
     7
100
AcDbCircle
 10
3.656416668976106
 20
6.738997069937245
 30
0.0
 40
0.0197539028086737
100
AcDbArc
 50
180.0009003000001
 51
270.0
  0
ARC
  5
4349
330
1E
100
AcDbEntity
  8
OBJECT
 62
     7
100
AcDbCircle
 10
3.498378362757168
 20
6.679735361511228
 30
0.0
 40
0.0197539028086737
100
AcDbArc
 50
90.0
 51
180.0
  0
LINE
  5
434A
330
1E
100
AcDbEntity
  8
OBJECT
 62
     7
100
AcDbLine
 10
3.636662766167432
 20
6.738997069937245
 30
0.0
 11
3.636657942264364
 21
6.995797806450012
 31
0.0
  0
LINE
  5
434B
330
1E
100
AcDbEntity
  8
OBJECT
 62
     7
100
AcDbLine
 10
3.61690403945569
 20
6.699477506796952
 30
0.0
 11
3.616901779609213
 21
7.05504775735308
 31
0.0
  0
LINE
  5
434C
330
1E
100
AcDbEntity
  8
OBJECT
 62
     7
100
AcDbLine
 10
3.498378362757168
 20
6.699489264319902
 30
0.0
 11
3.498378362757168
 21
7.023449532943744
 31
0.0
  0
LINE
  5
4355
330
1E
100
AcDbEntity
  8
OBJECT
 62
     7
100
AcDbLine
 10
4.278657373570121
 20
6.699489264319902
 30
0.0
 11
4.269429077121532
 21
6.145718968728918
 31
0.0
  0
ARC
  5
4356
330
1E
100
AcDbEntity
  8
OBJECT
 62
     7
100
AcDbCircle
 10
4.229926095407247
 20
6.146380586195686
 30
0.0
 40
0.0395078056173474
100
AcDbArc
 50
270.0
 51
359.0451965
  0
LINE
  5
4357
330
1E
100
AcDbEntity
  8
CENTER
 62
     3
100
AcDbLine
 10
4.031733738591359
 20
6.120086591879027
 30
0.0
 11
4.031733738591359
 21
6.509580479471916
 31
0.0
  0
CIRCLE
  5
4358
330
1E
100
AcDbEntity
  8
OBJECT
 62
     7
100
AcDbCircle
 10
4.031733738591359
 20
6.304411808665076
 30
0.0
 40
0.0849417860280775
  0
CIRCLE
  5
435A
330
1E
100
AcDbEntity
  8
OBJECT
 62
     7
100
AcDbCircle
 10
4.031733738591359
 20
6.304413618122574
 30
0.0
 40
0.1027202906543226
  0
CIRCLE
  5
435C
330
1E
100
AcDbEntity
  8
OBJECT
 62
     7
100
AcDbCircle
 10
4.031733738591359
 20
6.304411808665076
 30
0.0
 40
0.1027202906543226
  0
CIRCLE
  5
435D
330
1E
100
AcDbEntity
  8
OBJECT
 62
     7
100
AcDbCircle
 10
4.031733738591359
 20
6.304411808665076
 30
0.0
 40
0.1580312224693895
  0
LINE
  5
435E
330
1E
100
AcDbEntity
  8
CENTER
 62
     3
100
AcDbLine
 10
3.829218617930354
 20
6.304413618122574
 30
0.0
 11
4.232465054746562
 21
6.304413618122574
 31
0.0
  0
LINE
  5
4363
330
1E
100
AcDbEntity
  8
OBJECT
 62
     7
100
AcDbLine
 10
4.470271376540618
 20
7.055059514876029
 30
0.0
 11
4.470271376540618
 21
7.134075126110727
 31
0.0
  0
LINE
  5
4364
330
1E
100
AcDbEntity
  8
OBJECT
 62
     7
100
AcDbLine
 10
5.282156600241197
 20
6.699489264319902
 30
0.0
 11
5.272925893816468
 21
6.145656574051502
 31
0.0
  0
LINE
  5
4365
330
1E
100
AcDbEntity
  8
OBJECT
 62
     7
100
AcDbLine
 10
4.797537022262844
 20
6.145718968728918
 30
0.0
 11
4.788309030024358
 21
6.699489264319902
 31
0.0
  0
CIRCLE
  5
4366
330
1E
100
AcDbEntity
  8
OBJECT
 62
     7
100
AcDbCircle
 10
5.035232815132777
 20
6.304411808665076
 30
0.0
 40
0.1580312224693895
  0
LINE
  5
4367
330
1E
100
AcDbEntity
  8
CENTER
 62
     3
100
AcDbLine
 10
4.82821736539128
 20
6.304413618122574
 30
0.0
 11
5.253965649746092
 21
6.304413618122574
 31
0.0
  0
LINE
  5
436A
330
1E
100
AcDbEntity
  8
CENTER
 62
     3
100
AcDbLine
 10
5.035232815132777
 20
6.120086591879027
 30
0.0
 11
5.035232815132777
 21
6.509580479471919
 31
0.0
  0
ARC
  5
436B
330
1E
100
AcDbEntity
  8
OBJECT
 62
     7
100
AcDbCircle
 10
4.837040308187228
 20
6.146380586195686
 30
0.0
 40
0.0395078056173474
100
AcDbArc
 50
180.9548035
 51
270.0
  0
CIRCLE
  5
436D
330
1E
100
AcDbEntity
  8
OBJECT
 62
     7
100
AcDbCircle
 10
5.035232815132777
 20
6.304413618122574
 30
0.0
 40
0.1027202906543226
  0
CIRCLE
  5
436E
330
1E
100
AcDbEntity
  8
OBJECT
 62
     7
100
AcDbCircle
 10
5.035232815132777
 20
6.304411808665076
 30
0.0
 40
0.1027202906543226
  0
CIRCLE
  5
436F
330
1E
100
AcDbEntity
  8
OBJECT
 62
     7
100
AcDbCircle
 10
5.035232815132777
 20
6.304411808665076
 30
0.0
 40
0.0849417860280775
  0
ARC
  5
4370
330
1E
100
AcDbEntity
  8
OBJECT
 62
     7
100
AcDbCircle
 10
5.233425322078327
 20
6.146380586195686
 30
0.0
 40
0.0395078056173474
100
AcDbArc
 50
270.0
 51
359.0451049999999
  0
ARC
  5
4371
330
1E
100
AcDbEntity
  8
OBJECT
 62
     7
100
AcDbCircle
 10
5.536982128208997
 20
7.023449532943744
 30
0.0
 40
0.0316062444938779
100
AcDbArc
 50
0.0
 51
90.0
  0
LINE
  5
4372
330
1E
100
AcDbEntity
  8
OBJECT
 62
     7
100
AcDbLine
 10
5.568588491226289
 20
6.699489264319902
 30
0.0
 11
5.568588491226289
 21
7.023449532943744
 31
0.0
  0
ARC
  5
4373
330
1E
100
AcDbEntity
  8
OBJECT
 62
     7
100
AcDbCircle
 10
5.394755292236322
 20
6.995797806450012
 30
0.0
 40
0.0197539028086737
100
AcDbArc
 50
0.0008743000000737
 51
90.0
  0
ARC
  5
4374
330
1E
100
AcDbEntity
  8
OBJECT
 62
     7
100
AcDbCircle
 10
5.394760116139389
 20
6.738997069937245
 30
0.0
 40
0.0197539028086737
100
AcDbArc
 50
270.0
 51
0.0008743000000737
  0
LINE
  5
4375
330
1E
100
AcDbEntity
  8
OBJECT
 62
     7
100
AcDbLine
 10
5.414514018948068
 20
6.738997069937245
 30
0.0
 11
5.414509195045001
 21
6.995797806450012
 31
0.0
  0
LINE
  5
4376
330
1E
100
AcDbEntity
  8
OBJECT
 62
     7
100
AcDbLine
 10
5.450064774114929
 20
6.699489264319902
 30
0.0
 11
5.450064774114929
 21
7.055059514876029
 31
0.0
  0
ARC
  5
4382
330
1E
100
AcDbEntity
  8
OBJECT
 62
     7
100
AcDbCircle
 10
4.114701125984489
 20
7.228893918854073
 30
0.0
 40
0.3950780561734739
100
AcDbArc
 50
65.16542819999997
 51
114.8351974
  0
ARC
  5
4383
330
1E
100
AcDbEntity
  8
OBJECT
 62
     7
100
AcDbCircle
 10
4.114701125984489
 20
7.169632210428046
 30
0.0
 40
0.3950780561734739
100
AcDbArc
 50
65.16542819999997
 51
114.8351974
  0
LINE
  5
4384
330
1E
100
AcDbEntity
  8
OBJECT
 62
     7
100
AcDbLine
 10
3.948764091351748
 20
7.52817356253923
 30
0.0
 11
4.280633486843826
 21
7.52817356253923
 31
0.0
  0
LINE
  5
4385
330
1E
100
AcDbEntity
  8
OBJECT
 62
     7
100
AcDbLine
 10
3.857900539601391
 20
7.450137571049502
 30
0.0
 11
4.371501862497247
 21
7.450137571049502
 31
0.0
  0
LINE
  5
4386
330
1E
100
AcDbEntity
  8
OBJECT
 62
     7
100
AcDbLine
 10
3.948764091351748
 20
7.587435270965257
 30
0.0
 11
3.948764091351748
 21
7.509399279475525
 31
0.0
  0
ARC
  5
4387
330
1E
100
AcDbEntity
  8
OBJECT
 62
     7
100
AcDbCircle
 10
3.857900539601391
 20
7.430383668240827
 30
0.0
 40
0.0197539028086737
100
AcDbArc
 50
90.0
 51
180.0
  0
LINE
  5
4388
330
1E
100
AcDbEntity
  8
OBJECT
 62
     7
100
AcDbLine
 10
3.948764091351748
 20
7.52817356253923
 30
0.0
 11
3.948764091351748
 21
7.450137571049502
 31
0.0
  0
LINE
  5
4389
330
1E
100
AcDbEntity
  8
OBJECT
 62
     7
100
AcDbLine
 10
4.280633486843826
 20
7.587435270965257
 30
0.0
 11
4.280633486843826
 21
7.509399279475525
 31
0.0
  0
ARC
  5
438A
330
1E
100
AcDbEntity
  8
OBJECT
 62
     7
100
AcDbCircle
 10
4.371501862497247
 20
7.430383668240827
 30
0.0
 40
0.0197539028086737
100
AcDbArc
 50
0.0
 51
90.0
  0
LINE
  5
438B
330
1E
100
AcDbEntity
  8
OBJECT
 62
     7
100
AcDbLine
 10
4.280633486843826
 20
7.52817356253923
 30
0.0
 11
4.280633486843826
 21
7.450137571049502
 31
0.0
  0
LINE
  5
4394
330
1E
100
AcDbEntity
  8
OBJECT
 62
     7
100
AcDbLine
 10
10.02810259235478
 20
7.134075126110727
 30
0.0
 11
10.02810259235478
 21
7.430383668240827
 31
0.0
  0
LINE
  5
4395
330
1E
100
AcDbEntity
  8
OBJECT
 62
     7
100
AcDbLine
 10
9.474993313711919
 20
7.134075126110727
 30
0.0
 11
9.474993313711919
 21
7.430383668240827
 31
0.0
  0
LINE
  5
4396
330
1E
100
AcDbEntity
  8
CENTER
 62
     3
100
AcDbLine
 10
9.751547953033345
 20
7.688053698951366
 30
0.0
 11
9.751547953033345
 21
5.452639891589713
 31
0.0
  0
LINE
  5
439A
330
1E
100
AcDbEntity
  8
OBJECT
 62
     7
100
AcDbLine
 10
5.62784628047799
 20
5.51425750577563
 30
0.0
 11
5.62784628047799
 21
6.304413618122574
 31
0.0
  0
LINE
  5
439B
330
1E
100
AcDbEntity
  8
OBJECT
 62
     7
100
AcDbLine
 10
6.220463364738206
 20
5.692042631053684
 30
0.0
 11
6.220463364738206
 21
6.12662849284451
 31
0.0
  0
LINE
  5
439C
330
1E
100
AcDbEntity
  8
OBJECT
 62
     7
100
AcDbLine
 10
5.983416531034118
 20
6.26490581250523
 30
0.0
 11
5.983416531034118
 21
5.553765311392973
 31
0.0
  0
LINE
  5
439D
330
1E
100
AcDbEntity
  8
OBJECT
 62
     7
100
AcDbLine
 10
5.61599773944369
 20
5.61301013813365
 30
0.0
 11
5.61599773944369
 21
6.553310502059135
 31
0.0
  0
ARC
  5
439F
330
1E
100
AcDbEntity
  8
OBJECT
 62
     7
100
AcDbCircle
 10
5.943908725416779
 20
5.553765311392973
 30
0.0
 40
0.0395078056173474
100
AcDbArc
 50
270.0
 51
0.0
  0
LINE
  5
43A4
330
1E
100
AcDbEntity
  8
OBJECT
 62
     7
100
AcDbLine
 10
5.62784628047799
 20
5.51425750577563
 30
0.0
 11
5.943908725416779
 21
5.51425750577563
 31
0.0
  0
LINE
  5
43A9
330
1E
100
AcDbEntity
  8
OBJECT
 62
     7
100
AcDbLine
 10
5.983416531034118
 20
5.67228872824501
 30
0.0
 11
6.200709461929525
 21
5.67228872824501
 31
0.0
  0
LINE
  5
43AA
330
1E
100
AcDbEntity
  8
OBJECT
 62
     7
100
AcDbLine
 10
5.62784628047799
 20
5.624860192316912
 30
0.0
 11
5.616001654667225
 21
5.613014962036717
 31
0.0
  0
ARC
  5
43AB
330
1E
100
AcDbEntity
  8
OBJECT
 62
     7
100
AcDbCircle
 10
5.596247751858555
 20
5.613014962036717
 30
0.0
 40
0.0197539028086737
100
AcDbArc
 50
270.0
 51
0.0
  0
ARC
  5
43AC
330
1E
100
AcDbEntity
  8
OBJECT
 62
     7
100
AcDbCircle
 10
6.200709461929525
 20
5.692042631053684
 30
0.0
 40
0.0197539028086737
100
AcDbArc
 50
270.0
 51
0.0
  0
LINE
  5
43AF
330
1E
100
AcDbEntity
  8
OBJECT
 62
     7
100
AcDbLine
 10
5.58834239403496
 20
6.106872780578342
 30
0.0
 11
5.58834239403496
 21
6.679735361511228
 31
0.0
  0
LINE
  5
43B0
330
1E
100
AcDbEntity
  8
OBJECT
 62
     7
100
AcDbLine
 10
5.983416531034118
 20
6.146382395653184
 30
0.0
 11
6.200709461929525
 21
6.146382395653184
 31
0.0
  0
ARC
  5
43B1
330
1E
100
AcDbEntity
  8
OBJECT
 62
     7
100
AcDbCircle
 10
5.943908725416779
 20
6.26490581250523
 30
0.0
 40
0.0395078056173474
100
AcDbArc
 50
0.0
 51
90.0
  0
LINE
  5
43B2
330
1E
100
AcDbEntity
  8
OBJECT
 62
     7
100
AcDbLine
 10
5.62784628047799
 20
6.304413618122574
 30
0.0
 11
5.943908725416779
 21
6.304413618122574
 31
0.0
  0
LINE
  5
43B3
330
1E
100
AcDbEntity
  8
OBJECT
 62
     7
100
AcDbLine
 10
5.58834239403496
 20
6.553310502059135
 30
0.0
 11
5.61599773944369
 21
6.553310502059135
 31
0.0
  0
LINE
  5
43B4
330
1E
100
AcDbEntity
  8
OBJECT
 62
     7
100
AcDbLine
 10
5.58834239403496
 20
6.231315497865582
 30
0.0
 11
5.61599773944369
 21
6.231315497865582
 31
0.0
  0
LINE
  5
43B5
330
1E
100
AcDbEntity
  8
OBJECT
 62
     7
100
AcDbLine
 10
5.616001654667225
 20
6.205632046296932
 30
0.0
 11
5.62784628047799
 21
6.193789834413085
 31
0.0
  0
LINE
  5
43B6
330
1E
100
AcDbEntity
  8
OBJECT
 62
     7
100
AcDbLine
 10
5.616001654667225
 20
6.49008993372513
 30
0.0
 11
5.616001654667225
 21
6.205632046296932
 31
0.0
  0
ARC
  5
43B7
330
1E
100
AcDbEntity
  8
OBJECT
 62
     7
100
AcDbCircle
 10
6.200709461929525
 20
6.12662849284451
 30
0.0
 40
0.0197539028086737
100
AcDbArc
 50
0.0
 51
90.0
  0
LINE
  5
43BE
330
1E
100
AcDbEntity
  8
OBJECT
 62
     7
100
AcDbLine
 10
9.356469896859882
 20
6.106874590035836
 30
0.0
 11
9.356469896859882
 21
5.711796533862359
 31
0.0
  0
CIRCLE
  5
43BF
330
1E
100
AcDbEntity
  8
OBJECT
 62
     7
100
AcDbCircle
 10
9.751547953033345
 20
5.909323504166822
 30
0.0
 40
0.2370468337040843
  0
CIRCLE
  5
43C0
330
1E
100
AcDbEntity
  8
OBJECT
 62
     7
100
AcDbCircle
 10
9.751547953033345
 20
5.909323504166822
 30
0.0
 40
0.2963085421301054
  0
ARC
  5
43C2
330
1E
100
AcDbEntity
  8
OBJECT
 62
     7
100
AcDbCircle
 10
9.554008924946611
 20
5.711796533862359
 30
0.0
 40
0.1975390280867369
100
AcDbArc
 50
180.0
 51
270.0
  0
LINE
  5
43C3
330
1E
100
AcDbEntity
  8
OBJECT
 62
     7
100
AcDbLine
 10
9.554008924946611
 20
5.51425750577563
 30
0.0
 11
9.949086981120087
 21
5.51425750577563
 31
0.0
  0
CIRCLE
  5
43C8
330
1E
100
AcDbEntity
  8
OBJECT
 62
     7
100
AcDbCircle
 10
9.751547953033345
 20
5.909323504166822
 30
0.0
 40
0.1185234168520421
  0
LINE
  5
43C9
330
1E
100
AcDbEntity
  8
OBJECT
 62
     7
100
AcDbLine
 10
9.322888021087514
 20
6.680644143760725
 30
0.0
 11
9.322888021087514
 21
6.106872780578342
 31
0.0
  0
LINE
  5
43CA
330
1E
100
AcDbEntity
  8
OBJECT
 62
     7
100
AcDbLine
 10
9.554008924946611
 20
6.304413618122574
 30
0.0
 11
9.949086981120087
 21
6.304413618122574
 31
0.0
  0
LINE
  5
43CB
330
1E
100
AcDbEntity
  8
OBJECT
 62
     7
100
AcDbLine
 10
9.405854653881563
 20
6.56121194465919
 30
0.0
 11
10.09724125218514
 21
6.56121194465919
 31
0.0
  0
LINE
  5
43CC
330
1E
100
AcDbEntity
  8
OBJECT
 62
     7
100
AcDbLine
 10
9.593516730563958
 20
6.509843836533809
 30
0.0
 11
9.909579175502738
 21
6.509843836533809
 31
0.0
  0
LINE
  5
43CD
330
1E
100
AcDbEntity
  8
OBJECT
 62
     7
100
AcDbLine
 10
9.405854653881563
 20
6.553310502059135
 30
0.0
 11
9.534255022137937
 21
6.553310502059135
 31
0.0
  0
LINE
  5
43CE
330
1E
100
AcDbEntity
  8
OBJECT
 62
     7
100
AcDbLine
 10
9.534255022137937
 20
6.397246653736853
 30
0.0
 11
9.593516730563958
 21
6.397246653736853
 31
0.0
  0
LINE
  5
43CF
330
1E
100
AcDbEntity
  8
OBJECT
 62
     7
100
AcDbLine
 10
9.534255022137937
 20
6.377492750928179
 30
0.0
 11
9.593516730563958
 21
6.377492750928179
 31
0.0
  0
ARC
  5
43D0
330
1E
100
AcDbEntity
  8
OBJECT
 62
     7
100
AcDbCircle
 10
9.554008924946611
 20
6.106874590035836
 30
0.0
 40
0.1975390280867369
100
AcDbArc
 50
90.0
 51
180.0
  0
LINE
  5
43D1
330
1E
100
AcDbEntity
  8
OBJECT
 62
     7
100
AcDbLine
 10
9.322888021087514
 20
6.106872780578342
 30
0.0
 11
9.356469896859882
 21
6.106872780578342
 31
0.0
  0
LINE
  5
43D2
330
1E
100
AcDbEntity
  8
OBJECT
 62
     7
100
AcDbLine
 10
9.554008924946611
 20
6.450582128107786
 30
0.0
 11
9.554008924946611
 21
6.397246653736853
 31
0.0
  0
LINE
  5
43D3
330
1E
100
AcDbEntity
  8
OBJECT
 62
     7
100
AcDbLine
 10
9.593516730563958
 20
6.509843836533809
 30
0.0
 11
9.554008924946611
 21
6.450582128107786
 31
0.0
  0
LINE
  5
43D4
330
1E
100
AcDbEntity
  8
OBJECT
 62
     7
100
AcDbLine
 10
9.593516730563958
 20
6.397246653736853
 30
0.0
 11
9.593516730563958
 21
6.304413618122574
 31
0.0
  0
LINE
  5
43D5
330
1E
100
AcDbEntity
  8
OBJECT
 62
     7
100
AcDbLine
 10
9.405854653881563
 20
6.56121194465919
 30
0.0
 11
9.405854653881563
 21
6.237534405744691
 31
0.0
  0
LINE
  5
43D6
330
1E
100
AcDbEntity
  8
OBJECT
 62
     7
100
AcDbLine
 10
9.534255022137948
 20
6.553310502059135
 30
0.0
 11
9.534255022137948
 21
6.303422545064753
 31
0.0
  0
LINE
  5
43D7
330
1E
100
AcDbEntity
  8
OBJECT
 62
     7
100
AcDbLine
 10
9.968840883928763
 20
6.553310502059135
 30
0.0
 11
10.09724125218514
 21
6.553310502059135
 31
0.0
  0
LINE
  5
43D8
330
1E
100
AcDbEntity
  8
OBJECT
 62
     7
100
AcDbLine
 10
9.909579175502738
 20
6.397246653736853
 30
0.0
 11
9.968840883928763
 21
6.397246653736853
 31
0.0
  0
LINE
  5
43D9
330
1E
100
AcDbEntity
  8
OBJECT
 62
     7
100
AcDbLine
 10
9.909579175502738
 20
6.377492750928179
 30
0.0
 11
9.968840883928763
 21
6.377492750928179
 31
0.0
  0
LINE
  5
43DA
330
1E
100
AcDbEntity
  8
OBJECT
 62
     7
100
AcDbLine
 10
9.949086981120087
 20
6.450582128107786
 30
0.0
 11
9.949086981120087
 21
6.397246653736853
 31
0.0
  0
LINE
  5
43DB
330
1E
100
AcDbEntity
  8
OBJECT
 62
     7
100
AcDbLine
 10
9.909579175502738
 20
6.509843836533809
 30
0.0
 11
9.949086981120087
 21
6.450582128107786
 31
0.0
  0
LINE
  5
43DC
330
1E
100
AcDbEntity
  8
OBJECT
 62
     7
100
AcDbLine
 10
9.909579175502738
 20
6.397246653736853
 30
0.0
 11
9.909579175502738
 21
6.304413618122574
 31
0.0
  0
LINE
  5
43DD
330
1E
100
AcDbEntity
  8
OBJECT
 62
     7
100
AcDbLine
 10
9.668581320239312
 20
6.304413618122574
 30
0.0
 11
9.810805442025728
 21
6.304413618122574
 31
0.0
  0
LINE
  5
43DE
330
1E
100
AcDbEntity
  8
OBJECT
 62
     7
100
AcDbLine
 10
10.09724125218514
 20
6.56121194465919
 30
0.0
 11
10.09724125218514
 21
6.237534405744691
 31
0.0
  0
LINE
  5
43DF
330
1E
100
AcDbEntity
  8
OBJECT
 62
     7
100
AcDbLine
 10
9.968840883928763
 20
6.553310502059135
 30
0.0
 11
9.968840883928763
 21
6.303422545064753
 31
0.0
  0
ARC
  5
43E0
330
1E
100
AcDbEntity
  8
OBJECT
 62
     7
100
AcDbCircle
 10
9.36832175654985
 20
7.023449532943744
 30
0.0
 40
0.0316062444938779
100
AcDbArc
 50
90.0
 51
180.0
  0
LINE
  5
43E1
330
1E
100
AcDbEntity
  8
OBJECT
 62
     7
100
AcDbLine
 10
9.395977702477226
 20
7.055059514876029
 30
0.0
 11
9.395977702477226
 21
7.134075126110727
 31
0.0
  0
ARC
  5
43E2
330
1E
100
AcDbEntity
  8
OBJECT
 62
     7
100
AcDbCircle
 10
9.342641923896195
 20
6.680644143760725
 30
0.0
 40
0.0197539028086737
100
AcDbArc
 50
107.4576034999999
 51
180.0
  0
LINE
  5
43E3
330
1E
100
AcDbEntity
  8
OBJECT
 62
     7
100
AcDbLine
 10
9.336715994051203
 20
7.023449532943744
 30
0.0
 11
9.336715994051203
 21
6.699489264319902
 31
0.0
  0
ARC
  5
43F0
330
1E
100
AcDbEntity
  8
OBJECT
 62
     7
100
AcDbCircle
 10
9.751547953033345
 20
7.169632210428046
 30
0.0
 40
0.3950780561734739
100
AcDbArc
 50
65.16542819999997
 51
114.8351974
  0
LINE
  5
43F1
330
1E
100
AcDbEntity
  8
OBJECT
 62
     7
100
AcDbLine
 10
9.585611068530269
 20
7.52817356253923
 30
0.0
 11
9.917480614152017
 21
7.52817356253923
 31
0.0
  0
LINE
  5
43F2
330
1E
100
AcDbEntity
  8
OBJECT
 62
     7
100
AcDbLine
 10
9.494747216520593
 20
7.450137571049502
 30
0.0
 11
10.00834868954611
 21
7.450137571049502
 31
0.0
  0
LINE
  5
43F3
330
1E
100
AcDbEntity
  8
OBJECT
 62
     7
100
AcDbLine
 10
9.585611068530269
 20
7.52817356253923
 30
0.0
 11
9.585611068530269
 21
7.450137571049502
 31
0.0
  0
ARC
  5
43F4
330
1E
100
AcDbEntity
  8
OBJECT
 62
     7
100
AcDbCircle
 10
9.494747216520593
 20
7.430383668240827
 30
0.0
 40
0.0197539028086737
100
AcDbArc
 50
90.0
 51
180.0
  0
ARC
  5
43F6
330
1E
100
AcDbEntity
  8
OBJECT
 62
     7
100
AcDbCircle
 10
10.00834868954611
 20
7.430383668240827
 30
0.0
 40
0.0197539028086737
100
AcDbArc
 50
0.0
 51
90.0
  0
LINE
  5
43F7
330
1E
100
AcDbEntity
  8
OBJECT
 62
     7
100
AcDbLine
 10
9.917480614152017
 20
7.52817356253923
 30
0.0
 11
9.917480614152017
 21
7.450137571049502
 31
0.0
  0
LINE
  5
4400
330
1E
100
AcDbEntity
  8
OBJECT
 62
     7
100
AcDbLine
 10
10.14662600920682
 20
6.106874590035836
 30
0.0
 11
10.14662600920682
 21
5.711796533862359
 31
0.0
  0
LINE
  5
4405
330
1E
100
AcDbEntity
  8
OBJECT
 62
     7
100
AcDbLine
 10
10.18020728050976
 20
6.680644143760725
 30
0.0
 11
10.18020728050976
 21
6.106872780578342
 31
0.0
  0
LINE
  5
4406
330
1E
100
AcDbEntity
  8
OBJECT
 62
     7
100
AcDbLine
 10
10.14662600920682
 20
6.106872780578342
 30
0.0
 11
10.18020728050976
 21
6.106872780578342
 31
0.0
  0
ARC
  5
4407
330
1E
100
AcDbEntity
  8
OBJECT
 62
     7
100
AcDbCircle
 10
10.13477354504742
 20
7.023449532943744
 30
0.0
 40
0.0316062444938779
100
AcDbArc
 50
0.0
 51
90.0
  0
LINE
  5
4408
330
1E
100
AcDbEntity
  8
OBJECT
 62
     7
100
AcDbLine
 10
10.10711820358947
 20
7.055059514876029
 30
0.0
 11
10.10711820358947
 21
7.134075126110727
 31
0.0
  0
ARC
  5
4409
330
1E
100
AcDbEntity
  8
OBJECT
 62
     7
100
AcDbCircle
 10
10.16045337770108
 20
6.680644143760725
 30
0.0
 40
0.0197539028086737
100
AcDbArc
 50
0.0
 51
72.54221339999997
  0
LINE
  5
440A
330
1E
100
AcDbEntity
  8
OBJECT
 62
     7
100
AcDbLine
 10
10.1663799120155
 20
7.023449532943744
 30
0.0
 11
10.1663799120155
 21
6.699489264319902
 31
0.0
  0
LINE
  5
445A
330
1E
100
AcDbEntity
  8
DIM
 62
     1
100
AcDbLine
 10
5.616001654667229
 20
5.550514962036717
 30
0.0
 11
5.616001654667229
 21
4.77926028549739
 31
0.0
  0
LINE
  5
445B
330
1E
100
AcDbEntity
  8
DIM
 62
     1
100
AcDbLine
 10
3.450975597770669
 20
5.590022767654071
 30
0.0
 11
3.450975597770669
 21
4.77926028549739
 31
0.0
  0
LINE
  5
445C
330
1E
100
AcDbEntity
  8
DIM
 62
     1
100
AcDbLine
 10
5.466001654667229
 20
4.84176028549739
 30
0.0
 11
4.796828645175071
 21
4.84176028549739
 31
0.0
  0
LINE
  5
445D
330
1E
100
AcDbEntity
  8
DIM
 62
     1
100
AcDbLine
 10
3.600975597770669
 20
4.84176028549739
 30
0.0
 11
4.270148555256334
 21
4.84176028549739
 31
0.0
  0
SOLID
  5
445E
330
1E
100
AcDbEntity
  8
DIM
 62
     1
100
AcDbTrace
 10
5.466001654667229
 20
4.86676028549739
 30
0.0
 11
5.466001654667229
 21
4.816760285497389
 31
0.0
 12
5.616001654667229
 22
4.84176028549739
 32
0.0
 13
5.616001654667229
 23
4.84176028549739
 33
0.0
  0
SOLID
  5
445F
330
1E
100
AcDbEntity
  8
DIM
 62
     1
100
AcDbTrace
 10
3.600975597770669
 20
4.86676028549739
 30
0.0
 11
3.600975597770669
 21
4.816760285497389
 31
0.0
 12
3.450975597770669
 22
4.84176028549739
 32
0.0
 13
3.450975597770669
 23
4.84176028549739
 33
0.0
  0
MTEXT
  5
4460
330
1E
100
AcDbEntity
  8
DIM
 62
     7
100
AcDbMText
 10
4.533488626218948
 20
4.84176028549739
 30
0.0
 40
0.09
 41
0.0
 71
     5
 72
     1
  1
55\P[2.165]
 73
     1
 44
1.0
1001
ACAD
1000
MTEXTBEGIN
1070
    73
1070
     1
1070
    44
1040
1.0
1070
    74
1070
     0
1000
MTEXTEND
  0
LINE
  5
4461
330
1E
100
AcDbEntity
  8
DIM
 62
     1
100
AcDbLine
 10
4.031733738591359
 20
6.099684071914437
 30
0.0
 11
4.031733738591359
 21
5.202861224567879
 31
0.0
  0
LINE
  5
4462
330
1E
100
AcDbEntity
  8
DIM
 62
     1
100
AcDbLine
 10
5.035232815132777
 20
6.099684071914437
 30
0.0
 11
5.035232815132777
 21
5.202861224567879
 31
0.0
  0
LINE
  5
4463
330
1E
100
AcDbEntity
  8
DIM
 62
     1
100
AcDbLine
 10
3.881733738591359
 20
5.265361224567879
 30
0.0
 11
3.731733738591359
 21
5.265361224567879
 31
0.0
  0
LINE
  5
4464
330
1E
100
AcDbEntity
  8
DIM
 62
     1
100
AcDbLine
 10
5.185232815132778
 20
5.265361224567879
 30
0.0
 11
5.335232815132777
 21
5.265361224567879
 31
0.0
  0
SOLID
  5
4465
330
1E
100
AcDbEntity
  8
DIM
 62
     1
100
AcDbTrace
 10
3.881733738591359
 20
5.290361224567879
 30
0.0
 11
3.881733738591359
 21
5.240361224567879
 31
0.0
 12
4.031733738591359
 22
5.265361224567879
 32
0.0
 13
4.031733738591359
 23
5.265361224567879
 33
0.0
  0
SOLID
  5
4466
330
1E
100
AcDbEntity
  8
DIM
 62
     1
100
AcDbTrace
 10
5.185232815132778
 20
5.290361224567879
 30
0.0
 11
5.185232815132778
 21
5.240361224567879
 31
0.0
 12
5.035232815132777
 22
5.265361224567879
 32
0.0
 13
5.035232815132777
 23
5.265361224567879
 33
0.0
  0
MTEXT
  5
4467
330
1E
100
AcDbEntity
  8
DIM
 62
     7
100
AcDbMText
 10
4.533483276862068
 20
5.265361224567879
 30
0.0
 40
0.09
 41
0.0
 71
     5
 72
     1
  1
25.4%%P0.15\P[1.00±0.59]
 73
     1
 44
1.0
1001
ACAD
1000
MTEXTBEGIN
1070
    73
1070
     1
1070
    44
1040
1.0
1070
    74
1070
     0
1000
MTEXTEND
  0
LINE
  5
4468
330
1E
100
AcDbEntity
  8
DIM
 62
     1
100
AcDbLine
 10
5.616001654667225
 20
5.550514962036717
 30
0.0
 11
5.616001654667225
 21
4.77989809034798
 31
0.0
  0
LINE
  5
4469
330
1E
100
AcDbEntity
  8
DIM
 62
     1
100
AcDbLine
 10
6.220463364738206
 20
5.629542631053684
 30
0.0
 11
6.220463364738206
 21
4.77989809034798
 31
0.0
  0
MTEXT
  5
446E
330
1E
100
AcDbEntity
  8
DIM
 62
     7
100
AcDbMText
 10
5.953421068492574
 20
4.84239809034798
 30
0.0
 40
0.09
 41
0.0
 71
     5
 72
     1
  1
15\P[.59]
 73
     1
 44
1.0
1001
ACAD
1000
MTEXTBEGIN
1070
    73
1070
     1
1070
    44
1040
1.0
1070
    74
1070
     0
1000
MTEXTEND
  0
SOLID
  5
446F
330
1E
100
AcDbEntity
  8
DIM
 62
     1
100
AcDbTrace
 10
6.370463364738206
 20
4.867398090347981
 30
0.0
 11
6.370463364738206
 21
4.81739809034798
 31
0.0
 12
6.220463364738206
 22
4.84239809034798
 32
0.0
 13
6.220463364738206
 23
4.84239809034798
 33
0.0
  0
LINE
  5
4470
330
1E
100
AcDbEntity
  8
DIM
 62
     1
100
AcDbLine
 10
6.526413955120552
 20
4.84239809034798
 30
0.0
 11
6.370463364738206
 21
4.84239809034798
 31
0.0
  0
MTEXT
  5
4472
330
1E
100
AcDbEntity
  8
DIM
 62
     7
100
AcDbMText
 10
7.242747459822823
 20
5.176047139609458
 30
0.0
 40
0.09
 41
0.0
 71
     5
 72
     1
  1
TOW 4.3±0.1\P[.169±.039]\PMOUNTING HOLES
 73
     1
 44
1.0
1001
ACAD
1000
MTEXTBEGIN
1070
    73
1070
     1
1070
    44
1040
1.0
1070
    74
1070
     0
1000
MTEXTEND
  0
MTEXT
  5
4473
330
1E
100
AcDbEntity
  8
DIM
 62
     7
100
AcDbMText
 10
7.845792388712375
 20
5.252475413730227
 30
0.0
 40
0.09
 41
0.0
 71
     5
 72
     1
  1
DIA
 73
     1
 44
1.0
1001
ACAD
1000
MTEXTBEGIN
1070
    73
1070
     1
1070
    44
1040
1.0
1070
    74
1070
     0
1000
MTEXTEND
  0
LINE
  5
4474
330
1E
100
AcDbEntity
  8
DIM
 62
     1
100
AcDbLine
 10
5.599482128208997
 20
7.055059514876029
 30
0.0
 11
6.83628234645802
 21
7.055059514876028
 31
0.0
  0
LINE
  5
4475
330
1E
100
AcDbEntity
  8
DIM
 62
     1
100
AcDbLine
 10
5.316465649746092
 20
6.304413618122574
 30
0.0
 11
6.837387068189677
 21
6.304413618122573
 31
0.0
  0
LINE
  5
4476
330
1E
100
AcDbEntity
  8
DIM
 62
     1
100
AcDbLine
 10
6.774887068189677
 20
6.905059514876028
 30
0.0
 11
6.774887068189677
 21
6.839552968704326
 31
0.0
  0
LINE
  5
4477
330
1E
100
AcDbEntity
  8
DIM
 62
     1
100
AcDbLine
 10
6.774887068189677
 20
6.454413618122574
 30
0.0
 11
6.774887068189677
 21
6.544736566499301
 31
0.0
  0
SOLID
  5
4478
330
1E
100
AcDbEntity
  8
DIM
 62
     1
100
AcDbTrace
 10
6.749887068189677
 20
6.905059514876028
 30
0.0
 11
6.799887068189677
 21
6.905059514876028
 31
0.0
 12
6.774887068189677
 22
7.055059514876028
 32
0.0
 13
6.774887068189677
 23
7.055059514876028
 33
0.0
  0
SOLID
  5
4479
330
1E
100
AcDbEntity
  8
DIM
 62
     1
100
AcDbTrace
 10
6.749887068189677
 20
6.454413618122574
 30
0.0
 11
6.799887068189677
 21
6.454413618122574
 31
0.0
 12
6.774887068189677
 22
6.304413618122573
 32
0.0
 13
6.774887068189677
 23
6.304413618122573
 33
0.0
  0
MTEXT
  5
447A
330
1E
100
AcDbEntity
  8
DIM
 62
     7
100
AcDbMText
 10
6.774887068189675
 20
6.679736566499302
 30
0.0
 40
0.09
 41
0.0
 71
     5
 72
     1
  1
19\P[.748]
 73
     1
 44
1.0
1001
ACAD
1000
MTEXTBEGIN
1070
    73
1070
     1
1070
    44
1040
1.0
1070
    74
1070
     0
1000
MTEXTEND
  0
LINE
  5
447B
330
1E
100
AcDbEntity
  8
DIM
 62
     1
100
AcDbLine
 10
6.006408725416779
 20
6.304413618122573
 30
0.0
 11
6.503604565710588
 21
6.304413618122573
 31
0.0
  0
LINE
  5
447C
330
1E
100
AcDbEntity
  8
DIM
 62
     1
100
AcDbLine
 10
6.323337700075325
 20
5.909323504166822
 30
0.0
 11
6.837387068189676
 21
5.909323504166822
 31
0.0
  0
LINE
  5
447D
330
1E
100
AcDbEntity
  8
DIM
 62
     1
100
AcDbLine
 10
6.774887068189677
 20
6.454413618122574
 30
0.0
 11
6.774887068189677
 21
6.530314793682491
 31
0.0
  0
LINE
  5
447E
330
1E
100
AcDbEntity
  8
DIM
 62
     1
100
AcDbLine
 10
6.774887068189676
 20
5.759323504166822
 30
0.0
 11
6.774887068189676
 21
5.609323504166822
 31
0.0
  0
SOLID
  5
447F
330
1E
100
AcDbEntity
  8
DIM
 62
     1
100
AcDbTrace
 10
6.749887068189677
 20
6.454413618122574
 30
0.0
 11
6.799887068189677
 21
6.454413618122574
 31
0.0
 12
6.774887068189677
 22
6.304413618122573
 32
0.0
 13
6.774887068189677
 23
6.304413618122573
 33
0.0
  0
SOLID
  5
4480
330
1E
100
AcDbEntity
  8
DIM
 62
     1
100
AcDbTrace
 10
6.749887068189676
 20
5.759323504166822
 30
0.0
 11
6.799887068189677
 21
5.759323504166822
 31
0.0
 12
6.774887068189676
 22
5.909323504166822
 32
0.0
 13
6.774887068189676
 23
5.909323504166822
 33
0.0
  0
MTEXT
  5
4481
330
1E
100
AcDbEntity
  8
DIM
 62
     7
100
AcDbMText
 10
6.774887068189675
 20
6.1068685611447
 30
0.0
 40
0.09
 41
0.0
 71
     5
 72
     1
  1
10\P[.394]
 73
     1
 44
1.0
1001
ACAD
1000
MTEXTBEGIN
1070
    73
1070
     1
1070
    44
1040
1.0
1070
    74
1070
     0
1000
MTEXTEND
  0
LINE
  5
4482
330
1E
100
AcDbEntity
  8
DIM
 62
     1
100
AcDbLine
 10
3.478624459948493
 20
6.742235361511228
 30
0.0
 11
3.478624459948493
 21
8.497094180894094
 31
0.0
  0
LINE
  5
4483
330
1E
100
AcDbEntity
  8
DIM
 62
     1
100
AcDbLine
 10
5.58834239403496
 20
6.742235361511228
 30
0.0
 11
5.58834239403496
 21
8.497094180894094
 31
0.0
  0
LINE
  5
4484
330
1E
100
AcDbEntity
  8
DIM
 62
     1
100
AcDbLine
 10
3.628624459948493
 20
8.434594180894094
 30
0.0
 11
4.308483426991727
 21
8.434594180894094
 31
0.0
  0
LINE
  5
4485
330
1E
100
AcDbEntity
  8
DIM
 62
     1
100
AcDbLine
 10
5.438342394034959
 20
8.434594180894094
 30
0.0
 11
4.758483426991726
 21
8.434594180894094
 31
0.0
  0
SOLID
  5
4486
330
1E
100
AcDbEntity
  8
DIM
 62
     1
100
AcDbTrace
 10
3.628624459948493
 20
8.459594180894095
 30
0.0
 11
3.628624459948493
 21
8.409594180894094
 31
0.0
 12
3.478624459948493
 22
8.434594180894094
 32
0.0
 13
3.478624459948493
 23
8.434594180894094
 33
0.0
  0
SOLID
  5
4487
330
1E
100
AcDbEntity
  8
DIM
 62
     1
100
AcDbTrace
 10
5.438342394034959
 20
8.459594180894095
 30
0.0
 11
5.438342394034959
 21
8.409594180894094
 31
0.0
 12
5.58834239403496
 22
8.434594180894094
 32
0.0
 13
5.58834239403496
 23
8.434594180894094
 33
0.0
  0
MTEXT
  5
4488
330
1E
100
AcDbEntity
  8
DIM
 62
     7
100
AcDbMText
 10
4.533483426991726
 20
8.434594180894094
 30
0.0
 40
0.09
 41
0.0
 71
     5
 72
     1
  1
53.4\P[2.102]
 73
     1
 44
1.0
1001
ACAD
1000
MTEXTBEGIN
1070
    73
1070
     1
1070
    44
1040
1.0
1070
    74
1070
     0
1000
MTEXTEND
  0
LINE
  5
4489
330
1E
100
AcDbEntity
  8
DIM
 62
     1
100
AcDbLine
 10
4.114701125984489
 20
7.775542073892675
 30
0.0
 11
4.114701125984489
 21
8.084919471564809
 31
0.0
  0
LINE
  5
448A
330
1E
100
AcDbEntity
  8
DIM
 62
     1
100
AcDbLine
 10
5.035232815132777
 20
6.572080479471919
 30
0.0
 11
5.035232815132777
 21
8.084919471564809
 31
0.0
  0
LINE
  5
448B
330
1E
100
AcDbEntity
  8
DIM
 62
     1
100
AcDbLine
 10
4.26470112598449
 20
8.022419471564809
 30
0.0
 11
4.396493520936715
 21
8.022419471564809
 31
0.0
  0
SOLID
  5
448D
330
1E
100
AcDbEntity
  8
DIM
 62
     1
100
AcDbTrace
 10
4.26470112598449
 20
8.047419471564809
 30
0.0
 11
4.26470112598449
 21
7.997419471564809
 31
0.0
 12
4.114701125984489
 22
8.022419471564809
 32
0.0
 13
4.114701125984489
 23
8.022419471564809
 33
0.0
  0
SOLID
  5
448E
330
1E
100
AcDbEntity
  8
DIM
 62
     1
100
AcDbTrace
 10
4.885232815132777
 20
8.047419471564809
 30
0.0
 11
4.885232815132777
 21
7.997419471564809
 31
0.0
 12
5.035232815132777
 22
8.022419471564809
 32
0.0
 13
5.035232815132777
 23
8.022419471564809
 33
0.0
  0
MTEXT
  5
448F
330
1E
100
AcDbEntity
  8
DIM
 62
     7
100
AcDbMText
 10
4.598955848823122
 20
8.022419471564809
 30
0.0
 40
0.09
 41
0.0
 71
     5
 72
     1
  1
23.3\P[.917]
 73
     1
 44
1.0
1001
ACAD
1000
MTEXTBEGIN
1070
    73
1070
     1
1070
    44
1040
1.0
1070
    74
1070
     0
1000
MTEXTEND
  0
LINE
  5
4490
330
1E
100
AcDbEntity
  8
DIM
 62
     1
100
AcDbLine
 10
4.79981410110598
 20
8.022419471564809
 30
0.0
 11
4.885232815132777
 21
8.022419471564809
 31
0.0
  0
LINE
  5
4491
330
1E
100
AcDbEntity
  8
DIM
 62
     1
100
AcDbLine
 10
5.035232815132777
 20
6.572080479471919
 30
0.0
 11
5.035232815132777
 21
8.084919471564809
 31
0.0
  0
LINE
  5
4492
330
1E
100
AcDbEntity
  8
DIM
 62
     1
100
AcDbLine
 10
5.588342394034963
 20
6.742235361511228
 30
0.0
 11
5.588342394034963
 21
8.084919471564809
 31
0.0
  0
MTEXT
  5
4497
330
1E
100
AcDbEntity
  8
DIM
 62
     7
100
AcDbMText
 10
5.318130614632635
 20
8.022419471564809
 30
0.0
 40
0.09
 41
0.0
 71
     5
 72
     1
  1
14\P[.551]
 73
     1
 44
1.0
1001
ACAD
1000
MTEXTBEGIN
1070
    73
1070
     1
1070
    44
1040
1.0
1070
    74
1070
     0
1000
MTEXTEND
  0
LINE
  5
4498
330
1E
100
AcDbEntity
  8
DIM
 62
     1
100
AcDbLine
 10
5.870919405486723
 20
8.022419471564809
 30
0.0
 11
5.738342394034964
 21
8.022419471564809
 31
0.0
  0
SOLID
  5
4499
330
1E
100
AcDbEntity
  8
DIM
 62
     1
100
AcDbTrace
 10
5.738342394034964
 20
8.047419471564809
 30
0.0
 11
5.738342394034964
 21
7.997419471564809
 31
0.0
 12
5.588342394034963
 22
8.022419471564809
 32
0.0
 13
5.588342394034963
 23
8.022419471564809
 33
0.0
  0
LINE
  5
449A
330
1E
100
AcDbEntity
  8
DIM
 62
     1
100
AcDbLine
 10
3.766718617930354
 20
6.304413618122574
 30
0.0
 11
2.286353826564621
 21
6.304413618122575
 31
0.0
  0
LINE
  5
449B
330
1E
100
AcDbEntity
  8
DIM
 62
     1
100
AcDbLine
 10
4.052201125984489
 20
7.56471026660152
 30
0.0
 11
3.520457820803671
 21
7.564710266601521
 31
0.0
  0
LINE
  5
449C
330
1E
100
AcDbEntity
  8
DIM
 62
     1
100
AcDbLine
 10
2.348853826564621
 20
6.454413618122575
 30
0.0
 11
2.348853826564621
 21
6.725463117921966
 31
0.0
  0
LINE
  5
449D
330
1E
100
AcDbEntity
  8
DIM
 62
     1
100
AcDbLine
 10
2.348853826564621
 20
7.41471026660152
 30
0.0
 11
2.348853826564621
 21
7.13439839108584
 31
0.0
  0
SOLID
  5
449E
330
1E
100
AcDbEntity
  8
DIM
 62
     1
100
AcDbTrace
 10
2.32385382656462
 20
6.454413618122575
 30
0.0
 11
2.37385382656462
 21
6.454413618122575
 31
0.0
 12
2.348853826564621
 22
6.304413618122575
 32
0.0
 13
2.348853826564621
 23
6.304413618122575
 33
0.0
  0
SOLID
  5
449F
330
1E
100
AcDbEntity
  8
DIM
 62
     1
100
AcDbTrace
 10
2.323853826564621
 20
7.41471026660152
 30
0.0
 11
2.373853826564621
 21
7.41471026660152
 31
0.0
 12
2.348853826564621
 22
7.564710266601521
 32
0.0
 13
2.348853826564621
 23
7.564710266601521
 33
0.0
  0
MTEXT
  5
44A0
330
1E
100
AcDbEntity
  8
DIM
 62
     7
100
AcDbMText
 10
2.34885382656462
 20
6.934561942362048
 30
0.0
 40
0.09
 41
0.0
 71
     5
 72
     1
  1
32.4%%P.8mm\P[1.276±.031]
 73
     1
 44
1.0
1001
ACAD
1000
MTEXTBEGIN
1070
    73
1070
     1
1070
    44
1040
1.0
1070
    74
1070
     0
1000
MTEXTEND
  0
LINE
  5
44A1
330
1E
100
AcDbEntity
  8
DIM
 62
     1
100
AcDbLine
 10
3.766718617930354
 20
6.304413618122574
 30
0.0
 11
2.967082920761384
 21
6.304413618122574
 31
0.0
  0
LINE
  5
44A3
330
1E
100
AcDbEntity
  8
DIM
 62
     1
100
AcDbLine
 10
3.029582920761384
 20
6.454413618122575
 30
0.0
 11
3.029582920761384
 21
6.561088510521739
 31
0.0
  0
LINE
  5
44A4
330
1E
100
AcDbEntity
  8
DIM
 62
     1
100
AcDbLine
 10
3.029582920761384
 20
6.984075126110727
 30
0.0
 11
3.029582920761384
 21
6.891293797285993
 31
0.0
  0
SOLID
  5
44A5
330
1E
100
AcDbEntity
  8
DIM
 62
     1
100
AcDbTrace
 10
3.004582920761385
 20
6.454413618122575
 30
0.0
 11
3.054582920761384
 21
6.454413618122575
 31
0.0
 12
3.029582920761384
 22
6.304413618122574
 32
0.0
 13
3.029582920761384
 23
6.304413618122574
 33
0.0
  0
SOLID
  5
44A6
330
1E
100
AcDbEntity
  8
DIM
 62
     1
100
AcDbTrace
 10
3.004582920761385
 20
6.984075126110727
 30
0.0
 11
3.054582920761384
 21
6.984075126110727
 31
0.0
 12
3.029582920761385
 22
7.134075126110727
 32
0.0
 13
3.029582920761385
 23
7.134075126110727
 33
0.0
  0
MTEXT
  5
44A7
330
1E
100
AcDbEntity
  8
DIM
 62
     7
100
AcDbMText
 10
3.029582920761384
 20
6.719244372116651
 30
0.0
 40
0.09
 41
0.0
 71
     5
 72
     1
  1
21\P[.827]
 73
     1
 44
1.0
1001
ACAD
1000
MTEXTBEGIN
1070
    73
1070
     1
1070
    44
1040
1.0
1070
    74
1070
     0
1000
MTEXTEND
  0
LINE
  5
44A8
330
1E
100
AcDbEntity
  8
DIM
 62
     1
100
AcDbLine
 10
3.696631025558024
 20
7.134075126110727
 30
0.0
 11
3.52045782080367
 21
7.134075126110728
 31
0.0
  0
LINE
  5
44A9
330
1E
100
AcDbEntity
  8
DIM
 62
     1
100
AcDbLine
 10
3.795400539601391
 20
7.450137571049502
 30
0.0
 11
3.520457820803671
 21
7.450137571049501
 31
0.0
  0
LINE
  5
44AA
330
1E
100
AcDbEntity
  8
DIM
 62
     1
100
AcDbLine
 10
3.029582920761384
 20
6.984075126110727
 30
0.0
 11
3.029582920761384
 21
6.889649250915438
 31
0.0
  0
LINE
  5
44AB
330
1E
100
AcDbEntity
  8
DIM
 62
     1
100
AcDbLine
 10
3.029582920761384
 20
7.600137571049502
 30
0.0
 11
3.029582920761384
 21
7.750137571049502
 31
0.0
  0
SOLID
  5
44AC
330
1E
100
AcDbEntity
  8
DIM
 62
     1
100
AcDbTrace
 10
3.004582920761384
 20
6.984075126110727
 30
0.0
 11
3.054582920761384
 21
6.984075126110727
 31
0.0
 12
3.029582920761384
 22
7.134075126110727
 32
0.0
 13
3.029582920761384
 23
7.134075126110727
 33
0.0
  0
SOLID
  5
44AD
330
1E
100
AcDbEntity
  8
DIM
 62
     1
100
AcDbTrace
 10
3.004582920761385
 20
7.600137571049502
 30
0.0
 11
3.054582920761384
 21
7.600137571049502
 31
0.0
 12
3.029582920761384
 22
7.450137571049502
 32
0.0
 13
3.029582920761384
 23
7.450137571049502
 33
0.0
  0
MTEXT
  5
44AE
330
1E
100
AcDbEntity
  8
DIM
 62
     7
100
AcDbMText
 10
3.029582920761383
 20
7.292106348580116
 30
0.0
 40
0.09
 41
0.0
 71
     5
 72
     1
  1
8\P[.315]
 73
     1
 44
1.0
1001
ACAD
1000
MTEXTBEGIN
1070
    73
1070
     1
1070
    44
1040
1.0
1070
    74
1070
     0
1000
MTEXTEND
  0
LINE
  5
44B1
330
1E
100
AcDbEntity
  8
DIM
 62
     1
100
AcDbLine
 10
4.052201125984489
 20
7.623971975027547
 30
0.0
 11
3.52045782080367
 21
7.623971975027547
 31
0.0
  0
LINE
  5
44B2
330
1E
100
AcDbEntity
  8
DIM
 62
     1
100
AcDbLine
 10
2.352746095834994
 20
7.41471026660152
 30
0.0
 11
2.352746095834994
 21
7.264710266601521
 31
0.0
  0
LINE
  5
44B3
330
1E
100
AcDbEntity
  8
DIM
 62
     1
100
AcDbLine
 10
2.352746095834994
 20
7.773971975027548
 30
0.0
 11
2.352746095834994
 21
7.923971975027548
 31
0.0
  0
LINE
  5
44B4
330
1E
100
AcDbEntity
  8
DIM
 62
     1
100
AcDbLine
 10
2.202746095834994
 20
7.923971975027549
 30
0.0
 11
2.352746095834994
 21
7.923971975027548
 31
0.0
  0
SOLID
  5
44B5
330
1E
100
AcDbEntity
  8
DIM
 62
     1
100
AcDbTrace
 10
2.327746095834994
 20
7.41471026660152
 30
0.0
 11
2.377746095834994
 21
7.41471026660152
 31
0.0
 12
2.352746095834994
 22
7.564710266601521
 32
0.0
 13
2.352746095834994
 23
7.564710266601521
 33
0.0
  0
SOLID
  5
44B6
330
1E
100
AcDbEntity
  8
DIM
 62
     1
100
AcDbTrace
 10
2.327746095834994
 20
7.773971975027548
 30
0.0
 11
2.377746095834994
 21
7.773971975027548
 31
0.0
 12
2.352746095834994
 22
7.623971975027548
 32
0.0
 13
2.352746095834994
 23
7.623971975027548
 33
0.0
  0
MTEXT
  5
44B7
330
1E
100
AcDbEntity
  8
DIM
 62
     7
100
AcDbMText
 10
1.654409400851269
 20
7.923971975027548
 30
0.0
 40
0.09
 41
0.0
 71
     5
 72
     1
  1
1.5mm\P[.059]
 73
     1
 44
1.0
1001
ACAD
1000
MTEXTBEGIN
1070
    73
1070
     1
1070
    44
1040
1.0
1070
    74
1070
     0
1000
MTEXTEND
  0
MTEXT
  5
44B8
330
1E
100
AcDbEntity
  8
DIM
 62
     7
100
AcDbMText
 10
2.028235309311134
 20
7.935839855148728
 30
0.0
 40
0.09
 41
0.0
 71
     5
 72
     1
  1
MAX
 73
     1
 44
1.0
1001
ACAD
1000
MTEXTBEGIN
1070
    73
1070
     1
1070
    44
1040
1.0
1070
    74
1070
     0
1000
MTEXTEND
  0
LINE
  5
44B9
330
1E
100
AcDbEntity
  8
DIM
 62
     1
100
AcDbLine
 10
2.955408985093598
 20
7.56471026660152
 30
0.0
 11
2.290246095834994
 21
7.564710266601521
 31
0.0
  0
LINE
  5
44BA
330
1E
100
AcDbEntity
  8
DIM
 62
     1
100
AcDbLine
 10
2.950773127115986
 20
7.623971975027547
 30
0.0
 11
2.290246095834994
 21
7.623971975027548
 31
0.0
  0
LINE
  5
44BC
330
1E
100
AcDbEntity
  8
DIM
 62
     1
100
AcDbLine
 10
3.766718617930354
 20
6.304413618122574
 30
0.0
 11
2.965692839452387
 21
6.304413618122574
 31
0.0
  0
LINE
  5
44BD
330
1E
100
AcDbEntity
  8
DIM
 62
     1
100
AcDbLine
 10
3.416124459948493
 20
6.106872780578342
 30
0.0
 11
2.965692839452387
 21
6.106872780578342
 31
0.0
  0
LINE
  5
44BF
330
1E
100
AcDbEntity
  8
DIM
 62
     1
100
AcDbLine
 10
3.028192839452387
 20
5.956872780578342
 30
0.0
 11
3.028192839452387
 21
5.806872780578342
 31
0.0
  0
LINE
  5
44C0
330
1E
100
AcDbEntity
  8
DIM
 62
     1
100
AcDbLine
 10
3.028192839452387
 20
5.806872780578342
 30
0.0
 11
2.878192839452387
 21
5.806872780578342
 31
0.0
  0
SOLID
  5
44C2
330
1E
100
AcDbEntity
  8
DIM
 62
     1
100
AcDbTrace
 10
3.003192839452387
 20
5.956872780578342
 30
0.0
 11
3.053192839452387
 21
5.956872780578342
 31
0.0
 12
3.028192839452387
 22
6.106872780578342
 32
0.0
 13
3.028192839452387
 23
6.106872780578342
 33
0.0
  0
MTEXT
  5
44C3
330
1E
100
AcDbEntity
  8
DIM
 62
     7
100
AcDbMText
 10
2.758192839452386
 20
5.806872780578343
 30
0.0
 40
0.09
 41
0.0
 71
     5
 72
     1
  1
5\P[.197]
 73
     1
 44
1.0
1001
ACAD
1000
MTEXTBEGIN
1070
    73
1070
     1
1070
    44
1040
1.0
1070
    74
1070
     0
1000
MTEXTEND
  0
LINE
  5
44C4
330
1E
100
AcDbEntity
  8
DIM
 62
     1
100
AcDbLine
 10
3.766718617930354
 20
6.304413618122574
 30
0.0
 11
2.288856066532488
 21
6.304413618122574
 31
0.0
  0
LINE
  5
44C5
330
1E
100
AcDbEntity
  8
DIM
 62
     1
100
AcDbLine
 10
3.44773730619669
 20
5.593261059228043
 30
0.0
 11
2.288856066532488
 21
5.593261059228043
 31
0.0
  0
LINE
  5
44C6
330
1E
100
AcDbEntity
  8
DIM
 62
     1
100
AcDbLine
 10
2.351356066532488
 20
6.154413618122574
 30
0.0
 11
2.351356066532488
 21
6.093916239371846
 31
0.0
  0
SOLID
  5
44C9
330
1E
100
AcDbEntity
  8
DIM
 62
     1
100
AcDbTrace
 10
2.326356066532488
 20
6.154413618122574
 30
0.0
 11
2.376356066532488
 21
6.154413618122574
 31
0.0
 12
2.351356066532488
 22
6.304413618122574
 32
0.0
 13
2.351356066532488
 23
6.304413618122574
 33
0.0
  0
SOLID
  5
44CA
330
1E
100
AcDbEntity
  8
DIM
 62
     1
100
AcDbTrace
 10
2.326356066532488
 20
5.743261059228044
 30
0.0
 11
2.376356066532488
 21
5.743261059228044
 31
0.0
 12
2.351356066532488
 22
5.593261059228043
 32
0.0
 13
2.351356066532488
 23
5.593261059228043
 33
0.0
  0
MTEXT
  5
44CB
330
1E
100
AcDbEntity
  8
DIM
 62
     7
100
AcDbMText
 10
2.348317962912629
 20
5.957321642450464
 30
0.0
 40
0.09
 41
0.0
 71
     5
 72
     1
  1
18.3\P[.720]
 73
     1
 44
1.0
1001
ACAD
1000
MTEXTBEGIN
1070
    73
1070
     1
1070
    44
1040
1.0
1070
    74
1070
     0
1000
MTEXTEND
  0
LINE
  5
44CC
330
1E
100
AcDbEntity
  8
DIM
 62
     1
100
AcDbLine
 10
2.351356066532488
 20
5.797520967510127
 30
0.0
 11
2.351356066532488
 21
5.743261059228044
 31
0.0
  0
LINE
  5
44CD
330
1E
100
AcDbEntity
  8
DIM
 62
     1
100
AcDbLine
 10
3.766718617930354
 20
6.304413618122574
 30
0.0
 11
1.514433183021672
 21
6.304413618122575
 31
0.0
  0
LINE
  5
44CE
330
1E
100
AcDbEntity
  8
DIM
 62
     1
100
AcDbLine
 10
5.56534628047799
 20
5.51425750577563
 30
0.0
 11
5.123372492889608
 21
5.51425750577563
 31
0.0
  0
LINE
  5
44CF
330
1E
100
AcDbEntity
  8
DIM
 62
     1
100
AcDbLine
 10
1.576933183021673
 20
6.154413618122575
 30
0.0
 11
1.576933183021673
 21
6.044335561949103
 31
0.0
  0
LINE
  5
44D0
330
1E
100
AcDbEntity
  8
DIM
 62
     1
100
AcDbLine
 10
1.576933183021673
 20
5.664257505775632
 30
0.0
 11
1.576933183021673
 21
5.774335561949103
 31
0.0
  0
SOLID
  5
44D1
330
1E
100
AcDbEntity
  8
DIM
 62
     1
100
AcDbTrace
 10
1.551933183021673
 20
6.154413618122575
 30
0.0
 11
1.601933183021673
 21
6.154413618122575
 31
0.0
 12
1.576933183021673
 22
6.304413618122575
 32
0.0
 13
1.576933183021673
 23
6.304413618122575
 33
0.0
  0
SOLID
  5
44D2
330
1E
100
AcDbEntity
  8
DIM
 62
     1
100
AcDbTrace
 10
1.551933183021673
 20
5.664257505775632
 30
0.0
 11
1.601933183021673
 21
5.664257505775632
 31
0.0
 12
1.576933183021673
 22
5.514257505775631
 32
0.0
 13
1.576933183021673
 23
5.514257505775631
 33
0.0
  0
MTEXT
  5
44D3
330
1E
100
AcDbEntity
  8
DIM
 62
     7
100
AcDbMText
 10
1.572297325044061
 20
5.909335561949103
 30
0.0
 40
0.09
 41
0.0
 71
     5
 72
     1
  1
22\P[.866]
 73
     1
 44
1.0
1001
ACAD
1000
MTEXTBEGIN
1070
    73
1070
     1
1070
    44
1040
1.0
1070
    74
1070
     0
1000
MTEXTEND
  0
LINE
  5
44D4
330
1E
100
AcDbEntity
  8
DIM
 62
     1
100
AcDbLine
 10
3.969041256139142
 20
5.51425750577563
 30
0.0
 11
3.496182702292678
 21
5.51425750577563
 31
0.0
  0
LINE
  5
44D5
330
1E
100
AcDbEntity
  8
DIM
 62
     1
100
AcDbLine
 10
4.97502472556701
 20
5.51425750577563
 30
0.0
 11
4.084937965611949
 21
5.51425750577563
 31
0.0
  0
LINE
  5
44D6
330
1E
100
AcDbEntity
  8
DIM
 62
     1
100
AcDbLine
 10
3.403465334714432
 20
5.51425750577563
 30
0.0
 11
1.514433183021673
 21
5.514257505775631
 31
0.0
  0
MTEXT
  5
44D7
330
1E
100
AcDbEntity
  8
DIM
 62
     7
100
AcDbMText
 10
1.865979916049204
 20
5.98148347384799
 30
0.0
 40
0.09
 41
0.0
 71
     5
 72
     1
  1
MAX
 73
     1
 44
1.0
1001
ACAD
1000
MTEXTBEGIN
1070
    73
1070
     1
1070
    44
1040
1.0
1070
    74
1070
     0
1000
MTEXTEND
  0
LINE
  5
44D8
330
1E
100
AcDbEntity
  8
DIM
 62
     1
100
AcDbLine
 10
3.431997131928696
 20
7.623971975027547
 30
0.0
 11
3.099120946445069
 21
7.623971975027547
 31
0.0
  0
LINE
  5
44D9
330
1E
100
AcDbEntity
  8
DIM
 62
     1
100
AcDbLine
 10
3.431997131928696
 20
7.564710266601521
 30
0.0
 11
3.085213320505737
 21
7.564710266601521
 31
0.0
  0
LINE
  5
44DA
330
1E
100
AcDbEntity
  8
DIM
 62
     1
100
AcDbLine
 10
3.431997131928696
 20
7.4501375710495
 30
0.0
 11
2.967082920761384
 21
7.450137571049502
 31
0.0
  0
LINE
  5
44DB
330
1E
100
AcDbEntity
  8
DIM
 62
     1
100
AcDbLine
 10
3.431997131928696
 20
7.134075126110728
 30
0.0
 11
2.967082920761384
 21
7.134075126110727
 31
0.0
  0
SOLID
  5
44DE
330
1E
100
AcDbEntity
  8
DIM
100
AcDbTrace
 10
5.150721447007426
 20
6.072497977484952
 30
0.0
 11
5.083933375800484
 21
6.209115522274984
 31
0.0
 12
5.191419673901116
 22
6.101543705702882
 32
0.0
 13
5.191419673901116
 23
6.101543705702882
 33
0.0
1001
ACAD
1000
DSTYLE
1002
{
1070
   147
1040
0.09
1070
    77
1070
     0
1002
}
  0
LINE
  5
44E0
330
1E
100
AcDbEntity
  8
DIM
100
AcDbLine
 10
5.17107056045427
 20
6.087020841593917
 30
0.0
 11
5.608115388963518
 21
5.474643370458472
 31
0.0
1001
ACAD
1000
DSTYLE
1002
{
1070
   147
1040
0.09
1070
    77
1070
     0
1002
}
  0
LINE
  5
44E1
330
1E
100
AcDbEntity
  8
DIM
100
AcDbLine
 10
5.776985146332286
 20
5.238026830865774
 30
0.0
 11
6.168391301065362
 21
5.238026830865774
 31
0.0
1001
ACAD
1000
DSTYLE
1002
{
1070
   147
1040
0.09
1070
    77
1070
     0
1002
}
  0
LINE
  5
44E2
330
1E
100
AcDbEntity
  8
DIM
100
AcDbLine
 10
6.281072501643194
 20
5.238026830865774
 30
0.0
 11
6.799810759561779
 21
5.238026830865774
 31
0.0
1001
ACAD
1000
DSTYLE
1002
{
1070
   147
1040
0.09
1070
    77
1070
     0
1002
}
  0
LINE
  5
44E3
330
1E
100
AcDbEntity
  8
DIM
100
AcDbLine
 10
5.64641825617446
 20
5.420974246767245
 30
0.0
 11
5.776985146332286
 21
5.238026830865774
 31
0.0
1001
ACAD
1000
DSTYLE
1002
{
1070
   147
1040
0.09
1070
    77
1070
     0
1002
}
  0
LINE
  5
44E5
330
1E
100
AcDbEntity
  8
DIM
 62
     1
100
AcDbLine
 10
9.322888021087514
 20
6.044372780578342
 30
0.0
 11
9.322888021087514
 21
4.778829203281205
 31
0.0
  0
LINE
  5
44E6
330
1E
100
AcDbEntity
  8
DIM
 62
     1
100
AcDbLine
 10
10.18020728050976
 20
6.044372780578342
 30
0.0
 11
10.18020728050976
 21
5.551475036656551
 31
0.0
  0
LINE
  5
44E7
330
1E
100
AcDbEntity
  8
DIM
 62
     1
100
AcDbLine
 10
9.472888021087515
 20
4.841329203281205
 30
0.0
 11
9.564399463864411
 21
4.841329203281205
 31
0.0
  0
SOLID
  5
44E9
330
1E
100
AcDbEntity
  8
DIM
 62
     1
100
AcDbTrace
 10
9.472888021087515
 20
4.866329203281205
 30
0.0
 11
9.472888021087515
 21
4.816329203281204
 31
0.0
 12
9.322888021087514
 22
4.841329203281205
 32
0.0
 13
9.322888021087514
 23
4.841329203281205
 33
0.0
  0
SOLID
  5
44EA
330
1E
100
AcDbEntity
  8
DIM
 62
     1
100
AcDbTrace
 10
10.03020728050976
 20
4.866329203281205
 30
0.0
 11
10.03020728050976
 21
4.816329203281204
 31
0.0
 12
10.18020728050976
 22
4.841329203281205
 32
0.0
 13
10.18020728050976
 23
4.841329203281205
 33
0.0
  0
MTEXT
  5
44EB
330
1E
100
AcDbEntity
  8
DIM
 62
     7
100
AcDbMText
 10
9.770914680619299
 20
4.841329203281205
 30
0.0
 40
0.09
 41
0.0
 71
     5
 72
     1
  1
21.7\P[.854]
 73
     1
 44
1.0
1001
ACAD
1000
MTEXTBEGIN
1070
    73
1070
     1
1070
    44
1040
1.0
1070
    74
1070
     0
1000
MTEXTEND
  0
LINE
  5
44EC
330
1E
100
AcDbEntity
  8
DIM
 62
     1
100
AcDbLine
 10
9.356469896859874
 20
5.649296533862359
 30
0.0
 11
9.356469896859874
 21
5.148494155867098
 31
0.0
  0
LINE
  5
44ED
330
1E
100
AcDbEntity
  8
DIM
 62
     1
100
AcDbLine
 10
10.14662600920682
 20
5.649296533862359
 30
0.0
 11
10.14662600920682
 21
5.551475036656551
 31
0.0
  0
LINE
  5
44EE
330
1E
100
AcDbEntity
  8
DIM
 62
     1
100
AcDbLine
 10
9.506469896859874
 20
5.210994155867098
 30
0.0
 11
9.601547953033348
 21
5.210994155867098
 31
0.0
  0
LINE
  5
44EF
330
1E
100
AcDbEntity
  8
DIM
 62
     1
100
AcDbLine
 10
9.996626009206824
 20
5.210994155867098
 30
0.0
 11
9.901547953033349
 21
5.210994155867098
 31
0.0
  0
SOLID
  5
44F0
330
1E
100
AcDbEntity
  8
DIM
 62
     1
100
AcDbTrace
 10
9.506469896859874
 20
5.235994155867098
 30
0.0
 11
9.506469896859874
 21
5.185994155867097
 31
0.0
 12
9.356469896859874
 22
5.210994155867098
 32
0.0
 13
9.356469896859874
 23
5.210994155867098
 33
0.0
  0
SOLID
  5
44F1
330
1E
100
AcDbEntity
  8
DIM
 62
     1
100
AcDbTrace
 10
9.996626009206824
 20
5.235994155867098
 30
0.0
 11
9.996626009206824
 21
5.185994155867097
 31
0.0
 12
10.14662600920682
 22
5.210994155867098
 32
0.0
 13
10.14662600920682
 23
5.210994155867098
 33
0.0
  0
MTEXT
  5
44F2
330
1E
100
AcDbEntity
  8
DIM
 62
     7
100
AcDbMText
 10
9.751547953033348
 20
5.210994155867098
 30
0.0
 40
0.09
 41
0.0
 71
     5
 72
     1
  1
21\P[.827]
 73
     1
 44
1.0
1001
ACAD
1000
MTEXTBEGIN
1070
    73
1070
     1
1070
    44
1040
1.0
1070
    74
1070
     0
1000
MTEXTEND
  0
LINE
  5
44F3
330
1E
100
AcDbEntity
  8
DIM
 62
     1
100
AcDbLine
 10
9.963652564918945
 20
4.841329203281205
 30
0.0
 11
10.03020728050976
 21
4.841329203281205
 31
0.0
  0
LEADER
  5
44F4
330
1E
100
AcDbEntity
  8
DIM
100
AcDbLeader
  3
Standard
 76
     3
 10
10.07775957526023
 20
5.561203069221566
 30
0.0
 10
10.41371646883248
 20
5.210994155867098
 30
0.0
 10
10.55004678587423
 20
5.210994155867098
 30
0.0
1001
ACAD
1000
DSTYLE
1002
{
1070
   147
1040
0.09
1070
    77
1070
     0
1002
}
  0
MTEXT
  5
44F5
330
1E
100
AcDbEntity
  8
DIM
 62
     7
100
AcDbMText
 10
11.09337565857316
 20
5.128644555071758
 30
0.0
 40
0.09
 41
0.0
 71
     5
 72
     1
  1
SEAL RUBBER\P(NBR)
 73
     1
 44
1.0
1001
ACAD
1000
MTEXTBEGIN
1070
    73
1070
     1
1070
    44
1040
1.0
1070
    74
1070
     0
1000
MTEXTEND
  0
LINE
  5
44F6
330
1E
100
AcDbEntity
  8
DIM
 62
     1
100
AcDbLine
 10
10.14662600920682
 20
5.395826645109345
 30
0.0
 11
10.14662600920682
 21
5.148494155867098
 31
0.0
  0
LINE
  5
44F7
330
1E
100
AcDbEntity
  8
DIM
 62
     1
100
AcDbLine
 10
10.18020728050976
 20
5.371506563696811
 30
0.0
 11
10.18020728050976
 21
4.778829203281205
 31
0.0
  0
LINE
  5
44F8
330
1E
100
AcDbEntity
  8
DIM
 62
     1
100
AcDbLine
 10
9.474993313711919
 20
7.492883668240827
 30
0.0
 11
9.474993313711919
 21
8.082967914794338
 31
0.0
  0
LINE
  5
44F9
330
1E
100
AcDbEntity
  8
DIM
 62
     1
100
AcDbLine
 10
10.02810259235478
 20
7.492883668240827
 30
0.0
 11
10.02810259235478
 21
8.087831931076841
 31
0.0
  0
LINE
  5
44FA
330
1E
100
AcDbEntity
  8
DIM
 62
     1
100
AcDbLine
 10
9.62499331371192
 20
8.531997343609493
 30
0.0
 11
9.878102592354784
 21
8.531997343609493
 31
0.0
  0
LINE
  5
44FB
330
1E
100
AcDbEntity
  8
DIM
 62
     1
100
AcDbLine
 10
9.35618880521028
 20
8.531997343609493
 30
0.0
 11
9.50618880521028
 21
8.531997343609493
 31
0.0
  0
SOLID
  5
44FC
330
1E
100
AcDbEntity
  8
DIM
 62
     1
100
AcDbTrace
 10
9.62499331371192
 20
8.556997343609493
 30
0.0
 11
9.62499331371192
 21
8.506997343609493
 31
0.0
 12
9.474993313711919
 22
8.531997343609493
 32
0.0
 13
9.474993313711919
 23
8.531997343609493
 33
0.0
  0
SOLID
  5
44FD
330
1E
100
AcDbEntity
  8
DIM
 62
     1
100
AcDbTrace
 10
9.878102592354784
 20
8.556997343609493
 30
0.0
 11
9.878102592354784
 21
8.506997343609493
 31
0.0
 12
10.02810259235478
 22
8.531997343609493
 32
0.0
 13
10.02810259235478
 23
8.531997343609493
 33
0.0
  0
MTEXT
  5
44FE
330
1E
100
AcDbEntity
  8
DIM
 62
     7
100
AcDbMText
 10
8.877158355249118
 20
8.531997343609493
 30
0.0
 40
0.09
 41
0.0
 71
     5
 72
     1
  1
14\P[.551]
 73
     1
 44
1.0
1001
ACAD
1000
MTEXTBEGIN
1070
    73
1070
     1
1070
    44
1040
1.0
1070
    74
1070
     0
1000
MTEXTEND
  0
MTEXT
  5
44FF
330
1E
100
AcDbEntity
  8
DIM
 62
     7
100
AcDbMText
 10
9.213964666187884
 20
8.533453259371899
 30
0.0
 40
0.09
 41
0.0
 71
     5
 72
     1
  1
DIA
 73
     1
 44
1.0
1001
ACAD
1000
MTEXTBEGIN
1070
    73
1070
     1
1070
    44
1040
1.0
1070
    74
1070
     0
1000
MTEXTEND
  0
LINE
  5
4500
330
1E
100
AcDbEntity
  8
DIM
 62
     1
100
AcDbLine
 10
9.585611068530269
 20
7.59067356253923
 30
0.0
 11
9.585611068530269
 21
8.218428107234732
 31
0.0
  0
LINE
  5
4501
330
1E
100
AcDbEntity
  8
DIM
 62
     1
100
AcDbLine
 10
9.917480614152017
 20
7.59067356253923
 30
0.0
 11
9.917480614152017
 21
8.218428107234732
 31
0.0
  0
LINE
  5
4502
330
1E
100
AcDbEntity
  8
DIM
 62
     1
100
AcDbLine
 10
9.435611068530269
 20
8.155928107234732
 30
0.0
 11
9.285611068530268
 21
8.155928107234732
 31
0.0
  0
LINE
  5
4503
330
1E
100
AcDbEntity
  8
DIM
 62
     1
100
AcDbLine
 10
10.06748061415202
 20
8.155928107234732
 30
0.0
 11
10.21748061415202
 21
8.155928107234732
 31
0.0
  0
SOLID
  5
4504
330
1E
100
AcDbEntity
  8
DIM
 62
     1
100
AcDbTrace
 10
9.435611068530269
 20
8.180928107234732
 30
0.0
 11
9.435611068530269
 21
8.130928107234732
 31
0.0
 12
9.585611068530269
 22
8.155928107234732
 32
0.0
 13
9.585611068530269
 23
8.155928107234732
 33
0.0
  0
SOLID
  5
4505
330
1E
100
AcDbEntity
  8
DIM
 62
     1
100
AcDbTrace
 10
10.06748061415202
 20
8.180928107234732
 30
0.0
 11
10.06748061415202
 21
8.130928107234732
 31
0.0
 12
9.917480614152017
 22
8.155928107234732
 32
0.0
 13
9.917480614152017
 23
8.155928107234732
 33
0.0
  0
MTEXT
  5
4506
330
1E
100
AcDbEntity
  8
DIM
 62
     7
100
AcDbMText
 10
8.839419662223201
 20
8.087831931076838
 30
0.0
 40
0.09
 41
0.0
 71
     5
 72
     1
  1
7.8\P[.307]
 73
     1
 44
1.0
1001
ACAD
1000
MTEXTBEGIN
1070
    73
1070
     1
1070
    44
1040
1.0
1070
    74
1070
     0
1000
MTEXTEND
  0
MTEXT
  5
4507
330
1E
100
AcDbEntity
  8
DIM
 62
     7
100
AcDbMText
 10
9.106847951364734
 20
8.158924316402096
 30
0.0
 40
0.09
 41
0.0
 71
     5
 72
     1
  1
DIA
 73
     1
 44
1.0
1001
ACAD
1000
MTEXTBEGIN
1070
    73
1070
     1
1070
    44
1040
1.0
1070
    74
1070
     0
1000
MTEXTEND
  0
LINE
  5
4508
330
1E
100
AcDbEntity
  8
DIM
 62
     1
100
AcDbLine
 10
9.474993313711919
 20
8.248344338906555
 30
0.0
 11
9.474993313711919
 21
8.594497343609493
 31
0.0
  0
LINE
  5
4509
330
1E
100
AcDbEntity
  8
DIM
 62
     1
100
AcDbLine
 10
10.02810259235478
 20
8.243480322624051
 30
0.0
 11
10.02810259235478
 21
8.594497343609493
 31
0.0
  0
SOLID
  5
450C
330
1E
100
AcDbEntity
  8
DIM
100
AcDbTrace
 10
9.986840089338198
 20
7.664350298707016
 30
0.0
 11
9.878484094502745
 21
7.557654570661235
 31
0.0
 12
9.946378988629541
 22
7.693725446867391
 32
0.0
 13
9.946378988629541
 23
7.693725446867391
 33
0.0
1001
ACAD
1000
DSTYLE
1002
{
1070
   147
1040
0.09
1070
    77
1070
     0
1002
}
  0
LINE
  5
450E
330
1E
100
AcDbEntity
  8
DIM
100
AcDbLine
 10
9.751547953033345
 20
7.382813716224636
 30
0.0
 11
10.19983418696569
 21
8.000279689788925
 31
0.0
1001
ACAD
1000
DSTYLE
1002
{
1070
   147
1040
0.09
1070
    77
1070
     0
1002
}
  0
LINE
  5
450F
330
1E
100
AcDbEntity
  8
DIM
100
AcDbLine
 10
10.19983418696569
 20
8.000279689788925
 30
0.0
 11
10.37024710927112
 21
8.000279689788925
 31
0.0
1001
ACAD
1000
DSTYLE
1002
{
1070
   147
1040
0.09
1070
    77
1070
     0
1002
}
  0
MTEXT
  5
4510
330
1E
100
AcDbEntity
  8
DIM
 62
     7
100
AcDbMText
 10
10.56302458541884
 20
7.937047555812139
 30
0.0
 40
0.09
 41
0.0
 71
     5
 72
     1
  1
R10\P[.394]
 73
     1
 44
1.0
1001
ACAD
1000
MTEXTBEGIN
1070
    73
1070
     1
1070
    44
1040
1.0
1070
    74
1070
     0
1000
MTEXTEND
  0
LEADER
  5
4513
330
1E
100
AcDbEntity
  8
DIM
100
AcDbLeader
  3
Standard
 76
     3
 10
9.858072017618155
 20
5.846188660548218
 30
0.0
 10
10.42068887412016
 20
5.572495972964034
 30
0.0
 10
10.55278154683174
 20
5.572495972964034
 30
0.0
1001
ACAD
1000
DSTYLE
1002
{
1070
   147
1040
0.09
1070
    77
1070
     0
1002
}
  0
MTEXT
  5
4514
330
1E
100
AcDbEntity
  8
DIM
 62
     7
100
AcDbMText
 10
11.16186814590389
 20
5.578282471521003
 30
0.0
 40
0.09
 41
0.0
 71
     5
 72
     1
  1
INTERNAL \PCABLE OPENING 
 73
     1
 44
1.0
1001
ACAD
1000
MTEXTBEGIN
1070
    73
1070
     1
1070
    44
1040
1.0
1070
    74
1070
     0
1000
MTEXTEND
  0
MTEXT
  5
4515
330
1E
100
AcDbEntity
  8
DIM
 62
     7
100
AcDbMText
 10
12.03626159670349
 20
5.58406332418292
 30
0.0
 40
0.09
 41
0.0
 71
     5
 72
     1
  1
11\P[.433]
 73
     1
 44
1.0
1001
ACAD
1000
MTEXTBEGIN
1070
    73
1070
     1
1070
    44
1040
1.0
1070
    74
1070
     0
1000
MTEXTEND
  0
MTEXT
  5
4516
330
1E
100
AcDbEntity
  8
DIM
 62
     7
100
AcDbMText
 10
12.42897913551925
 20
5.599461104410902
 30
0.0
 40
0.09
 41
0.0
 71
     5
 72
     1
  1
DIA
 73
     1
 44
1.0
1001
ACAD
1000
MTEXTBEGIN
1070
    73
1070
     1
1070
    44
1040
1.0
1070
    74
1070
     0
1000
MTEXTEND
  0
LINE
  5
4523
330
1E
100
AcDbEntity
  8
CENTER
 62
     3
100
AcDbLine
 10
9.190367233653644
 20
6.301299787587671
 30
0.0
 11
10.32628355952276
 21
6.301299787587671
 31
0.0
  0
ENDSEC
  0
SECTION
  2
OBJECTS
  0
DICTIONARY
  5
C
330
0
100
AcDbDictionary
281
     1
  3
ACAD_COLOR
350
4527
  3
ACAD_GROUP
350
D
  3
ACAD_LAYOUT
350
19
  3
ACAD_MATERIAL
350
4526
  3
ACAD_MLINESTYLE
350
16
  3
ACAD_PLOTSETTINGS
350
18
  3
ACAD_PLOTSTYLENAME
350
E
  3
ACAD_TABLESTYLE
350
4528
  3
AcadDim
350
44BB
  3
ACDBHEADERROUNDTRIPXREC
350
45E4
  3
AcDbVariableDictionary
350
3CD
  3
AcmDictionary
350
4587
  3
AMG
350
452F
  3
AMGSNAPSETTINGS
350
45DA
  3
ASE_INDEX_DICTIONARY
350
3E2
  0
DICTIONARY
  5
4527
102
{ACAD_REACTORS
330
C
102
}
330
C
100
AcDbDictionary
281
     1
  0
DICTIONARY
  5
D
102
{ACAD_REACTORS
330
C
102
}
330
C
100
AcDbDictionary
281
     1
  0
DICTIONARY
  5
19
102
{ACAD_REACTORS
330
C
102
}
330
C
100
AcDbDictionary
281
     1
  3
Layout1
350
1D
  3
Model
350
21
  0
DICTIONARY
  5
4526
102
{ACAD_REACTORS
330
C
102
}
330
C
100
AcDbDictionary
281
     1
  0
DICTIONARY
  5
16
102
{ACAD_REACTORS
330
C
102
}
330
C
100
AcDbDictionary
281
     1
  3
Standard
350
17
  0
DICTIONARY
  5
18
102
{ACAD_REACTORS
330
C
102
}
330
C
100
AcDbDictionary
281
     1
  0
ACDBDICTIONARYWDFLT
  5
E
102
{ACAD_REACTORS
330
C
102
}
330
C
100
AcDbDictionary
281
     1
  3
Normal
350
F
100
AcDbDictionaryWithDefault
340
F
  0
DICTIONARY
  5
4528
102
{ACAD_REACTORS
330
C
102
}
330
C
100
AcDbDictionary
281
     1
  3
Standard
350
4529
  0
XRECORD
  5
44BB
102
{ACAD_REACTORS
330
C
102
}
330
C
100
AcDbXrecord
280
     1
 90
   990106
  3

 60
     0
 61
     0
 62
     1
 63
     3
 64
     0
 65
     0
 66
     0
 67
     3
 68
     1
 69
     0
 70
     0
 71
     0
 72
     0
 40
0.0
170
     0
  0
DICTIONARY
  5
45E4
102
{ACAD_REACTORS
330
C
102
}
330
C
100
AcDbDictionary
281
     1
  0
DICTIONARY
  5
3CD
102
{ACAD_REACTORS
330
C
102
}
330
C
100
AcDbDictionary
281
     1
  3
CTABLESTYLE
350
45E1
  3
DIMASSOC
350
3CF
  3
HIDETEXT
350
3CE
  3
PROJECTNAME
350
45E2
  0
DICTIONARY
  5
4587
102
{ACAD_REACTORS
330
C
102
}
330
C
100
AcDbDictionary
281
     1
  3
AcmStdDictionary
350
4592
  3
AMDTSECTSYM_ARROWCOLOR
350
45B0
  0
DICTIONARY
  5
452F
102
{ACAD_REACTORS
330
C
102
}
330
C
100
AcDbDictionary
281
     1
  0
DICTIONARY
  5
45DA
102
{ACAD_REACTORS
330
C
102
}
330
C
100
AcDbDictionary
281
     1
  0
DICTIONARY
  5
3E2
102
{ACAD_REACTORS
330
C
102
}
330
C
100
AcDbDictionary
281
     1
  3
ASEBlockHierarchyIndexRecord
350
3E4
1001
DCO15
1040
1464945035.036
  0
LAYOUT
  5
1D
102
{ACAD_XDICTIONARY
360
45E5
102
}
102
{ACAD_REACTORS
330
19
102
}
330
19
100
AcDbPlotSettings
  1

  2
C:\Program Files\AutoCAD 2002\plotters\DWF ePlot (optimized for plotting).pc3
  4

  6

 40
0.0
 41
0.0
 42
0.0
 43
0.0
 44
0.0
 45
0.0
 46
0.0
 47
0.0
 48
0.0
 49
0.0
140
0.0
141
0.0
142
1.0
143
1.0
 70
   688
 72
     0
 73
     0
 74
     5
  7
standard.ctb
 75
    16
147
1.0
148
0.0
149
0.0
100
AcDbLayout
  1
Layout1
 70
     1
 71
     1
 10
0.0
 20
0.0
 11
12.0
 21
9.0
 12
0.0
 22
0.0
 32
0.0
 14
1.000000000000000E+20
 24
1.000000000000000E+20
 34
1.000000000000000E+20
 15
-1.000000000000000E+20
 25
-1.000000000000000E+20
 35
-1.000000000000000E+20
146
0.0
 13
0.0
 23
0.0
 33
0.0
 16
1.0
 26
0.0
 36
0.0
 17
0.0
 27
1.0
 37
0.0
 76
     0
330
1A
  0
LAYOUT
  5
21
102
{ACAD_XDICTIONARY
360
45E7
102
}
102
{ACAD_REACTORS
330
19
102
}
330
19
100
AcDbPlotSettings
  1

  2
\\USCHMMGMT015\USCHMPD0026
  4
Tabloid
  6

 40
5.027083396911621
 41
5.027085304260253
 42
5.027099609375
 43
5.027069091796875
 44
279.3999938964844
 45
431.7999877929687
 46
0.0
 47
0.0
 48
0.0
 49
0.0
140
0.0
141
0.0
142
1.0
143
0.9914069849915843
 70
 11952
 72
     0
 73
     1
 74
     1
  7
standard.ctb
 75
     0
147
1.008667494922368
148
-2.622321565056127
149
-7.644107715091882
100
AcDbLayout
  1
Model
 70
     1
 71
     0
 10
0.0
 20
0.0
 11
12.0
 21
9.0
 12
0.0
 22
0.0
 32
0.0
 14
0.0
 24
0.0
 34
0.0
 15
0.0
 25
0.0
 35
0.0
146
0.0
 13
0.0
 23
0.0
 33
0.0
 16
1.0
 26
0.0
 36
0.0
 17
0.0
 27
1.0
 37
0.0
 76
     0
330
1E
  0
MLINESTYLE
  5
17
102
{ACAD_REACTORS
330
16
102
}
330
16
100
AcDbMlineStyle
  2
STANDARD
 70
     0
  3

 62
   256
 51
90.0
 52
90.0
 71
     2
 49
0.5
 62
   256
  6
BYLAYER
 49
-0.5
 62
   256
  6
BYLAYER
  0
ACDBPLACEHOLDER
  5
F
102
{ACAD_REACTORS
330
E
102
}
330
E
  0
TABLESTYLE
  5
4529
102
{ACAD_REACTORS
330
4528
102
}
330
4528
100
AcDbTableStyle
  3
Standard
 70
     0
 71
     0
 40
0.06
 41
0.06
280
     0
281
     0
  7
STANDARD
140
0.18
170
     2
 62
     0
 63
     7
283
     0
274
    -2
284
     1
 64
     0
275
    -2
285
     1
 65
     0
276
    -2
286
     1
 66
     0
277
    -2
287
     1
 67
     0
278
    -2
288
     1
 68
     0
279
    -2
289
     1
 69
     0
  7
STANDARD
140
0.25
170
     5
 62
     0
 63
     7
283
     0
274
    -2
284
     1
 64
     0
275
    -2
285
     1
 65
     0
276
    -2
286
     1
 66
     0
277
    -2
287
     1
 67
     0
278
    -2
288
     1
 68
     0
279
    -2
289
     1
 69
     0
  7
STANDARD
140
0.18
170
     5
 62
     0
 63
     7
283
     0
274
    -2
284
     1
 64
     0
275
    -2
285
     1
 65
     0
276
    -2
286
     1
 66
     0
277
    -2
287
     1
 67
     0
278
    -2
288
     1
 68
     0
279
    -2
289
     1
 69
     0
  0
DICTIONARYVAR
  5
45E1
102
{ACAD_REACTORS
330
3CD
102
}
330
3CD
100
DictionaryVariables
280
     0
  1
STANDARD
  0
DICTIONARYVAR
  5
3CF
102
{ACAD_REACTORS
330
3CD
102
}
330
3CD
100
DictionaryVariables
280
     0
  1
0
  0
DICTIONARYVAR
  5
3CE
102
{ACAD_REACTORS
330
3CD
102
}
330
3CD
100
DictionaryVariables
280
     0
  1
1
  0
DICTIONARYVAR
  5
45E2
102
{ACAD_REACTORS
330
3CD
102
}
330
3CD
100
DictionaryVariables
280
     0
  1

  0
DICTIONARY
  5
4592
102
{ACAD_REACTORS
330
4587
102
}
330
4587
100
AcDbDictionary
281
     1
  0
XRECORD
  5
45B0
102
{ACAD_REACTORS
330
4587
102
}
330
4587
100
AcDbXrecord
280
     1
 90
-1023410169
  0
XRECORD
  5
3E4
102
{ACAD_REACTORS
330
3E2
102
}
330
3E2
100
AcDbXrecord
280
     1
330
0
330
0
  0
DICTIONARY
  5
45E5
330
1D
100
AcDbDictionary
280
     1
281
     1
  3
ACAD_XREC_ROUNDTRIP
360
45E6
  0
DICTIONARY
  5
45E7
330
21
100
AcDbDictionary
280
     1
281
     1
  3
ACAD_XREC_ROUNDTRIP
360
45E8
  0
XRECORD
  5
45E6
102
{ACAD_REACTORS
330
45E5
102
}
330
45E5
100
AcDbXrecord
280
     1
102
SHADEPLOT
 70
     0
102
SHADEPLOTRESLEVEL
 70
     2
102
SHADEPLOTCUSTOMDPI
 70
   300
  0
XRECORD
  5
45E8
102
{ACAD_REACTORS
330
45E7
102
}
330
45E7
100
AcDbXrecord
280
     1
102
SHADEPLOT
 70
     0
102
SHADEPLOTRESLEVEL
 70
     2
102
SHADEPLOTCUSTOMDPI
 70
   300
  0
ENDSEC
  0
EOF
