  0
SECTION
  2
HEADER
  9
$ACADVER
  1
AC1015
  9
$ACADMAINTVER
 70
    20
  9
$DWGCODEPAGE
  3
ANSI_1252
  9
$INSBASE
 10
0.0
 20
0.0
 30
0.0
  9
$EXTMIN
 10
0.1042494754821988
 20
0.3013358716206689
 30
0.0
  9
$EXTMAX
 10
16.5642494754822
 20
10.76133587162067
 30
0.0
  9
$LIMMIN
 10
0.0
 20
0.0
  9
$LIMMAX
 10
17.0
 20
11.0
  9
$ORTHOMODE
 70
     0
  9
$REGENMODE
 70
     1
  9
$FILLMODE
 70
     1
  9
$QTEXTMODE
 70
     0
  9
$MIRRTEXT
 70
     1
  9
$LTSCALE
 40
0.25
  9
$ATTMODE
 70
     1
  9
$TEXTSIZE
 40
0.09375
  9
$TRACEWID
 40
0.05
  9
$TEXTSTYLE
  7
ROMANS
  9
$CLAYER
  8
DIM
  9
$CELTYPE
  6
ByLayer
  9
$CECOLOR
 62
   256
  9
$CELTSCALE
 40
1.0
  9
$DISPSILH
 70
     0
  9
$DIMSCALE
 40
1.0
  9
$DIMASZ
 40
0.15
  9
$DIMEXO
 40
0.0625
  9
$DIMDLI
 40
0.38
  9
$DIMRND
 40
0.0
  9
$DIMDLE
 40
0.0
  9
$DIMEXE
 40
0.0625
  9
$DIMTP
 40
0.0
  9
$DIMTM
 40
0.0
  9
$DIMTXT
 40
0.09
  9
$DIMCEN
 40
0.09
  9
$DIMTSZ
 40
0.0
  9
$DIMTOL
 70
     0
  9
$DIMLIM
 70
     0
  9
$DIMTIH
 70
     1
  9
$DIMTOH
 70
     1
  9
$DIMSE1
 70
     0
  9
$DIMSE2
 70
     0
  9
$DIMTAD
 70
     0
  9
$DIMZIN
 70
     0
  9
$DIMBLK
  1

  9
$DIMASO
 70
     0
  9
$DIMSHO
 70
     1
  9
$DIMPOST
  1

  9
$DIMAPOST
  1

  9
$DIMALT
 70
     0
  9
$DIMALTD
 70
     2
  9
$DIMALTF
 40
25.4
  9
$DIMLFAC
 40
1.0
  9
$DIMTOFL
 70
     0
  9
$DIMTVP
 40
0.0
  9
$DIMTIX
 70
     0
  9
$DIMSOXD
 70
     0
  9
$DIMSAH
 70
     0
  9
$DIMBLK1
  1

  9
$DIMBLK2
  1

  9
$DIMSTYLE
  2
Standard
  9
$DIMCLRD
 70
     1
  9
$DIMCLRE
 70
     1
  9
$DIMCLRT
 70
     7
  9
$DIMTFAC
 40
1.0
  9
$DIMGAP
 40
0.09
  9
$DIMJUST
 70
     0
  9
$DIMSD1
 70
     0
  9
$DIMSD2
 70
     0
  9
$DIMTOLJ
 70
     1
  9
$DIMTZIN
 70
     0
  9
$DIMALTZ
 70
     0
  9
$DIMALTTZ
 70
     0
  9
$DIMUPT
 70
     0
  9
$DIMDEC
 70
     4
  9
$DIMTDEC
 70
     4
  9
$DIMALTU
 70
     2
  9
$DIMALTTD
 70
     2
  9
$DIMTXSTY
  7
STANDARD
  9
$DIMAUNIT
 70
     0
  9
$DIMADEC
 70
     0
  9
$DIMALTRND
 40
0.0
  9
$DIMAZIN
 70
     0
  9
$DIMDSEP
 70
    46
  9
$DIMATFIT
 70
     3
  9
$DIMFRAC
 70
     0
  9
$DIMLDRBLK
  1

  9
$DIMLUNIT
 70
     2
  9
$DIMLWD
 70
    -2
  9
$DIMLWE
 70
    -2
  9
$DIMTMOVE
 70
     0
  9
$LUNITS
 70
     2
  9
$LUPREC
 70
     4
  9
$SKETCHINC
 40
0.1
  9
$FILLETRAD
 40
0.0
  9
$AUNITS
 70
     0
  9
$AUPREC
 70
     0
  9
$MENU
  1
acad
  9
$ELEVATION
 40
0.0
  9
$PELEVATION
 40
0.0
  9
$THICKNESS
 40
0.0
  9
$LIMCHECK
 70
     0
  9
$CHAMFERA
 40
0.0
  9
$CHAMFERB
 40
0.0
  9
$CHAMFERC
 40
0.0
  9
$CHAMFERD
 40
0.0
  9
$SKPOLY
 70
     0
  9
$TDCREATE
 40
2449766.541135301
  9
$TDUCREATE
 40
2449766.749468635
  9
$TDUPDATE
 40
2455028.606530682
  9
$TDUUPDATE
 40
2455028.814864016
  9
$TDINDWG
 40
2.2070766088
  9
$TDUSRTIMER
 40
2.2070766088
  9
$USRTIMER
 70
     1
  9
$ANGBASE
 50
0.0
  9
$ANGDIR
 70
     0
  9
$PDMODE
 70
     0
  9
$PDSIZE
 40
0.0
  9
$PLINEWID
 40
0.0
  9
$SPLFRAME
 70
     0
  9
$SPLINETYPE
 70
     6
  9
$SPLINESEGS
 70
     8
  9
$HANDSEED
  5
4943
  9
$SURFTAB1
 70
     6
  9
$SURFTAB2
 70
     6
  9
$SURFTYPE
 70
     6
  9
$SURFU
 70
     6
  9
$SURFV
 70
     6
  9
$UCSBASE
  2

  9
$UCSNAME
  2

  9
$UCSORG
 10
0.0
 20
0.0
 30
0.0
  9
$UCSXDIR
 10
1.0
 20
0.0
 30
0.0
  9
$UCSYDIR
 10
0.0
 20
1.0
 30
0.0
  9
$UCSORTHOREF
  2

  9
$UCSORTHOVIEW
 70
     0
  9
$UCSORGTOP
 10
0.0
 20
0.0
 30
0.0
  9
$UCSORGBOTTOM
 10
0.0
 20
0.0
 30
0.0
  9
$UCSORGLEFT
 10
0.0
 20
0.0
 30
0.0
  9
$UCSORGRIGHT
 10
0.0
 20
0.0
 30
0.0
  9
$UCSORGFRONT
 10
0.0
 20
0.0
 30
0.0
  9
$UCSORGBACK
 10
0.0
 20
0.0
 30
0.0
  9
$PUCSBASE
  2

  9
$PUCSNAME
  2

  9
$PUCSORG
 10
0.0
 20
0.0
 30
0.0
  9
$PUCSXDIR
 10
1.0
 20
0.0
 30
0.0
  9
$PUCSYDIR
 10
0.0
 20
1.0
 30
0.0
  9
$PUCSORTHOREF
  2

  9
$PUCSORTHOVIEW
 70
     0
  9
$PUCSORGTOP
 10
0.0
 20
0.0
 30
0.0
  9
$PUCSORGBOTTOM
 10
0.0
 20
0.0
 30
0.0
  9
$PUCSORGLEFT
 10
0.0
 20
0.0
 30
0.0
  9
$PUCSORGRIGHT
 10
0.0
 20
0.0
 30
0.0
  9
$PUCSORGFRONT
 10
0.0
 20
0.0
 30
0.0
  9
$PUCSORGBACK
 10
0.0
 20
0.0
 30
0.0
  9
$USERI1
 70
     0
  9
$USERI2
 70
     0
  9
$USERI3
 70
     0
  9
$USERI4
 70
     0
  9
$USERI5
 70
     0
  9
$USERR1
 40
0.0
  9
$USERR2
 40
0.0
  9
$USERR3
 40
0.0
  9
$USERR4
 40
0.0
  9
$USERR5
 40
0.0
  9
$WORLDVIEW
 70
     1
  9
$SHADEDGE
 70
     3
  9
$SHADEDIF
 70
    70
  9
$TILEMODE
 70
     1
  9
$MAXACTVP
 70
    16
  9
$PINSBASE
 10
0.0
 20
0.0
 30
0.0
  9
$PLIMCHECK
 70
     0
  9
$PEXTMIN
 10
1.000000000000000E+20
 20
1.000000000000000E+20
 30
1.000000000000000E+20
  9
$PEXTMAX
 10
-1.000000000000000E+20
 20
-1.000000000000000E+20
 30
-1.000000000000000E+20
  9
$PLIMMIN
 10
0.0
 20
0.0
  9
$PLIMMAX
 10
12.0
 20
9.0
  9
$UNITMODE
 70
     0
  9
$VISRETAIN
 70
     0
  9
$PLINEGEN
 70
     0
  9
$PSLTSCALE
 70
     1
  9
$TREEDEPTH
 70
  3020
  9
$CMLSTYLE
  2
Standard
  9
$CMLJUST
 70
     0
  9
$CMLSCALE
 40
1.0
  9
$PROXYGRAPHICS
 70
     1
  9
$MEASUREMENT
 70
     0
  9
$CELWEIGHT
370
    -1
  9
$ENDCAPS
280
     0
  9
$JOINSTYLE
280
     0
  9
$LWDISPLAY
290
     0
  9
$INSUNITS
 70
     0
  9
$HYPERLINKBASE
  1

  9
$STYLESHEET
  1
standard.ctb
  9
$XEDIT
290
     1
  9
$CEPSNTYPE
380
     0
  9
$PSTYLEMODE
290
     1
  9
$FINGERPRINTGUID
  2
{15A91E55-5219-469D-BD62-5FAE47C117F2}
  9
$VERSIONGUID
  2
{F53405FE-9542-471B-938F-87FA3759A812}
  9
$EXTNAMES
290
     1
  9
$PSVPSCALE
 40
0.0
  9
$OLESTARTUP
290
     0
  0
ENDSEC
  0
SECTION
  2
CLASSES
  0
CLASS
  1
ACDBDICTIONARYWDFLT
  2
AcDbDictionaryWithDefault
  3
ObjectDBX Classes
 90
        0
280
     0
281
     0
  0
CLASS
  1
ACDBPLACEHOLDER
  2
AcDbPlaceHolder
  3
ObjectDBX Classes
 90
        0
280
     0
281
     0
  0
CLASS
  1
LAYOUT
  2
AcDbLayout
  3
ObjectDBX Classes
 90
        0
280
     0
281
     0
  0
CLASS
  1
DICTIONARYVAR
  2
AcDbDictionaryVar
  3
ObjectDBX Classes
 90
        0
280
     0
281
     0
  0
CLASS
  1
DIMASSOC
  2
AcDbDimAssoc
  3
"AcDbDimAssoc|Product Desc:     AcDim ARX App For Dimension|Company:          Autodesk, Inc.|WEB Address:      www.autodesk.com"
 90
    32768
280
     0
281
     0
  0
CLASS
  1
TABLESTYLE
  2
AcDbTableStyle
  3
ObjectDBX Classes
 90
     2047
280
     0
281
     0
  0
CLASS
  1
ACME_DOCUMENT
  2
AcMeDbDoc
  3
AcMeServices
 90
        0
280
     0
281
     0
  0
CLASS
  1
AMGSETTINGSOBJ
  2
AmgSettingsObj
  3
"AcadM|Product Description: AutoCAD Mechanical 2000|Company: Autodesk"
 90
        0
280
     0
281
     0
  0
CLASS
  1
ACMESCOPE
  2
AcMeScope
  3
AcMeServices
 90
        0
280
     0
281
     0
  0
CLASS
  1
ACMECOMMANDHISTORY
  2
AcMeCommandHistory
  3
AcMeServices
 90
        0
280
     0
281
     0
  0
CLASS
  1
ACIMSYSVARMAN
  2
AcImSysVarManager
  3
AcMeServices
 90
        0
280
     0
281
     0
  0
CLASS
  1
ACIMINTSYSVAR
  2
AcImIntSysVar
  3
AcMeServices
 90
        0
280
     0
281
     0
  0
CLASS
  1
ACMEDRAWINGMAN
  2
AcMeDrawingMan
  3
AcMeServices
 90
        0
280
     0
281
     0
  0
CLASS
  1
ACMEVIEW
  2
AcMeView
  3
AcMeServices
 90
        0
280
     0
281
     0
  0
CLASS
  1
ACDBENTITYCACHE
  2
AcMeEntityCache
  3
AcMeServices
 90
        0
280
     0
281
     0
  0
CLASS
  1
GSMANAGER
  2
AcMeGSManager
  3
AcMeServices
 90
        0
280
     0
281
     0
  0
CLASS
  1
AMDTINTERNALREACTOR
  2
AmdtInternalReactor
  3
AcMeServices
 90
        0
280
     0
281
     0
  0
CLASS
  1
ACMESTATEMGR
  2
AcMeStateMgr
  3
AcMeServices
 90
        0
280
     0
281
     0
  0
CLASS
  1
ACGREFMASTER
  2
AcGrefMaster
  3
AcAttribServices
 90
        0
280
     0
281
     0
  0
CLASS
  1
AM_DRAWING_MGR
  2
AcDmDwgMgr
  3
AcMechDwgViewMgmt
 90
        0
280
     0
281
     0
  0
CLASS
  1
AM_DWG_DOCUMENT
  2
AcDmDwgDocument
  3
AcMechDwgViewMgmt
 90
        0
280
     0
281
     0
  0
CLASS
  1
AM_DWG_SHEET
  2
AcDmSheet
  3
AcMechDwgViewMgmt
 90
        0
280
     0
281
     0
  0
CLASS
  1
AM_VIEWDIMPARMAP
  2
AcDmViewDimParMap
  3
AcMechDwgViewMgmt
 90
        0
280
     0
281
     0
  0
CLASS
  1
ACIMREALSYSVAR
  2
AcImRealSysVar
  3
AcMeServices
 90
        0
280
     0
281
     0
  0
CLASS
  1
AM_DWGMGR_NAME
  2
AcDmDwgMgrName
  3
AcMechDwgViewMgmt
 90
        0
280
     0
281
     0
  0
CLASS
  1
ACME_DATABASE
  2
AcMeDbDatabase
  3
AcMeServices
 90
        0
280
     0
281
     0
  0
CLASS
  1
ACRFINSADJUSTERMGR
  2
AcRfInsAdjusterMgr
  3
AcMeServices
 90
        0
280
     0
281
     0
  0
CLASS
  1
ACGREFACADMASTER
  2
AcGrefacadMaster
  3
AcGrefServices
 90
        0
280
     0
281
     0
  0
CLASS
  1
AMDTMENUSTATEMGR
  2
AmdtMenuStateMgr
  3
McadcomServices
 90
        0
280
     0
281
     0
  0
CLASS
  1
AMDTMCOMMENUSTATE
  2
AmdtMcomMenuState
  3
McadcomServices
 90
        0
280
     0
281
     0
  0
CLASS
  1
AMIMASTER
  2
AmiMaster
  3
AmiServices
 90
        0
280
     0
281
     0
  0
CLASS
  1
MAPIAMMOUDLE
  2
MApiAmModule
  3
MApiAmServices
 90
        0
280
     0
281
     0
  0
CLASS
  1
ACIMSTRSYSVAR
  2
AcImStrSysVar
  3
AcMeServices
 90
        0
280
     0
281
     0
  0
CLASS
  1
AMDTADMENUSTATE
  2
AmdtAdMenuState
  3
DesignerServices
 90
        0
280
     0
281
     0
  0
CLASS
  1
ADAPPL
  2
AcAdAppl
  3
DesignerServices
 90
        0
280
     0
281
     0
  0
CLASS
  1
DEPMGR
  2
AcAdDepMgr
  3
DesignerServices
 90
        0
280
     0
281
     0
  0
CLASS
  1
PARAMMGR
  2
AcAdParamMgr
  3
DesignerServices
 90
        0
280
     0
281
     0
  0
CLASS
  1
PARAMSCOPE
  2
AcAdParamScope
  3
DesignerServices
 90
        0
280
     0
281
     0
  0
CLASS
  1
NAMEDAPPL
  2
AcAdNamedAppl
  3
DesignerServices
 90
        0
280
     0
281
     0
  0
CLASS
  1
AMDTDMMENUSTATE
  2
AmdtDmMenuState
  3
AcMechDwgViewMgmt
 90
        0
280
     0
281
     0
  0
CLASS
  1
AMDTAMMENUSTATE
  2
AmdtAmMenuState
  3
DesignerAssemblies
 90
        0
280
     0
281
     0
  0
CLASS
  1
ACAMPROJECT
  2
AcAmProject
  3
DesignerAssemblies
 90
        0
280
     0
281
     0
  0
CLASS
  1
ACAMGRCOMPDEF
  2
AcAmGrCompDef
  3
DesignerAssemblies
 90
        0
280
     0
281
     0
  0
CLASS
  1
ACCMCONTEXT
  2
AcCmContext
  3
DesignerAssemblies
 90
        0
280
     0
281
     0
  0
CLASS
  1
ACAMCOMPDEF
  2
AcAmCompDef
  3
DesignerAssemblies
 90
        0
280
     0
281
     0
  0
CLASS
  1
ACAMCOMPDEFMGR
  2
AcAmCompDefMgr
  3
DesignerAssemblies
 90
        0
280
     0
281
     0
  0
CLASS
  1
AMCONTEXTMGR
  2
AcAmContextMgr
  3
DesignerAssemblies
 90
        0
280
     0
281
     0
  0
CLASS
  1
ACAMCONTEXTMODELER
  2
AcAmContextModeler
  3
DesignerAssemblies
 90
        0
280
     0
281
     0
  0
CLASS
  1
ACMDATADICTIONARY
  2
AcmDataDictionary
  3
"AcmSymBB|Product Description: AutoCAD Mechanical 2004 DX|Company: Autodesk"
 90
        0
280
     0
281
     0
  0
CLASS
  1
CATALOGSTATE
  2
AcAmCatalogState
  3
DesignerAssemblies
 90
        0
280
     0
281
     0
  0
CLASS
  1
ACAMGRCOMPDEFSET
  2
AcAmGrCompDefSet
  3
DesignerAssemblies
 90
        0
280
     0
281
     0
  0
CLASS
  1
AMDTBROWSERDBTAB
  2
AmdtBrowserDbTab
  3
McadcomServices
 90
        0
280
     0
281
     0
  0
CLASS
  1
CBROWSERAPPOBJECT
  2
CBrowserAppObject
  3
McadcomServices
 90
        0
280
     0
281
     0
  0
CLASS
  1
DM_PLACEHOLDER
  2
AcDmSelsetPlaceholder
  3
AcMechDwgViewMgmt
 90
        0
280
     0
281
     0
  0
CLASS
  1
ACMSTANDARDANSI
  2
AcmStandardANSI
  3
"Amdt_StdImp|Product Description: AutoCAD Mechanical 2004 DX|Company: Autodesk"
 90
        0
280
     0
281
     0
  0
CLASS
  1
AMGOBJPROPCFG
  2
AmgObjPropCfg
  3
"AmgLay|Product Description: AutoCAD Mechanical 2000|Company: Autodesk"
 90
        1
280
     0
281
     0
  0
CLASS
  1
ACMSURFSTANDARDANSI
  2
AcmSurfTextStdANSI
  3
"Amdt_StdImp|Product Description: AutoCAD Mechanical 2004 DX|Company: Autodesk"
 90
        0
280
     0
281
     0
  0
CLASS
  1
ACMFCFSTANDARDANSI
  2
AcmFCFStdANSI
  3
"Amdt_StdImp|Product Description: AutoCAD Mechanical 2004 DX|Company: Autodesk"
 90
        0
280
     0
281
     0
  0
CLASS
  1
ACMWELDSTANDARDANSI
  2
AcmWeldingStdANSI
  3
"Amdt_StdImp|Product Description: AutoCAD Mechanical 2004 DX|Company: Autodesk"
 90
        0
280
     0
281
     0
  0
CLASS
  1
ACMIDSTANDARDANSI
  2
AcmIdStdANSI
  3
"Amdt_StdImp|Product Description: AutoCAD Mechanical 2004 DX|Company: Autodesk"
 90
        0
280
     0
281
     0
  0
CLASS
  1
ACMDATUMSTANDARDANSI
  2
AcmDatumStdANSI
  3
"Amdt_StdImp|Product Description: AutoCAD Mechanical 2004 DX|Company: Autodesk"
 90
        0
280
     0
281
     0
  0
CLASS
  1
ACMBOMSTANDARDANSI
  2
AcmBOMStdANSI
  3
"Amdt_StdImp|Product Description: AutoCAD Mechanical 2004 DX|Company: Autodesk"
 90
        0
280
     0
281
     0
  0
CLASS
  1
ACMDETAILSTANDARDANSI
  2
AmdtDetailSymStdANSI
  3
"Amdt_StdImp|Product Description: AutoCAD Mechanical 2004 DX|Company: Autodesk"
 90
        0
280
     0
281
     0
  0
CLASS
  1
ACMSECTIONSTANDARDANSI
  2
AmdtSectionSymStdANSI
  3
"Amdt_StdImp|Product Description: AutoCAD Mechanical 2004 DX|Company: Autodesk"
 90
        0
280
     0
281
     0
  0
CLASS
  1
ACMCENTERLINESTANDARDANSI
  2
AmdtCenterLineStdANSI
  3
"Amdt_StdImp|Product Description: AutoCAD Mechanical 2004 DX|Company: Autodesk"
 90
        0
280
     0
281
     0
  0
CLASS
  1
ACMTHREADLINESTANDARDANSI
  2
AmdtThreadLineStdANSI
  3
"Amdt_StdImp|Product Description: AutoCAD Mechanical 2004 DX|Company: Autodesk"
 90
        0
280
     0
281
     0
  0
CLASS
  1
ACMNOTESTANDARDANSI
  2
AmdtNoteStdANSI
  3
"Amdt_StdImp|Product Description: AutoCAD Mechanical 2004 DX|Company: Autodesk"
 90
        0
280
     0
281
     0
  0
CLASS
  1
AMDTNOTETEMPLATEDB
  2
AmdtNoteTemplateDB
  3
AMDT_STDIMP_MODULE_NAME
 90
        0
280
     0
281
     0
  0
CLASS
  1
ACAMGLAYSTD
  2
AcAmgLayStd
  3
"AcAmgLayStd|Product Description: AutoCAD Mechanical 2000|Company: Autodesk"
 90
        0
280
     0
281
     0
  0
CLASS
  1
ACAMGDIMSTD
  2
AcAmgDimStd
  3
"AcAmgDimStd|Product Description: AutoCAD Mechanical 2000|Company: Autodesk"
 90
        0
280
     0
281
     0
  0
CLASS
  1
ACAMGHOLECHARTSTDANSI
  2
AcAmgHoleChartStdANSI
  3
ACMSYMBB_MODULE_NAME
 90
        0
280
     0
281
     0
  0
CLASS
  1
ACAMGTITLESTD
  2
AcAmgTitleStd
  3
"TITLEAPP"
 90
        0
280
     0
281
     0
  0
CLASS
  1
ACAMGFILTERDAT
  2
AcAmgFilterDat
  3
"AcadM|Product Description: AutoCAD Mechanical 2000|Company: Autodesk"
 90
        0
280
     0
281
     0
  0
ENDSEC
  0
SECTION
  2
TABLES
  0
TABLE
  2
VPORT
  5
8
330
0
100
AcDbSymbolTable
 70
     3
  0
VPORT
  5
493D
330
8
100
AcDbSymbolTableRecord
100
AcDbViewportTableRecord
  2
*Active
 70
     0
 10
0.0
 20
0.0
 11
1.0
 21
1.0
 12
8.499999999999998
 22
6.290741664511202
 13
0.0
 23
0.0
 14
0.0625
 24
0.0625
 15
0.5
 25
0.5
 16
0.0
 26
0.0
 36
1.0
 17
0.0
 27
0.0
 37
0.0
 40
12.7182945308333
 41
1.758308157099697
 42
50.0
 43
0.0
 44
0.0
 50
0.0
 51
0.0
 71
     0
 72
   500
 73
     1
 74
     0
 75
     0
 76
     0
 77
     0
 78
     0
281
     0
 65
     1
110
0.0
120
0.0
130
0.0
111
1.0
121
0.0
131
0.0
112
0.0
122
1.0
132
0.0
 79
     0
146
0.0
  0
ENDTAB
  0
TABLE
  2
LTYPE
  5
5
330
0
100
AcDbSymbolTable
 70
    16
  0
LTYPE
  5
13
330
5
100
AcDbSymbolTableRecord
100
AcDbLinetypeTableRecord
  2
ByBlock
 70
     0
  3

 72
    65
 73
     0
 40
0.0
  0
LTYPE
  5
14
330
5
100
AcDbSymbolTableRecord
100
AcDbLinetypeTableRecord
  2
ByLayer
 70
     0
  3

 72
    65
 73
     0
 40
0.0
  0
LTYPE
  5
15
330
5
100
AcDbSymbolTableRecord
100
AcDbLinetypeTableRecord
  2
CONTINUOUS
 70
     0
  3
Solid line
 72
    65
 73
     0
 40
0.0
  0
LTYPE
  5
2C
330
5
100
AcDbSymbolTableRecord
100
AcDbLinetypeTableRecord
  2
CENTER
 70
     0
  3
____ _ ____ _ ____ _ ____ _ ____ _ ____ _ ____ 
 72
    65
 73
     4
 40
2.0
 49
1.25
 74
     0
 49
-0.25
 74
     0
 49
0.25
 74
     0
 49
-0.25
 74
     0
  0
LTYPE
  5
430
330
5
100
AcDbSymbolTableRecord
100
AcDbLinetypeTableRecord
  2
HIDDEN
 70
     0
  3
_ _ _ _ _ _ _ _ _ _ _ _ _ _ _ _ _ _ _ _ _ _ _
 72
    65
 73
     2
 40
0.375
 49
0.25
 74
     0
 49
-0.125
 74
     0
  0
LTYPE
  5
48BB
330
5
100
AcDbSymbolTableRecord
100
AcDbLinetypeTableRecord
  2
PHANTOM2
 70
     0
  3
Phantom (.5x) ___ _ _ ___ _ _ ___ _ _ ___ _ _
 72
    65
 73
     6
 40
1.25
 49
0.625
 74
     0
 49
-0.125
 74
     0
 49
0.125
 74
     0
 49
-0.125
 74
     0
 49
0.125
 74
     0
 49
-0.125
 74
     0
  0
LTYPE
  5
48EF
330
5
100
AcDbSymbolTableRecord
100
AcDbLinetypeTableRecord
  2
AM_ISO02W050
 70
     0
  3
__ __ __ __ __ __ __ __ __ __ __ __ __ __ __
 72
    65
 73
     2
 40
7.5
 49
6.0
 74
     0
 49
-1.5
 74
     0
  0
LTYPE
  5
48F0
330
5
100
AcDbSymbolTableRecord
100
AcDbLinetypeTableRecord
  2
AM_ISO08W050
 70
     0
  3
____ . ____ . ____ . ____ . ____ . ____ . ____
 72
    65
 73
     4
 40
18.0
 49
12.0
 74
     0
 49
-1.5
 74
     0
 49
3.0
 74
     0
 49
-1.5
 74
     0
  0
LTYPE
  5
48F1
330
5
100
AcDbSymbolTableRecord
100
AcDbLinetypeTableRecord
  2
AM_ISO09W050
 70
     0
  3
_____ . . _____ . . _____ . . ____ .. ____
 72
    65
 73
     6
 40
22.5
 49
12.0
 74
     0
 49
-1.5
 74
     0
 49
3.0
 74
     0
 49
-1.5
 74
     0
 49
3.0
 74
     0
 49
-1.5
 74
     0
  0
LTYPE
  5
48F2
330
5
100
AcDbSymbolTableRecord
100
AcDbLinetypeTableRecord
  2
Amconstr
 70
     0
  3
_______________________
 72
    65
 73
     2
 40
9999.0
 49
9999.0
 74
     0
 49
0.0
 74
     0
  0
LTYPE
  5
48F3
330
5
100
AcDbSymbolTableRecord
100
AcDbLinetypeTableRecord
  2
AM_ISO08W050x2
 70
     0
  3
__ . __ . __ . __ . __ . __
 72
    65
 73
     4
 40
9.0
 49
6.0
 74
     0
 49
-0.75
 74
     0
 49
1.5
 74
     0
 49
-0.75
 74
     0
  0
LTYPE
  5
48F4
330
5
100
AcDbSymbolTableRecord
100
AcDbLinetypeTableRecord
  2
AM_ISO02W050x2
 70
     0
  3
 _ _ _ _ _ _ _ _ _ _ _ _
 72
    65
 73
     2
 40
3.75
 49
3.0
 74
     0
 49
-0.75
 74
     0
  0
LTYPE
  5
48F7
330
5
100
AcDbSymbolTableRecord
100
AcDbLinetypeTableRecord
  2
Amzigzag
 70
     0
  3
/\/-/\/-/\/-/\/-/\/-/\/
 72
    65
 73
     2
 40
11.0001
 49
0.0001
 74
     4
 75
   136
340
48F6
 46
0.04
 50
0.0
 44
0.0
 45
0.0
 49
-11.0
 74
     0
  0
LTYPE
  5
48F8
330
5
100
AcDbSymbolTableRecord
100
AcDbLinetypeTableRecord
  2
CENTER2
 70
     0
  3
Center (.5x) ___ _ ___ _ ___ _ ___ _ ___ _ ___
 72
    65
 73
     4
 40
1.125
 49
0.75
 74
     0
 49
-0.125
 74
     0
 49
0.125
 74
     0
 49
-0.125
 74
     0
  0
LTYPE
  5
48F9
330
5
100
AcDbSymbolTableRecord
100
AcDbLinetypeTableRecord
  2
HIDDEN2
 70
     0
  3
Hidden (.5x) _ _ _ _ _ _ _ _ _ _ _ _ _ _ _ _ _
 72
    65
 73
     2
 40
0.1875
 49
0.125
 74
     0
 49
-0.0625
 74
     0
  0
LTYPE
  5
48FA
330
5
100
AcDbSymbolTableRecord
100
AcDbLinetypeTableRecord
  2
Amzigzag2
 70
     0
  3
/\/-/\/-/\/-/\/-/\/-/\/
 72
    65
 73
     2
 40
0.4401
 49
0.0001
 74
     4
 75
   136
340
48F6
 46
0.0016
 50
0.0
 44
0.0
 45
0.0
 49
-0.4400000000000001
 74
     0
  0
LTYPE
  5
4908
330
5
100
AcDbSymbolTableRecord
100
AcDbLinetypeTableRecord
  2
ACANSTGB
 70
     0
  3
__ . . __ . .
 72
    65
 73
     6
 40
0.35433070866
 49
0.15748031496
 74
     0
 49
-0.03937007874
 74
     0
 49
0.03937007874
 74
     0
 49
-0.03937007874
 74
     0
 49
0.03937007874
 74
     0
 49
-0.03937007874
 74
     0
  0
LTYPE
  5
4909
330
5
100
AcDbSymbolTableRecord
100
AcDbLinetypeTableRecord
  2
ACANSTGL
 70
     0
  3
_ _ _ _ _
 72
    65
 73
     2
 40
0.11811023622
 49
0.07874015748
 74
     0
 49
-0.03937007874
 74
     0
  0
ENDTAB
  0
TABLE
  2
LAYER
  5
2
330
0
100
AcDbSymbolTable
 70
     9
  0
LAYER
  5
10
330
2
100
AcDbSymbolTableRecord
100
AcDbLayerTableRecord
  2
0
 70
     0
 62
     7
  6
CONTINUOUS
370
    -3
390
F
  0
LAYER
  5
30
330
2
100
AcDbSymbolTableRecord
100
AcDbLayerTableRecord
  2
TEXT
 70
     0
 62
     7
  6
CONTINUOUS
370
    -3
390
F
  0
LAYER
  5
31
330
2
100
AcDbSymbolTableRecord
100
AcDbLayerTableRecord
  2
DEFPOINTS
 70
     0
 62
     7
  6
CONTINUOUS
290
     0
370
    -3
390
F
  0
LAYER
  5
32
330
2
100
AcDbSymbolTableRecord
100
AcDbLayerTableRecord
  2
DIM
 70
     0
 62
     1
  6
CONTINUOUS
370
    -3
390
F
  0
LAYER
  5
33
330
2
100
AcDbSymbolTableRecord
100
AcDbLayerTableRecord
  2
CENTER
 70
     0
 62
     3
  6
CENTER
370
    -3
390
F
  0
LAYER
  5
34
330
2
100
AcDbSymbolTableRecord
100
AcDbLayerTableRecord
  2
OBJ
 70
     0
 62
     7
  6
CONTINUOUS
370
    -3
390
F
  0
LAYER
  5
8BE
330
2
100
AcDbSymbolTableRecord
100
AcDbLayerTableRecord
  2
BORDER
 70
     0
 62
     7
  6
CONTINUOUS
370
    -3
390
F
  0
LAYER
  5
8BF
330
2
100
AcDbSymbolTableRecord
100
AcDbLayerTableRecord
  2
FORM
 70
     0
 62
     7
  6
CONTINUOUS
370
    -3
390
F
  0
LAYER
  5
41C0
330
2
100
AcDbSymbolTableRecord
100
AcDbLayerTableRecord
  2
OBJECT
 70
     0
 62
     7
  6
CONTINUOUS
370
    -3
390
F
  0
ENDTAB
  0
TABLE
  2
STYLE
  5
3
330
0
100
AcDbSymbolTable
 70
     7
  0
STYLE
  5
11
330
3
100
AcDbSymbolTableRecord
100
AcDbTextStyleTableRecord
  2
STANDARD
 70
     0
 40
0.0
 41
1.0
 50
0.0
 71
     0
 42
0.2
  3
txt
  4

  0
STYLE
  5
27
330
3
100
AcDbSymbolTableRecord
100
AcDbTextStyleTableRecord
  2
ROMANS
 70
     0
 40
0.0
 41
1.0
 50
0.0
 71
     0
 42
0.09375
  3
romans
  4

  0
STYLE
  5
29
330
3
100
AcDbSymbolTableRecord
100
AcDbTextStyleTableRecord
  2
HELR
 70
     0
 40
0.0
 41
1.0
 50
0.0
 71
     0
 42
0.2
  3
HELV.shx
  4

  0
STYLE
  5
41C1
330
3
100
AcDbSymbolTableRecord
100
AcDbTextStyleTableRecord
  2
KANJI
 70
     0
 40
0.0
 41
1.0
 50
0.0
 71
     0
 42
2.0
  3
TXT
  4
BIGFONT
  0
STYLE
  5
48F6
330
3
100
AcDbSymbolTableRecord
100
AcDbTextStyleTableRecord
  2

 70
     1
 40
0.0
 41
1.0
 50
0.0
 71
     0
 42
0.09375
  3
genltshp.shx
  4

  0
STYLE
  5
48FB
330
3
100
AcDbSymbolTableRecord
100
AcDbTextStyleTableRecord
  2
ACANSTS
 70
     0
 40
1.0
 41
1.0
 50
0.0
 71
     0
 42
0.09375
  3
romans.shx
  4

  0
STYLE
  5
4907
330
3
100
AcDbSymbolTableRecord
100
AcDbTextStyleTableRecord
  2
ACANSGDT
 70
     0
 40
0.0
 41
1.0
 50
0.0
 71
     0
 42
0.09375
  3
AMGDT
  4

  0
ENDTAB
  0
TABLE
  2
VIEW
  5
6
330
0
100
AcDbSymbolTable
 70
     0
  0
ENDTAB
  0
TABLE
  2
UCS
  5
7
330
0
100
AcDbSymbolTable
 70
     0
  0
ENDTAB
  0
TABLE
  2
APPID
  5
9
330
0
100
AcDbSymbolTable
 70
    11
  0
APPID
  5
12
330
9
100
AcDbSymbolTableRecord
100
AcDbRegAppTableRecord
  2
ACAD
 70
     0
  0
APPID
  5
3E3
330
9
100
AcDbSymbolTableRecord
100
AcDbRegAppTableRecord
  2
DCO15
 70
     0
  0
APPID
  5
488E
330
9
100
AcDbSymbolTableRecord
100
AcDbRegAppTableRecord
  2
MCAD_NO_VIS
 70
     0
  0
APPID
  5
488F
330
9
100
AcDbSymbolTableRecord
100
AcDbRegAppTableRecord
  2
ACAD_TEMP_GRAPHIC
 70
     0
  0
APPID
  5
48BD
330
9
100
AcDbSymbolTableRecord
100
AcDbRegAppTableRecord
  2
AD_DRAW
 70
     0
  0
APPID
  5
48C0
330
9
100
AcDbSymbolTableRecord
100
AcDbRegAppTableRecord
  2
ACATTRIBSERVICES
 70
     0
  0
APPID
  5
48E0
330
9
100
AcDbSymbolTableRecord
100
AcDbRegAppTableRecord
  2
DESIGNERASSEMBLIES
 70
     0
  0
APPID
  5
48E6
330
9
100
AcDbSymbolTableRecord
100
AcDbRegAppTableRecord
  2
ACADM_DIM_EDIT
 70
     0
  0
APPID
  5
48E7
330
9
100
AcDbSymbolTableRecord
100
AcDbRegAppTableRecord
  2
AMDT_DM_ADJ
 70
     0
  0
APPID
  5
4914
330
9
100
AcDbSymbolTableRecord
100
AcDbRegAppTableRecord
  2
ACAD_DSTYLE_DIMARC_LENGTH_SYMBOL
 70
     0
  0
APPID
  5
4915
330
9
100
AcDbSymbolTableRecord
100
AcDbRegAppTableRecord
  2
ACAD_DSTYLE_DIMJOGGED_JOGANGLE_SYMBOL
 70
     0
  0
ENDTAB
  0
TABLE
  2
DIMSTYLE
  5
A
330
0
100
AcDbSymbolTable
 70
     7
100
AcDbDimStyleTable
 71
     1
340
3B8
  0
DIMSTYLE
105
3B8
330
A
100
AcDbSymbolTableRecord
100
AcDbDimStyleTableRecord
  2
Standard
 70
     0
 41
0.15
 44
0.0625
140
0.09
176
     1
177
     1
178
     7
340
11
  0
DIMSTYLE
105
4913
330
A
100
AcDbSymbolTableRecord
100
AcDbDimStyleTableRecord
  2
AM_ANSI
 70
     0
  4
mm
 41
0.1
 42
0.05
 43
0.5
 44
0.1
 47
0.1
 48
0.1
 78
     7
 79
     2
140
0.12
141
0.0
146
0.71
147
0.06
176
   256
177
   256
178
     2
274
     4
284
     7
340
11
371
    -1
372
    -1
1001
ACAD_DSTYLE_DIMARC_LENGTH_SYMBOL
1070
   379
1070
     1
1001
ACAD_DSTYLE_DIMJOGGED_JOGANGLE_SYMBOL
1070
   384
1040
0.7853981633974483
  0
DIMSTYLE
105
491C
330
A
100
AcDbSymbolTableRecord
100
AcDbDimStyleTableRecord
  2
AM_ANSI$3
 70
     0
  4
mm
 41
0.1
 42
0.05
 43
0.5
 44
0.1
 47
0.1
 48
0.1
 78
     7
 79
     2
140
0.12
141
0.0
146
0.71
147
0.06
176
   256
177
   256
178
     2
274
     4
284
     7
288
     1
289
     0
340
11
371
    -1
372
    -1
1001
ACAD_DSTYLE_DIMARC_LENGTH_SYMBOL
1070
   379
1070
     1
1001
ACAD_DSTYLE_DIMJOGGED_JOGANGLE_SYMBOL
1070
   384
1040
0.7853981633974483
  0
DIMSTYLE
105
491F
330
A
100
AcDbSymbolTableRecord
100
AcDbDimStyleTableRecord
  2
AM_ANSI$4
 70
     0
  4
mm
 41
0.1
 42
0.05
 43
0.5
 44
0.1
 47
0.1
 48
0.1
 78
     7
 79
     2
140
0.12
141
0.0
146
0.71
147
0.06
176
   256
177
   256
178
     2
274
     4
284
     7
288
     1
289
     0
340
11
371
    -1
372
    -1
1001
ACAD_DSTYLE_DIMARC_LENGTH_SYMBOL
1070
   379
1070
     1
1001
ACAD_DSTYLE_DIMJOGGED_JOGANGLE_SYMBOL
1070
   384
1040
0.7853981633974483
  0
DIMSTYLE
105
4924
330
A
100
AcDbSymbolTableRecord
100
AcDbDimStyleTableRecord
  2
AM_ANSI$7
 70
     0
  4
mm
 41
0.1
 42
0.05
 43
0.5
 44
0.1
 47
0.1
 48
0.1
 78
     7
 79
     2
140
0.24
141
0.0
146
0.71
147
0.06
176
   256
177
   256
178
     2
274
     4
284
     7
340
11
371
    -1
372
    -1
1001
ACAD_DSTYLE_DIMARC_LENGTH_SYMBOL
1070
   379
1070
     1
1001
ACAD_DSTYLE_DIMJOGGED_JOGANGLE_SYMBOL
1070
   384
1040
0.7853981633974483
  0
DIMSTYLE
105
4927
330
A
100
AcDbSymbolTableRecord
100
AcDbDimStyleTableRecord
  2
AM_ANSI$SF
 70
     0
  4
mm
 41
0.1
 42
0.05
 43
0.5
 44
0.1
 47
0.1
 48
0.1
 75
     1
 76
     1
 78
     7
 79
     2
140
0.12
141
0.0
146
0.71
147
0.06
176
   256
177
   256
178
     2
274
     4
284
     7
340
11
371
    -1
372
    -1
1001
ACAD_DSTYLE_DIMARC_LENGTH_SYMBOL
1070
   379
1070
     1
1001
ACAD_DSTYLE_DIMJOGGED_JOGANGLE_SYMBOL
1070
   384
1040
0.7853981633974483
  0
DIMSTYLE
105
492E
330
A
100
AcDbSymbolTableRecord
100
AcDbDimStyleTableRecord
  2
AM_ANSI$SH
 70
     0
  4
mm
 41
0.1
 42
0.05
 43
0.5
 44
0.1
 47
0.1
 48
0.1
 75
     1
 76
     1
 78
     7
 79
     2
140
0.12
141
0.0
146
0.71
147
0.06
173
     1
176
   256
177
   256
178
     2
274
     4
284
     7
340
11
343
4928
371
    -1
372
    -1
1001
ACAD_DSTYLE_DIMARC_LENGTH_SYMBOL
1070
   379
1070
     1
1001
ACAD_DSTYLE_DIMJOGGED_JOGANGLE_SYMBOL
1070
   384
1040
0.7853981633974483
  0
ENDTAB
  0
TABLE
  2
BLOCK_RECORD
  5
1
330
0
100
AcDbSymbolTable
 70
     3
  0
BLOCK_RECORD
  5
1E
330
1
100
AcDbSymbolTableRecord
100
AcDbBlockTableRecord
  2
*Model_Space
340
21
  0
BLOCK_RECORD
  5
1A
330
1
100
AcDbSymbolTableRecord
100
AcDbBlockTableRecord
  2
*Paper_Space
340
1D
  0
BLOCK_RECORD
  5
597
330
1
100
AcDbSymbolTableRecord
100
AcDbBlockTableRecord
  2
_OPEN
340
0
  0
BLOCK_RECORD
  5
4928
330
1
100
AcDbSymbolTableRecord
100
AcDbBlockTableRecord
  2
GENAXEH
340
0
  0
ENDTAB
  0
ENDSEC
  0
SECTION
  2
BLOCKS
  0
BLOCK
  5
37
330
1E
100
AcDbEntity
  8
0
100
AcDbBlockBegin
  2
*Model_Space
 70
     0
 10
0.0
 20
0.0
 30
0.0
  3
*Model_Space
  1

  0
ENDBLK
  5
38
330
1E
100
AcDbEntity
  8
0
100
AcDbBlockEnd
  0
BLOCK
  5
35
330
1A
100
AcDbEntity
 67
     1
  8
0
100
AcDbBlockBegin
  2
*Paper_Space
 70
     0
 10
0.0
 20
0.0
 30
0.0
  3
*Paper_Space
  1

  0
ENDBLK
  5
36
330
1A
100
AcDbEntity
 67
     1
  8
0
100
AcDbBlockEnd
  0
BLOCK
  5
59B
330
597
100
AcDbEntity
  8
0
100
AcDbBlockBegin
  2
_OPEN
 70
     0
 10
0.0
 20
0.0
 30
0.0
  3
_OPEN
  1

  0
LINE
  5
598
330
597
100
AcDbEntity
  8
0
  6
ByBlock
 62
     0
100
AcDbLine
 10
-1.0
 20
0.1666666666666666
 30
0.0
 11
0.0
 21
0.0
 31
0.0
  0
LINE
  5
599
330
597
100
AcDbEntity
  8
0
  6
ByBlock
 62
     0
100
AcDbLine
 10
0.0
 20
0.0
 30
0.0
 11
-1.0
 21
-0.1666666666666666
 31
0.0
  0
LINE
  5
59A
330
597
100
AcDbEntity
  8
0
  6
ByBlock
 62
     0
100
AcDbLine
 10
0.0
 20
0.0
 30
0.0
 11
-1.0
 21
0.0
 31
0.0
  0
ENDBLK
  5
59C
330
597
100
AcDbEntity
  8
0
100
AcDbBlockEnd
  0
BLOCK
  5
492A
330
4928
100
AcDbEntity
  8
0
100
AcDbBlockBegin
  2
GENAXEH
 70
     0
 10
0.0
 20
0.0
 30
0.0
  3
GENAXEH
  1

  0
LINE
  5
4929
330
4928
100
AcDbEntity
  8
0
100
AcDbLine
 10
-1.0
 20
0.0
 30
0.0
 11
1.0
 21
0.0
 31
0.0
  0
ENDBLK
  5
492B
330
4928
100
AcDbEntity
  8
0
100
AcDbBlockEnd
  0
ENDSEC
  0
SECTION
  2
ENTITIES
  0
TEXT
  5
C7
330
1E
100
AcDbEntity
  8
DIM
 62
     1
100
AcDbText
 10
16.35516340111906
 20
7.313182641180002
 30
0.0
 40
0.125
  1

 50
90.0
100
AcDbText
  0
TEXT
  5
C9
330
1E
100
AcDbEntity
  8
DIM
 62
     1
100
AcDbText
 10
13.34837863483334
 20
7.179439377583786
 30
0.0
 40
0.125
  1

 50
90.0
100
AcDbText
  0
TEXT
  5
DA
330
1E
100
AcDbEntity
  8
DIM
 62
     1
100
AcDbText
 10
13.6904845814324
 20
8.486994831764484
 30
0.0
 40
0.125
  1

 50
90.0
100
AcDbText
  0
TEXT
  5
DB
330
1E
100
AcDbEntity
  8
DIM
 62
     1
100
AcDbText
 10
10.68369981514667
 20
8.353251568168268
 30
0.0
 40
0.125
  1

 50
90.0
100
AcDbText
  0
TEXT
  5
7BB
330
1E
100
AcDbEntity
  8
0
100
AcDbText
 10
14.54294672637054
 20
0.6371003189161656
 30
0.0
 40
0.1213397244080934
  1
802B-SSAHXSX
  7
HELR
 72
     4
 11
15.25076178541776
 21
0.6977701811202124
 31
0.0
100
AcDbText
  0
TEXT
  5
9B3
330
1E
100
AcDbEntity
  8
DIM
 62
     1
100
AcDbText
 10
25.09672621712861
 20
7.640701491704227
 30
0.0
 40
0.125
  1

 50
90.0
100
AcDbText
  0
TEXT
  5
9B4
330
1E
100
AcDbEntity
  8
DIM
 62
     1
100
AcDbText
 10
22.08994145084288
 20
7.506958228108011
 30
0.0
 40
0.125
  1

 50
90.0
100
AcDbText
  0
TEXT
  5
9B5
330
1E
100
AcDbEntity
  8
DIM
 62
     1
100
AcDbText
 10
22.43204739744194
 20
8.814513682288708
 30
0.0
 40
0.125
  1

 50
90.0
100
AcDbText
  0
TEXT
  5
9B6
330
1E
100
AcDbEntity
  8
DIM
 62
     1
100
AcDbText
 10
19.42526263115621
 20
8.680770418692492
 30
0.0
 40
0.125
  1

 50
90.0
100
AcDbText
  0
TEXT
  5
9B7
330
1E
100
AcDbEntity
  8
0
100
AcDbText
 10
11.51472627349514
 20
1.620220178285536
 30
0.0
 40
0.1213397244080934
  1
OUTLINE DRAWING
  7
HELR
 72
     4
 11
12.3236577695491
 21
1.680890040489583
 31
0.0
100
AcDbText
  0
TEXT
  5
9B8
330
1E
100
AcDbEntity
  8
0
100
AcDbText
 10
12.10986873130627
 20
1.420866795770394
 30
0.0
 40
0.1213397244080934
  1
802B
  7
HELR
 72
     4
 11
12.3236577695491
 21
1.481536657974441
 31
0.0
100
AcDbText
  0
TEXT
  5
9B9
330
1E
100
AcDbEntity
  8
0
100
AcDbText
 10
11.26337970150695
 20
1.221513413255252
 30
0.0
 40
0.1213397244080934
  1
COMPACT LIMIT SWITCH
  7
HELR
 72
     4
 11
12.3236577695491
 21
1.282183275459299
 31
0.0
100
AcDbText
  0
TEXT
  5
3F15
330
1E
100
AcDbEntity
  8
FORM
100
AcDbText
 10
13.37613044214886
 20
10.59631187162067
 30
0.0
 40
0.08
  1
REVISIONS
 72
     4
 11
13.7094637754822
 21
10.63631187162067
 31
0.0
100
AcDbText
  0
TEXT
  5
3F16
330
1E
100
AcDbEntity
  8
FORM
100
AcDbText
 10
13.73530506185902
 20
10.38129937162067
 30
0.0
 40
0.06
  1
DESCRIPTION
 72
     4
 11
14.03530506185902
 21
10.41129937162067
 31
0.0
100
AcDbText
  0
TEXT
  5
3F17
330
1E
100
AcDbEntity
  8
FORM
100
AcDbText
 10
11.7146780754822
 20
10.38129937162067
 30
0.0
 40
0.06
  1
REV.
 72
     4
 11
11.8146780754822
 21
10.41129937162067
 31
0.0
100
AcDbText
  0
TEXT
  5
3F18
330
1E
100
AcDbEntity
  8
FORM
100
AcDbText
 10
16.14906399964001
 20
10.38129937162067
 30
0.0
 40
0.06
  1
DRAFTER
 72
     4
 11
16.34906399964001
 21
10.41129937162067
 31
0.0
100
AcDbText
  0
LINE
  5
3F19
330
1E
100
AcDbEntity
  8
FORM
100
AcDbLine
 10
0.1042494754821988
 20
0.3013358716206689
 30
0.0
 11
0.1042494754821988
 21
10.76133587162067
 31
0.0
  0
LINE
  5
3F1A
330
1E
100
AcDbEntity
  8
FORM
100
AcDbLine
 10
0.1042494754821988
 20
10.76133587162067
 30
0.0
 11
16.5642494754822
 21
10.76133587162067
 31
0.0
  0
LINE
  5
3F1B
330
1E
100
AcDbEntity
  8
FORM
100
AcDbLine
 10
16.5642494754822
 20
10.76133587162067
 30
0.0
 11
16.5642494754822
 21
0.3013358716206689
 31
0.0
  0
LINE
  5
3F1C
330
1E
100
AcDbEntity
  8
FORM
100
AcDbLine
 10
16.5642494754822
 20
0.3013358716206689
 30
0.0
 11
0.1042494754821988
 21
0.3013358716206689
 31
0.0
  0
LINE
  5
3F1D
330
1E
100
AcDbEntity
  8
FORM
100
AcDbLine
 10
16.5642494754822
 20
10.51128787162067
 30
0.0
 11
11.6946780754822
 21
10.51128787162067
 31
0.0
  0
LINE
  5
3F1E
330
1E
100
AcDbEntity
  8
FORM
100
AcDbLine
 10
16.5642494754822
 20
10.31131087162067
 30
0.0
 11
11.6946780754822
 21
10.31131087162067
 31
0.0
  0
LINE
  5
3F1F
330
1E
100
AcDbEntity
  8
FORM
100
AcDbLine
 10
11.6946780754822
 20
10.1116735987442
 30
0.0
 11
11.6946780754822
 21
10.76133587162067
 31
0.0
  0
LINE
  5
3F20
330
1E
100
AcDbEntity
  8
FORM
100
AcDbLine
 10
11.93467807548219
 20
10.1116735987442
 30
0.0
 11
11.93467807548219
 21
10.51128787162067
 31
0.0
  0
LINE
  5
3F21
330
1E
100
AcDbEntity
  8
FORM
100
AcDbLine
 10
16.13593204823584
 20
10.1116735987442
 30
0.0
 11
16.13593204823584
 21
10.51128787162067
 31
0.0
  0
LINE
  5
3F22
330
1E
100
AcDbEntity
  8
FORM
100
AcDbLine
 10
16.54425243591942
 20
10.1116735987442
 30
0.0
 11
11.67468103591941
 21
10.1116735987442
 31
0.0
  0
TEXT
  5
3F23
330
1E
100
AcDbEntity
  8
FORM
100
AcDbText
 10
11.8046780754822
 20
10.1814922222368
 30
0.0
 40
0.06
  1
1
 72
     4
 11
11.8146780754822
 21
10.2114922222368
 31
0.0
100
AcDbText
  0
TEXT
  5
3F24
330
1E
100
AcDbEntity
  8
FORM
100
AcDbText
 10
12.08889710857868
 20
10.1814922222368
 30
0.0
 40
0.06
  1
CREATED
 72
     4
 11
12.28889710857868
 21
10.2114922222368
 31
0.0
100
AcDbText
  0
TEXT
  5
3F25
330
1E
100
AcDbEntity
  8
FORM
100
AcDbText
 10
16.26906399964001
 20
10.1814922222368
 30
0.0
 40
0.06
  1
MJL
 72
     4
 11
16.34906399964001
 21
10.2114922222368
 31
0.0
100
AcDbText
  0
TEXT
  5
3F26
330
1E
100
AcDbEntity
  8
BORDER
100
AcDbText
 10
14.24675382472929
 20
1.832088277798209
 30
0.0
 40
0.08
  1
FOR TECHNICAL SUPPORT CALL
100
AcDbText
  0
LINE
  5
3F27
330
1E
100
AcDbEntity
  8
BORDER
 62
     7
100
AcDbLine
 10
8.164214953796033
 20
0.880152121685807
 30
0.0
 11
10.6742212964188
 21
0.880152121685807
 31
0.0
  0
LINE
  5
3F28
330
1E
100
AcDbEntity
  8
BORDER
 62
     7
100
AcDbLine
 10
8.164214953796033
 20
0.5965697534844594
 30
0.0
 11
10.6742212964188
 21
0.5965697534844594
 31
0.0
  0
LINE
  5
3F29
330
1E
100
AcDbEntity
  8
BORDER
 62
     7
100
AcDbLine
 10
8.164214953796033
 20
2.310664685980217
 30
0.0
 11
16.5642494754822
 21
2.310664685980217
 31
0.0
  0
CIRCLE
  5
3F2A
330
1E
100
AcDbEntity
  8
BORDER
100
AcDbCircle
 10
8.975235392842808
 20
1.629187519764812
 30
0.0
 40
0.1399439102212038
  0
CIRCLE
  5
3F2B
330
1E
100
AcDbEntity
  8
BORDER
100
AcDbCircle
 10
8.975235392842808
 20
1.629187519764812
 30
0.0
 40
0.2350004304560674
  0
LINE
  5
3F2C
330
1E
100
AcDbEntity
  8
BORDER
 62
     7
100
AcDbLine
 10
10.6626304614487
 20
0.5918000678843392
 30
0.0
 11
14.07264668340649
 21
0.5918000678843392
 31
0.0
  0
TEXT
  5
3F2E
330
1E
100
AcDbEntity
  8
BORDER
100
AcDbText
 10
8.252778585122825
 20
2.073417411838359
 30
0.0
 40
0.06
  1
DIMENSIONS ARE IN MM [INCHES]
  7
ROMANS
100
AcDbText
  0
LINE
  5
3F2F
330
1E
100
AcDbEntity
  8
BORDER
 62
     7
100
AcDbLine
 10
10.6742212964188
 20
1.988654942763002
 30
0.0
 11
8.164214953796033
 21
1.988654942763002
 31
0.0
  0
LINE
  5
3F30
330
1E
100
AcDbEntity
  8
BORDER
 62
     7
100
AcDbLine
 10
8.164214953796033
 20
1.163768028334882
 30
0.0
 11
10.6742212964188
 21
1.163768028334882
 31
0.0
  0
TEXT
  5
3F31
330
1E
100
AcDbEntity
  8
BORDER
100
AcDbText
 10
8.231050836667568
 20
2.185660268230411
 30
0.0
 40
0.06
  1
UNLESS OTHERWISE SPECIFIED
  7
ROMANS
 72
     4
 11
8.929622265238997
 21
2.215660268230411
 31
0.0
100
AcDbText
  0
LINE
  5
3F32
330
1E
100
AcDbEntity
  8
BORDER
 62
     7
100
AcDbLine
 10
8.164214953796033
 20
2.310664685980217
 30
0.0
 11
8.164214953796033
 21
0.3013358716206689
 31
0.0
  0
LINE
  5
3F33
330
1E
100
AcDbEntity
  8
BORDER
100
AcDbLine
 10
10.05345745430098
 20
1.86418795022088
 30
0.0
 11
10.05345745430098
 21
1.394187089308745
 31
0.0
  0
LINE
  5
3F34
330
1E
100
AcDbEntity
  8
BORDER
100
AcDbLine
 10
9.469758293584561
 20
1.769131429986016
 30
0.0
 11
9.469758293584561
 21
1.489243609543608
 31
0.0
  0
TEXT
  5
3F35
330
1E
100
AcDbEntity
  8
BORDER
100
AcDbText
 10
14.75034761914786
 20
1.677567584262366
 30
0.0
 40
0.08
  1
+1 440.646.5800
100
AcDbText
  0
TEXT
  5
3F36
330
1E
100
AcDbEntity
  8
BORDER
100
AcDbText
 10
8.849680802323176
 20
1.224269202352133
 30
0.0
 40
0.06
  1
THIRD ANGLE PROJECTION
  7
ROMANS
 72
     4
 11
9.438252230894605
 21
1.254269202352134
 31
0.0
100
AcDbText
  0
LINE
  5
3F37
330
1E
100
AcDbEntity
  8
BORDER
100
AcDbLine
 10
10.05345745430098
 20
1.394187089308745
 30
0.0
 11
9.469758293584561
 21
1.489243609543608
 31
0.0
  0
LINE
  5
3F38
330
1E
100
AcDbEntity
  8
BORDER
100
AcDbLine
 10
10.05345745430098
 20
1.86418795022088
 30
0.0
 11
9.469758293584561
 21
1.769131429986016
 31
0.0
  0
TEXT
  5
3F39
330
1E
100
AcDbEntity
  8
BORDER
100
AcDbText
 10
8.252838918385634
 20
0.9937680024362871
 30
0.0
 40
0.07
  1
MATERIAL:    N/A
  7
ROMANS
 11
8.252838918385634
 21
1.063768002436287
 31
0.0
100
AcDbText
 73
     3
  0
TEXT
  5
3F3A
330
1E
100
AcDbEntity
  8
BORDER
100
AcDbText
 10
8.252838918385634
 20
0.7101520957872121
 30
0.0
 40
0.07
  1
FINISH:    N/A
  7
ROMANS
 11
8.252838918385634
 21
0.7801520957872122
 31
0.0
100
AcDbText
 73
     3
  0
TEXT
  5
3F3B
330
1E
100
AcDbEntity
  8
BORDER
100
AcDbText
 10
8.241657103055366
 20
0.4098107168812891
 30
0.0
 40
0.07
  1
SCALE:    1 : 1
  7
ROMANS
 11
8.241657103055366
 21
0.4798107168812891
 31
0.0
100
AcDbText
 73
     3
  0
LINE
  5
3F3C
330
1E
100
AcDbEntity
  8
BORDER
 62
     7
100
AcDbLine
 10
12.50422129641874
 20
0.5918000678843392
 30
0.0
 11
12.50422129641873
 21
0.3013358716206689
 31
0.0
  0
TEXT
  5
3F3D
330
1E
100
AcDbEntity
  8
BORDER
100
AcDbText
 10
11.16346154336717
 20
0.3816849826689754
 30
0.0
 40
0.09
  1
B. FORTIER
  7
ROMANS
100
AcDbText
  0
LINE
  5
3F3E
330
1E
100
AcDbEntity
  8
BORDER
 62
     7
100
AcDbLine
 10
10.6742212964188
 20
2.310664685980217
 30
0.0
 11
10.6742212964188
 21
0.3013358716206689
 31
0.0
  0
TEXT
  5
3F3F
330
1E
100
AcDbEntity
  8
BORDER
100
AcDbText
 10
10.74583298220857
 20
0.3910254962221138
 30
0.0
 40
0.1
  1
DRW.
  7
ROMANS
 11
10.74583298220857
 21
0.4410254962221139
 31
0.0
100
AcDbText
 73
     2
  0
TEXT
  5
3F40
330
1E
100
AcDbEntity
  8
BORDER
100
AcDbText
 10
12.61209870062048
 20
0.3935679008708526
 30
0.0
 40
0.1
  1
DATE
  7
ROMANS
100
AcDbText
  0
LINE
  5
3F43
330
1E
100
AcDbEntity
  8
BORDER
 62
     7
100
AcDbLine
 10
16.16423529139655
 20
0.7613526737798431
 30
0.0
 11
16.5642494754822
 21
0.7613526737798431
 31
0.0
  0
TEXT
  5
3F44
330
1E
100
AcDbEntity
  8
BORDER
100
AcDbText
 10
16.26023335346775
 20
0.7914822653982334
 30
0.0
 40
0.06
  1
REV.
  7
ROMANS
100
AcDbText
  0
TEXT
  5
3F45
330
1E
100
AcDbEntity
  8
BORDER
100
AcDbText
 10
14.17297786485456
 20
2.008125303149491
 30
0.0
 40
0.12
  1
ROCKWELL AUTOMATION
100
AcDbText
  0
TEXT
  5
3F46
330
1E
100
AcDbEntity
  8
BORDER
100
AcDbText
 10
14.15686668632682
 20
1.240125519652671
 30
0.0
 40
0.06
  1
ROCKWELL AUTOMATION AND MAY NOT COPIED,
100
AcDbText
  0
TEXT
  5
3F47
330
1E
100
AcDbEntity
  8
BORDER
100
AcDbText
 10
14.15686668632682
 20
1.140125519652649
 30
0.0
 40
0.06
  1
USED OR DISCLOSED FOR ANY PURPOSE EXCEPT 
100
AcDbText
  0
LINE
  5
3F48
330
1E
100
AcDbEntity
  8
BORDER
 62
     7
100
AcDbLine
 10
14.08423751837659
 20
0.5013329898443751
 30
0.0
 11
16.5642494754822
 21
0.5013329898443751
 31
0.0
  0
LINE
  5
3F49
330
1E
100
AcDbEntity
  8
BORDER
 62
     7
100
AcDbLine
 10
14.08423751837659
 20
0.8813526737798476
 30
0.0
 11
16.5642494754822
 21
0.8813526737798476
 31
0.0
  0
LINE
  5
3F4A
330
1E
100
AcDbEntity
  8
BORDER
 62
     7
100
AcDbLine
 10
14.08423751837659
 20
1.483895532676335
 30
0.0
 11
16.5642494754822
 21
1.483895532676335
 31
0.0
  0
TEXT
  5
3F4B
330
1E
100
AcDbEntity
  8
BORDER
100
AcDbText
 10
15.20172277357306
 20
0.3513358716206802
 30
0.0
 40
0.0781
  1
1
  7
ROMANS
100
AcDbText
  0
TEXT
  5
3F4C
330
1E
100
AcDbEntity
  8
BORDER
100
AcDbText
 10
16.07672277357307
 20
0.3513358716206802
 30
0.0
 40
0.0781
  1
1
  7
ROMANS
100
AcDbText
  0
TEXT
  5
3F4D
330
1E
100
AcDbEntity
  8
BORDER
100
AcDbText
 10
14.45808700369694
 20
0.3539194570580584
 30
0.0
 40
0.1
  1
B
  7
ROMANS
 72
     1
 11
14.51046795607789
 21
0.3539194570580584
 31
0.0
100
AcDbText
  0
LINE
  5
3F4E
330
1E
100
AcDbEntity
  8
BORDER
 62
     7
100
AcDbLine
 10
14.08423751837659
 20
0.3013358716206689
 30
0.0
 11
14.08423751837659
 21
2.310664685980217
 31
0.0
  0
TEXT
  5
3F4F
330
1E
100
AcDbEntity
  8
BORDER
100
AcDbText
 10
14.13838683215874
 20
0.3538095471564908
 30
0.0
 40
0.08
  1
SIZE   SHEET         OF     
  7
ROMANS
100
AcDbText
  0
TEXT
  5
3F50
330
1E
100
AcDbEntity
  8
BORDER
100
AcDbText
 10
14.15686668632682
 20
1.340125519652666
 30
0.0
 40
0.06
  1
THIS DRAWING IS PROPERTY OF
100
AcDbText
  0
TEXT
  5
3F51
330
1E
100
AcDbEntity
  8
BORDER
100
AcDbText
 10
14.15686668632682
 20
1.040125519652654
 30
0.0
 40
0.06
  1
AS AUTHORIZED IN WRITING BY
100
AcDbText
  0
TEXT
  5
3F52
330
1E
100
AcDbEntity
  8
BORDER
100
AcDbText
 10
14.15686668632682
 20
0.9401255196526605
 30
0.0
 40
0.06
  1
ROCKWELL AUTOMATION.
100
AcDbText
  0
TEXT
  5
3F53
330
1E
100
AcDbEntity
  8
BORDER
100
AcDbText
 10
13.1261292903136
 20
0.3963337397533344
 30
0.0
 40
0.09375
  1
10/11/06
  7
ROMANS
100
AcDbText
  0
TEXT
  5
3F54
330
1E
100
AcDbEntity
  8
BORDER
100
AcDbText
 10
14.13838683215874
 20
0.7411669347464205
 30
0.0
 40
0.06
  1
DWG.
  7
ROMANS
100
AcDbText
  0
TEXT
  5
3F55
330
1E
100
AcDbEntity
  8
BORDER
100
AcDbText
 10
14.13838683215874
 20
0.6078336014130948
 30
0.0
 40
0.06
  1
NO.
  7
ROMANS
100
AcDbText
  0
LINE
  5
3F57
330
1E
100
AcDbEntity
  8
BORDER
 62
     7
100
AcDbLine
 10
16.16423529139655
 20
0.8813526737798476
 30
0.0
 11
16.16423529139655
 21
0.5013329898443751
 31
0.0
  0
TEXT
  5
3F58
330
1E
100
AcDbEntity
  8
BORDER
100
AcDbText
 10
16.2988682206034
 20
0.5895054857508378
 30
0.0
 40
0.1
  1
1
  7
ROMANS
 72
     1
 11
16.33934441107959
 21
0.5895054857508378
 31
0.0
100
AcDbText
  0
ARC
  5
42EF
330
1E
100
AcDbEntity
  8
OBJECT
 62
     7
100
AcDbCircle
 10
9.949086981120087
 20
5.42031243669598
 30
0.0
 40
0.1975390280867369
100
AcDbArc
 50
270.0
 51
0.0
  0
ARC
  5
42F1
330
1E
100
AcDbEntity
  8
OBJECT
 62
     7
100
AcDbCircle
 10
9.949086981120087
 20
5.815390492869457
 30
0.0
 40
0.1975390280867369
100
AcDbArc
 50
0.0
 51
90.0
  0
LINE
  5
42F6
330
1E
100
AcDbEntity
  8
OBJECT
 62
     7
100
AcDbLine
 10
10.1663799120155
 20
6.408005167153524
 30
0.0
 11
9.336715994051203
 21
6.408005167153524
 31
0.0
  0
LINE
  5
42F8
330
1E
100
AcDbEntity
  8
CENTER
 62
     3
100
AcDbLine
 10
9.190367233653644
 20
5.617839407000444
 30
0.0
 11
10.32628355952276
 21
5.617839407000444
 31
0.0
  0
ARC
  5
4305
330
1E
100
AcDbEntity
  8
OBJECT
 62
     7
100
AcDbCircle
 10
5.568588491226289
 20
6.388251264344848
 30
0.0
 40
0.0197539028086737
100
AcDbArc
 50
0.0
 51
90.0
  0
LINE
  5
430E
330
1E
100
AcDbEntity
  8
CENTER
 62
     3
100
AcDbLine
 10
6.288652951953996
 20
5.617839407000444
 30
0.0
 11
5.393818273453248
 21
5.617839407000444
 31
0.0
  0
LINE
  5
430F
330
1E
100
AcDbEntity
  8
OBJECT
 62
     7
100
AcDbLine
 10
3.478624459948493
 20
5.815388683411963
 30
0.0
 11
5.588342394034969
 21
5.815388683411963
 31
0.0
  0
LINE
  5
4310
330
1E
100
AcDbEntity
  8
OBJECT
 62
     7
100
AcDbLine
 10
3.510237306196689
 20
5.301776962061665
 30
0.0
 11
5.596247751858555
 21
5.301776962061665
 31
0.0
  0
LINE
  5
4318
330
1E
100
AcDbEntity
  8
CENTER
 62
     3
100
AcDbLine
 10
4.114701125984488
 20
7.421557976726298
 30
0.0
 11
4.114701125984488
 21
6.549980614959057
 31
0.0
  0
LINE
  5
431B
330
1E
100
AcDbEntity
  8
OBJECT
 62
     7
100
AcDbLine
 10
4.424835487801024
 20
6.763575417709651
 30
0.0
 11
5.536982128208997
 21
6.763575417709651
 31
0.0
  0
LINE
  5
4320
330
1E
100
AcDbEntity
  8
OBJECT
 62
     7
100
AcDbLine
 10
5.394755292236322
 20
6.724067612092301
 30
0.0
 11
3.656411845073039
 21
6.724067612092301
 31
0.0
  0
LINE
  5
4321
330
1E
100
AcDbEntity
  8
OBJECT
 62
     7
100
AcDbLine
 10
5.394755292236322
 20
6.427759069962197
 30
0.0
 11
3.656411845073039
 21
6.427759069962197
 31
0.0
  0
LINE
  5
4322
330
1E
100
AcDbEntity
  8
OBJECT
 62
     7
100
AcDbLine
 10
5.568588491226289
 20
6.408005167153524
 30
0.0
 11
3.498378362757168
 21
6.408005167153524
 31
0.0
  0
ARC
  5
4323
330
1E
100
AcDbEntity
  8
OBJECT
 62
     7
100
AcDbCircle
 10
3.833541231645806
 20
5.854896489029307
 30
0.0
 40
0.0395078056173474
100
AcDbArc
 50
180.9548035
 51
270.0
  0
LINE
  5
432A
330
1E
100
AcDbEntity
  8
OBJECT
 62
     7
100
AcDbLine
 10
3.450975597770671
 20
5.361038670487692
 30
0.0
 11
3.450975597770671
 21
6.198605836558751
 31
0.0
  0
ARC
  5
4330
330
1E
100
AcDbEntity
  8
OBJECT
 62
     7
100
AcDbCircle
 10
3.510237306196689
 20
5.361038670487692
 30
0.0
 40
0.0592617084260211
100
AcDbArc
 50
180.0
 51
270.0
  0
LINE
  5
4336
330
1E
100
AcDbEntity
  8
OBJECT
 62
     7
100
AcDbLine
 10
3.784809953482941
 20
6.408005167153524
 30
0.0
 11
3.794038095851089
 21
5.85423487156254
 31
0.0
  0
LINE
  5
4337
330
1E
100
AcDbEntity
  8
OBJECT
 62
     7
100
AcDbLine
 10
3.478624459948493
 20
5.815388683411963
 30
0.0
 11
3.478624459948493
 21
6.388251264344848
 31
0.0
  0
LINE
  5
433D
330
1E
100
AcDbEntity
  8
OBJECT
 62
     7
100
AcDbLine
 10
3.450970923997271
 20
6.261826404892756
 30
0.0
 11
3.478624459948493
 21
6.261826404892756
 31
0.0
  0
LINE
  5
433E
330
1E
100
AcDbEntity
  8
OBJECT
 62
     7
100
AcDbLine
 10
3.450970923997271
 20
5.939831400699203
 30
0.0
 11
3.478624459948493
 21
5.939831400699203
 31
0.0
  0
LINE
  5
433F
330
1E
100
AcDbEntity
  8
OBJECT
 62
     7
100
AcDbLine
 10
3.450970923997271
 20
5.941815952840196
 30
0.0
 11
3.450970923997271
 21
6.261826404892756
 31
0.0
  0
ARC
  5
4347
330
1E
100
AcDbEntity
  8
OBJECT
 62
     7
100
AcDbCircle
 10
3.656411845073039
 20
6.704313709283633
 30
0.0
 40
0.0197539028086737
100
AcDbArc
 50
90.0
 51
180.0009003000001
  0
ARC
  5
4348
330
1E
100
AcDbEntity
  8
OBJECT
 62
     7
100
AcDbCircle
 10
3.656416668976106
 20
6.447512972770866
 30
0.0
 40
0.0197539028086737
100
AcDbArc
 50
180.0009003000001
 51
270.0
  0
ARC
  5
4349
330
1E
100
AcDbEntity
  8
OBJECT
 62
     7
100
AcDbCircle
 10
3.498378362757168
 20
6.388251264344848
 30
0.0
 40
0.0197539028086737
100
AcDbArc
 50
90.0
 51
180.0
  0
LINE
  5
434A
330
1E
100
AcDbEntity
  8
OBJECT
 62
     7
100
AcDbLine
 10
3.636662766167432
 20
6.447512972770866
 30
0.0
 11
3.636657942264363
 21
6.704313709283633
 31
0.0
  0
LINE
  5
434B
330
1E
100
AcDbEntity
  8
OBJECT
 62
     7
100
AcDbLine
 10
3.61690403945569
 20
6.407993409630574
 30
0.0
 11
3.616901779609214
 21
6.763563660186701
 31
0.0
  0
LINE
  5
434C
330
1E
100
AcDbEntity
  8
OBJECT
 62
     7
100
AcDbLine
 10
3.498378362757168
 20
6.408005167153524
 30
0.0
 11
3.498378362757168
 21
6.649210079306252
 31
0.0
  0
LINE
  5
4355
330
1E
100
AcDbEntity
  8
OBJECT
 62
     7
100
AcDbLine
 10
4.278657373570121
 20
6.408005167153524
 30
0.0
 11
4.269429077121532
 21
5.85423487156254
 31
0.0
  0
ARC
  5
4356
330
1E
100
AcDbEntity
  8
OBJECT
 62
     7
100
AcDbCircle
 10
4.229926095407247
 20
5.854896489029307
 30
0.0
 40
0.0395078056173474
100
AcDbArc
 50
270.0
 51
359.0451965
  0
LINE
  5
4357
330
1E
100
AcDbEntity
  8
CENTER
 62
     3
100
AcDbLine
 10
4.031733738591359
 20
5.828602494712648
 30
0.0
 11
4.031733738591359
 21
6.218096382305537
 31
0.0
  0
CIRCLE
  5
4358
330
1E
100
AcDbEntity
  8
OBJECT
 62
     7
100
AcDbCircle
 10
4.031733738591359
 20
6.012927711498697
 30
0.0
 40
0.0849417860280775
  0
CIRCLE
  5
435A
330
1E
100
AcDbEntity
  8
OBJECT
 62
     7
100
AcDbCircle
 10
4.031733738591359
 20
6.012929520956195
 30
0.0
 40
0.1027202906543226
  0
CIRCLE
  5
435C
330
1E
100
AcDbEntity
  8
OBJECT
 62
     7
100
AcDbCircle
 10
4.031733738591359
 20
6.012927711498697
 30
0.0
 40
0.1027202906543226
  0
CIRCLE
  5
435D
330
1E
100
AcDbEntity
  8
OBJECT
 62
     7
100
AcDbCircle
 10
4.031733738591359
 20
6.012927711498697
 30
0.0
 40
0.1580312224693895
  0
LINE
  5
435E
330
1E
100
AcDbEntity
  8
CENTER
 62
     3
100
AcDbLine
 10
3.829218617930354
 20
6.012929520956195
 30
0.0
 11
4.232465054746562
 21
6.012929520956195
 31
0.0
  0
LINE
  5
4364
330
1E
100
AcDbEntity
  8
OBJECT
 62
     7
100
AcDbLine
 10
5.282156600241197
 20
6.408005167153524
 30
0.0
 11
5.272925893816468
 21
5.854172476885123
 31
0.0
  0
LINE
  5
4365
330
1E
100
AcDbEntity
  8
OBJECT
 62
     7
100
AcDbLine
 10
4.797537022262844
 20
5.85423487156254
 30
0.0
 11
4.788309030024358
 21
6.408005167153524
 31
0.0
  0
CIRCLE
  5
4366
330
1E
100
AcDbEntity
  8
OBJECT
 62
     7
100
AcDbCircle
 10
5.035232815132777
 20
6.012927711498697
 30
0.0
 40
0.1580312224693895
  0
LINE
  5
4367
330
1E
100
AcDbEntity
  8
CENTER
 62
     3
100
AcDbLine
 10
4.82821736539128
 20
6.012929520956195
 30
0.0
 11
5.253965649746092
 21
6.012929520956195
 31
0.0
  0
LINE
  5
436A
330
1E
100
AcDbEntity
  8
CENTER
 62
     3
100
AcDbLine
 10
5.035232815132777
 20
5.828602494712648
 30
0.0
 11
5.035232815132777
 21
6.218096382305541
 31
0.0
  0
ARC
  5
436B
330
1E
100
AcDbEntity
  8
OBJECT
 62
     7
100
AcDbCircle
 10
4.837040308187228
 20
5.854896489029307
 30
0.0
 40
0.0395078056173474
100
AcDbArc
 50
180.9548035
 51
270.0
  0
CIRCLE
  5
436D
330
1E
100
AcDbEntity
  8
OBJECT
 62
     7
100
AcDbCircle
 10
5.035232815132777
 20
6.012929520956195
 30
0.0
 40
0.1027202906543226
  0
CIRCLE
  5
436E
330
1E
100
AcDbEntity
  8
OBJECT
 62
     7
100
AcDbCircle
 10
5.035232815132777
 20
6.012927711498697
 30
0.0
 40
0.1027202906543226
  0
CIRCLE
  5
436F
330
1E
100
AcDbEntity
  8
OBJECT
 62
     7
100
AcDbCircle
 10
5.035232815132777
 20
6.012927711498697
 30
0.0
 40
0.0849417860280775
  0
ARC
  5
4370
330
1E
100
AcDbEntity
  8
OBJECT
 62
     7
100
AcDbCircle
 10
5.233425322078327
 20
5.854896489029307
 30
0.0
 40
0.0395078056173474
100
AcDbArc
 50
270.0
 51
359.0451049999999
  0
ARC
  5
4371
330
1E
100
AcDbEntity
  8
OBJECT
 62
     7
100
AcDbCircle
 10
5.536982128208997
 20
6.731965435777365
 30
0.0
 40
0.0316062444938779
100
AcDbArc
 50
0.0
 51
90.0
  0
LINE
  5
4372
330
1E
100
AcDbEntity
  8
OBJECT
 62
     7
100
AcDbLine
 10
5.568588491226289
 20
6.408005167153524
 30
0.0
 11
5.568588491226289
 21
6.731965435777365
 31
0.0
  0
ARC
  5
4373
330
1E
100
AcDbEntity
  8
OBJECT
 62
     7
100
AcDbCircle
 10
5.394755292236322
 20
6.704313709283633
 30
0.0
 40
0.0197539028086737
100
AcDbArc
 50
0.0008743000000737
 51
90.0
  0
ARC
  5
4374
330
1E
100
AcDbEntity
  8
OBJECT
 62
     7
100
AcDbCircle
 10
5.394760116139389
 20
6.447512972770866
 30
0.0
 40
0.0197539028086737
100
AcDbArc
 50
270.0
 51
0.0008743000000737
  0
LINE
  5
4375
330
1E
100
AcDbEntity
  8
OBJECT
 62
     7
100
AcDbLine
 10
5.414514018948068
 20
6.447512972770866
 30
0.0
 11
5.414509195045001
 21
6.704313709283633
 31
0.0
  0
LINE
  5
4376
330
1E
100
AcDbEntity
  8
OBJECT
 62
     7
100
AcDbLine
 10
5.450064774114929
 20
6.408005167153524
 30
0.0
 11
5.450064774114929
 21
6.763575417709651
 31
0.0
  0
LINE
  5
4396
330
1E
100
AcDbEntity
  8
CENTER
 62
     3
100
AcDbLine
 10
9.751547953033345
 20
7.396569601784987
 30
0.0
 11
9.751547953033345
 21
5.161155794423335
 31
0.0
  0
LINE
  5
439A
330
1E
100
AcDbEntity
  8
OBJECT
 62
     7
100
AcDbLine
 10
5.62784628047799
 20
5.222773408609252
 30
0.0
 11
5.62784628047799
 21
6.012929520956195
 31
0.0
  0
LINE
  5
439B
330
1E
100
AcDbEntity
  8
OBJECT
 62
     7
100
AcDbLine
 10
6.220463364738206
 20
5.400558533887306
 30
0.0
 11
6.220463364738206
 21
5.835144395678131
 31
0.0
  0
LINE
  5
439C
330
1E
100
AcDbEntity
  8
OBJECT
 62
     7
100
AcDbLine
 10
5.983416531034118
 20
5.973421715338851
 30
0.0
 11
5.983416531034118
 21
5.262281214226595
 31
0.0
  0
LINE
  5
439D
330
1E
100
AcDbEntity
  8
OBJECT
 62
     7
100
AcDbLine
 10
5.61599773944369
 20
5.321526040967271
 30
0.0
 11
5.61599773944369
 21
6.261826404892756
 31
0.0
  0
ARC
  5
439F
330
1E
100
AcDbEntity
  8
OBJECT
 62
     7
100
AcDbCircle
 10
5.943908725416779
 20
5.262281214226595
 30
0.0
 40
0.0395078056173474
100
AcDbArc
 50
270.0
 51
0.0
  0
LINE
  5
43A4
330
1E
100
AcDbEntity
  8
OBJECT
 62
     7
100
AcDbLine
 10
5.62784628047799
 20
5.222773408609252
 30
0.0
 11
5.943908725416779
 21
5.222773408609252
 31
0.0
  0
LINE
  5
43A9
330
1E
100
AcDbEntity
  8
OBJECT
 62
     7
100
AcDbLine
 10
5.983416531034118
 20
5.380804631078632
 30
0.0
 11
6.200709461929525
 21
5.380804631078632
 31
0.0
  0
LINE
  5
43AA
330
1E
100
AcDbEntity
  8
OBJECT
 62
     7
100
AcDbLine
 10
5.62784628047799
 20
5.333376095150534
 30
0.0
 11
5.616001654667225
 21
5.321530864870338
 31
0.0
  0
ARC
  5
43AB
330
1E
100
AcDbEntity
  8
OBJECT
 62
     7
100
AcDbCircle
 10
5.596247751858555
 20
5.321530864870338
 30
0.0
 40
0.0197539028086737
100
AcDbArc
 50
270.0
 51
0.0
  0
ARC
  5
43AC
330
1E
100
AcDbEntity
  8
OBJECT
 62
     7
100
AcDbCircle
 10
6.200709461929525
 20
5.400558533887306
 30
0.0
 40
0.0197539028086737
100
AcDbArc
 50
270.0
 51
0.0
  0
LINE
  5
43AF
330
1E
100
AcDbEntity
  8
OBJECT
 62
     7
100
AcDbLine
 10
5.58834239403496
 20
5.815388683411963
 30
0.0
 11
5.58834239403496
 21
6.388251264344848
 31
0.0
  0
LINE
  5
43B0
330
1E
100
AcDbEntity
  8
OBJECT
 62
     7
100
AcDbLine
 10
5.983416531034118
 20
5.854898298486806
 30
0.0
 11
6.200709461929525
 21
5.854898298486806
 31
0.0
  0
ARC
  5
43B1
330
1E
100
AcDbEntity
  8
OBJECT
 62
     7
100
AcDbCircle
 10
5.943908725416779
 20
5.973421715338851
 30
0.0
 40
0.0395078056173474
100
AcDbArc
 50
0.0
 51
90.0
  0
LINE
  5
43B2
330
1E
100
AcDbEntity
  8
OBJECT
 62
     7
100
AcDbLine
 10
5.62784628047799
 20
6.012929520956195
 30
0.0
 11
5.943908725416779
 21
6.012929520956195
 31
0.0
  0
LINE
  5
43B3
330
1E
100
AcDbEntity
  8
OBJECT
 62
     7
100
AcDbLine
 10
5.58834239403496
 20
6.261826404892756
 30
0.0
 11
5.61599773944369
 21
6.261826404892756
 31
0.0
  0
LINE
  5
43B4
330
1E
100
AcDbEntity
  8
OBJECT
 62
     7
100
AcDbLine
 10
5.58834239403496
 20
5.939831400699203
 30
0.0
 11
5.61599773944369
 21
5.939831400699203
 31
0.0
  0
LINE
  5
43B5
330
1E
100
AcDbEntity
  8
OBJECT
 62
     7
100
AcDbLine
 10
5.616001654667225
 20
5.914147949130555
 30
0.0
 11
5.62784628047799
 21
5.902305737246706
 31
0.0
  0
LINE
  5
43B6
330
1E
100
AcDbEntity
  8
OBJECT
 62
     7
100
AcDbLine
 10
5.616001654667225
 20
6.198605836558751
 30
0.0
 11
5.616001654667225
 21
5.914147949130555
 31
0.0
  0
ARC
  5
43B7
330
1E
100
AcDbEntity
  8
OBJECT
 62
     7
100
AcDbCircle
 10
6.200709461929525
 20
5.835144395678131
 30
0.0
 40
0.0197539028086737
100
AcDbArc
 50
0.0
 51
90.0
  0
LINE
  5
43BE
330
1E
100
AcDbEntity
  8
OBJECT
 62
     7
100
AcDbLine
 10
9.356469896859882
 20
5.815390492869457
 30
0.0
 11
9.356469896859882
 21
5.42031243669598
 31
0.0
  0
CIRCLE
  5
43BF
330
1E
100
AcDbEntity
  8
OBJECT
 62
     7
100
AcDbCircle
 10
9.751547953033345
 20
5.617839407000444
 30
0.0
 40
0.2370468337040843
  0
CIRCLE
  5
43C0
330
1E
100
AcDbEntity
  8
OBJECT
 62
     7
100
AcDbCircle
 10
9.751547953033345
 20
5.617839407000444
 30
0.0
 40
0.2963085421301054
  0
ARC
  5
43C2
330
1E
100
AcDbEntity
  8
OBJECT
 62
     7
100
AcDbCircle
 10
9.554008924946611
 20
5.42031243669598
 30
0.0
 40
0.1975390280867369
100
AcDbArc
 50
180.0
 51
270.0
  0
LINE
  5
43C3
330
1E
100
AcDbEntity
  8
OBJECT
 62
     7
100
AcDbLine
 10
9.554008924946611
 20
5.222773408609252
 30
0.0
 11
9.949086981120087
 21
5.222773408609252
 31
0.0
  0
CIRCLE
  5
43C8
330
1E
100
AcDbEntity
  8
OBJECT
 62
     7
100
AcDbCircle
 10
9.751547953033345
 20
5.617839407000444
 30
0.0
 40
0.1185234168520421
  0
LINE
  5
43C9
330
1E
100
AcDbEntity
  8
OBJECT
 62
     7
100
AcDbLine
 10
9.322888021087514
 20
6.389160046594346
 30
0.0
 11
9.322888021087514
 21
5.815388683411963
 31
0.0
  0
LINE
  5
43CA
330
1E
100
AcDbEntity
  8
OBJECT
 62
     7
100
AcDbLine
 10
9.554008924946611
 20
6.012929520956195
 30
0.0
 11
9.949086981120087
 21
6.012929520956195
 31
0.0
  0
LINE
  5
43CB
330
1E
100
AcDbEntity
  8
OBJECT
 62
     7
100
AcDbLine
 10
9.405854653881563
 20
6.269727847492813
 30
0.0
 11
10.09724125218514
 21
6.269727847492813
 31
0.0
  0
LINE
  5
43CC
330
1E
100
AcDbEntity
  8
OBJECT
 62
     7
100
AcDbLine
 10
9.593516730563958
 20
6.21835973936743
 30
0.0
 11
9.909579175502738
 21
6.21835973936743
 31
0.0
  0
LINE
  5
43CD
330
1E
100
AcDbEntity
  8
OBJECT
 62
     7
100
AcDbLine
 10
9.405854653881563
 20
6.261826404892756
 30
0.0
 11
9.534255022137937
 21
6.261826404892756
 31
0.0
  0
LINE
  5
43CE
330
1E
100
AcDbEntity
  8
OBJECT
 62
     7
100
AcDbLine
 10
9.534255022137937
 20
6.105762556570475
 30
0.0
 11
9.593516730563958
 21
6.105762556570475
 31
0.0
  0
LINE
  5
43CF
330
1E
100
AcDbEntity
  8
OBJECT
 62
     7
100
AcDbLine
 10
9.534255022137937
 20
6.086008653761801
 30
0.0
 11
9.593516730563958
 21
6.086008653761801
 31
0.0
  0
ARC
  5
43D0
330
1E
100
AcDbEntity
  8
OBJECT
 62
     7
100
AcDbCircle
 10
9.554008924946611
 20
5.815390492869457
 30
0.0
 40
0.1975390280867369
100
AcDbArc
 50
90.0
 51
180.0
  0
LINE
  5
43D1
330
1E
100
AcDbEntity
  8
OBJECT
 62
     7
100
AcDbLine
 10
9.322888021087514
 20
5.815388683411963
 30
0.0
 11
9.356469896859882
 21
5.815388683411963
 31
0.0
  0
LINE
  5
43D2
330
1E
100
AcDbEntity
  8
OBJECT
 62
     7
100
AcDbLine
 10
9.554008924946611
 20
6.159098030941407
 30
0.0
 11
9.554008924946611
 21
6.105762556570475
 31
0.0
  0
LINE
  5
43D3
330
1E
100
AcDbEntity
  8
OBJECT
 62
     7
100
AcDbLine
 10
9.593516730563958
 20
6.21835973936743
 30
0.0
 11
9.554008924946611
 21
6.159098030941407
 31
0.0
  0
LINE
  5
43D4
330
1E
100
AcDbEntity
  8
OBJECT
 62
     7
100
AcDbLine
 10
9.593516730563958
 20
6.105762556570475
 30
0.0
 11
9.593516730563958
 21
6.012929520956195
 31
0.0
  0
LINE
  5
43D5
330
1E
100
AcDbEntity
  8
OBJECT
 62
     7
100
AcDbLine
 10
9.405854653881563
 20
6.269727847492813
 30
0.0
 11
9.405854653881563
 21
5.946050308578312
 31
0.0
  0
LINE
  5
43D6
330
1E
100
AcDbEntity
  8
OBJECT
 62
     7
100
AcDbLine
 10
9.534255022137948
 20
6.261826404892756
 30
0.0
 11
9.534255022137948
 21
6.011938447898375
 31
0.0
  0
LINE
  5
43D7
330
1E
100
AcDbEntity
  8
OBJECT
 62
     7
100
AcDbLine
 10
9.968840883928763
 20
6.261826404892756
 30
0.0
 11
10.09724125218514
 21
6.261826404892756
 31
0.0
  0
LINE
  5
43D8
330
1E
100
AcDbEntity
  8
OBJECT
 62
     7
100
AcDbLine
 10
9.909579175502738
 20
6.105762556570475
 30
0.0
 11
9.968840883928763
 21
6.105762556570475
 31
0.0
  0
LINE
  5
43D9
330
1E
100
AcDbEntity
  8
OBJECT
 62
     7
100
AcDbLine
 10
9.909579175502738
 20
6.086008653761801
 30
0.0
 11
9.968840883928763
 21
6.086008653761801
 31
0.0
  0
LINE
  5
43DA
330
1E
100
AcDbEntity
  8
OBJECT
 62
     7
100
AcDbLine
 10
9.949086981120087
 20
6.159098030941407
 30
0.0
 11
9.949086981120087
 21
6.105762556570475
 31
0.0
  0
LINE
  5
43DB
330
1E
100
AcDbEntity
  8
OBJECT
 62
     7
100
AcDbLine
 10
9.909579175502738
 20
6.21835973936743
 30
0.0
 11
9.949086981120087
 21
6.159098030941407
 31
0.0
  0
LINE
  5
43DC
330
1E
100
AcDbEntity
  8
OBJECT
 62
     7
100
AcDbLine
 10
9.909579175502738
 20
6.105762556570475
 30
0.0
 11
9.909579175502738
 21
6.012929520956195
 31
0.0
  0
LINE
  5
43DD
330
1E
100
AcDbEntity
  8
OBJECT
 62
     7
100
AcDbLine
 10
9.668581320239312
 20
6.012929520956195
 30
0.0
 11
9.810805442025728
 21
6.012929520956195
 31
0.0
  0
LINE
  5
43DE
330
1E
100
AcDbEntity
  8
OBJECT
 62
     7
100
AcDbLine
 10
10.09724125218514
 20
6.269727847492813
 30
0.0
 11
10.09724125218514
 21
5.946050308578312
 31
0.0
  0
LINE
  5
43DF
330
1E
100
AcDbEntity
  8
OBJECT
 62
     7
100
AcDbLine
 10
9.968840883928763
 20
6.261826404892756
 30
0.0
 11
9.968840883928763
 21
6.011938447898375
 31
0.0
  0
ARC
  5
43E2
330
1E
100
AcDbEntity
  8
OBJECT
 62
     7
100
AcDbCircle
 10
9.342641923896195
 20
6.389160046594346
 30
0.0
 40
0.0197539028086737
100
AcDbArc
 50
107.4576034999999
 51
180.0
  0
LINE
  5
4400
330
1E
100
AcDbEntity
  8
OBJECT
 62
     7
100
AcDbLine
 10
10.14662600920682
 20
5.815390492869457
 30
0.0
 11
10.14662600920682
 21
5.42031243669598
 31
0.0
  0
LINE
  5
4405
330
1E
100
AcDbEntity
  8
OBJECT
 62
     7
100
AcDbLine
 10
10.18020728050976
 20
6.389160046594346
 30
0.0
 11
10.18020728050976
 21
5.815388683411963
 31
0.0
  0
LINE
  5
4406
330
1E
100
AcDbEntity
  8
OBJECT
 62
     7
100
AcDbLine
 10
10.14662600920682
 20
5.815388683411963
 30
0.0
 11
10.18020728050976
 21
5.815388683411963
 31
0.0
  0
ARC
  5
4409
330
1E
100
AcDbEntity
  8
OBJECT
 62
     7
100
AcDbCircle
 10
10.16045337770108
 20
6.389160046594346
 30
0.0
 40
0.0197539028086737
100
AcDbArc
 50
0.0
 51
72.54221339999997
  0
LINE
  5
445A
330
1E
100
AcDbEntity
  8
DIM
 62
     1
100
AcDbLine
 10
5.616001654667229
 20
5.259030864870338
 30
0.0
 11
5.616001654667229
 21
4.487776188331011
 31
0.0
  0
LINE
  5
445B
330
1E
100
AcDbEntity
  8
DIM
 62
     1
100
AcDbLine
 10
3.450975597770668
 20
5.298538670487692
 30
0.0
 11
3.450975597770668
 21
4.487776188331011
 31
0.0
  0
LINE
  5
445C
330
1E
100
AcDbEntity
  8
DIM
 62
     1
100
AcDbLine
 10
5.466001654667229
 20
4.550276188331011
 30
0.0
 11
4.796828645175071
 21
4.550276188331011
 31
0.0
  0
LINE
  5
445D
330
1E
100
AcDbEntity
  8
DIM
 62
     1
100
AcDbLine
 10
3.600975597770668
 20
4.550276188331011
 30
0.0
 11
4.270148555256334
 21
4.550276188331011
 31
0.0
  0
SOLID
  5
445E
330
1E
100
AcDbEntity
  8
DIM
 62
     1
100
AcDbTrace
 10
5.466001654667229
 20
4.575276188331011
 30
0.0
 11
5.466001654667229
 21
4.525276188331011
 31
0.0
 12
5.616001654667229
 22
4.550276188331011
 32
0.0
 13
5.616001654667229
 23
4.550276188331011
 33
0.0
  0
SOLID
  5
445F
330
1E
100
AcDbEntity
  8
DIM
 62
     1
100
AcDbTrace
 10
3.600975597770668
 20
4.575276188331011
 30
0.0
 11
3.600975597770668
 21
4.525276188331011
 31
0.0
 12
3.450975597770668
 22
4.550276188331011
 32
0.0
 13
3.450975597770668
 23
4.550276188331011
 33
0.0
  0
MTEXT
  5
4460
330
1E
100
AcDbEntity
  8
DIM
 62
     7
100
AcDbMText
 10
4.533488626218948
 20
4.550276188331011
 30
0.0
 40
0.09
 41
0.0
 71
     5
 72
     1
  1
55\P[2.165]
 73
     1
 44
1.0
1001
ACAD
1000
MTEXTBEGIN
1070
    73
1070
     1
1070
    44
1040
1.0
1070
    74
1070
     0
1000
MTEXTEND
  0
LINE
  5
4461
330
1E
100
AcDbEntity
  8
DIM
 62
     1
100
AcDbLine
 10
4.031733738591359
 20
5.808199974748059
 30
0.0
 11
4.031733738591359
 21
4.9113771274015
 31
0.0
  0
LINE
  5
4462
330
1E
100
AcDbEntity
  8
DIM
 62
     1
100
AcDbLine
 10
5.035232815132777
 20
5.808199974748059
 30
0.0
 11
5.035232815132777
 21
4.9113771274015
 31
0.0
  0
LINE
  5
4463
330
1E
100
AcDbEntity
  8
DIM
 62
     1
100
AcDbLine
 10
3.881733738591359
 20
4.9738771274015
 30
0.0
 11
3.731733738591358
 21
4.9738771274015
 31
0.0
  0
LINE
  5
4464
330
1E
100
AcDbEntity
  8
DIM
 62
     1
100
AcDbLine
 10
5.185232815132778
 20
4.9738771274015
 30
0.0
 11
5.335232815132777
 21
4.9738771274015
 31
0.0
  0
SOLID
  5
4465
330
1E
100
AcDbEntity
  8
DIM
 62
     1
100
AcDbTrace
 10
3.881733738591359
 20
4.998877127401501
 30
0.0
 11
3.881733738591359
 21
4.9488771274015
 31
0.0
 12
4.031733738591359
 22
4.9738771274015
 32
0.0
 13
4.031733738591359
 23
4.9738771274015
 33
0.0
  0
SOLID
  5
4466
330
1E
100
AcDbEntity
  8
DIM
 62
     1
100
AcDbTrace
 10
5.185232815132778
 20
4.998877127401501
 30
0.0
 11
5.185232815132778
 21
4.9488771274015
 31
0.0
 12
5.035232815132777
 22
4.9738771274015
 32
0.0
 13
5.035232815132777
 23
4.9738771274015
 33
0.0
  0
MTEXT
  5
4467
330
1E
100
AcDbEntity
  8
DIM
 62
     7
100
AcDbMText
 10
4.533483276862068
 20
4.9738771274015
 30
0.0
 40
0.09
 41
0.0
 71
     5
 72
     1
  1
25.4%%P0.15\P[1.00±0.59]
 73
     1
 44
1.0
1001
ACAD
1000
MTEXTBEGIN
1070
    73
1070
     1
1070
    44
1040
1.0
1070
    74
1070
     0
1000
MTEXTEND
  0
LINE
  5
4468
330
1E
100
AcDbEntity
  8
DIM
 62
     1
100
AcDbLine
 10
5.616001654667225
 20
5.259030864870338
 30
0.0
 11
5.616001654667225
 21
4.488413993181602
 31
0.0
  0
LINE
  5
4469
330
1E
100
AcDbEntity
  8
DIM
 62
     1
100
AcDbLine
 10
6.220463364738206
 20
5.338058533887306
 30
0.0
 11
6.220463364738206
 21
4.488413993181602
 31
0.0
  0
MTEXT
  5
446E
330
1E
100
AcDbEntity
  8
DIM
 62
     7
100
AcDbMText
 10
5.953421068492574
 20
4.550913993181602
 30
0.0
 40
0.09
 41
0.0
 71
     5
 72
     1
  1
15\P[.59]
 73
     1
 44
1.0
1001
ACAD
1000
MTEXTBEGIN
1070
    73
1070
     1
1070
    44
1040
1.0
1070
    74
1070
     0
1000
MTEXTEND
  0
SOLID
  5
446F
330
1E
100
AcDbEntity
  8
DIM
 62
     1
100
AcDbTrace
 10
6.370463364738206
 20
4.575913993181602
 30
0.0
 11
6.370463364738206
 21
4.525913993181601
 31
0.0
 12
6.220463364738206
 22
4.550913993181602
 32
0.0
 13
6.220463364738206
 23
4.550913993181602
 33
0.0
  0
LINE
  5
4470
330
1E
100
AcDbEntity
  8
DIM
 62
     1
100
AcDbLine
 10
6.526413955120552
 20
4.550913993181602
 30
0.0
 11
6.370463364738206
 21
4.550913993181602
 31
0.0
  0
MTEXT
  5
4472
330
1E
100
AcDbEntity
  8
DIM
 62
     7
100
AcDbMText
 10
7.242747459822823
 20
4.88456304244308
 30
0.0
 40
0.09
 41
0.0
 71
     5
 72
     1
  1
TOW 4.3±0.1\P[.169±.039]\PMOUNTING HOLES
 73
     1
 44
1.0
1001
ACAD
1000
MTEXTBEGIN
1070
    73
1070
     1
1070
    44
1040
1.0
1070
    74
1070
     0
1000
MTEXTEND
  0
MTEXT
  5
4473
330
1E
100
AcDbEntity
  8
DIM
 62
     7
100
AcDbMText
 10
7.845792388712375
 20
4.960991316563848
 30
0.0
 40
0.09
 41
0.0
 71
     5
 72
     1
  1
DIA
 73
     1
 44
1.0
1001
ACAD
1000
MTEXTBEGIN
1070
    73
1070
     1
1070
    44
1040
1.0
1070
    74
1070
     0
1000
MTEXTEND
  0
LINE
  5
4474
330
1E
100
AcDbEntity
  8
DIM
 62
     1
100
AcDbLine
 10
5.532729188424809
 20
6.801267180684137
 30
0.0
 11
6.126415651101453
 21
6.801267180684135
 31
0.0
  0
LINE
  5
4475
330
1E
100
AcDbEntity
  8
DIM
 62
     1
100
AcDbLine
 10
5.316465649746092
 20
6.012929520956195
 30
0.0
 11
7.373846300063775
 21
6.012929520956195
 31
0.0
  0
LINE
  5
4476
330
1E
100
AcDbEntity
  8
DIM
 62
     1
100
AcDbLine
 10
6.072813938039743
 20
6.651267180684136
 30
0.0
 11
6.072813938039743
 21
6.585760634512434
 31
0.0
  0
LINE
  5
4477
330
1E
100
AcDbEntity
  8
DIM
 62
     1
100
AcDbLine
 10
6.774887068189677
 20
6.162929520956195
 30
0.0
 11
6.774887068189677
 21
6.407669016821371
 31
0.0
  0
SOLID
  5
4478
330
1E
100
AcDbEntity
  8
DIM
 62
     1
100
AcDbTrace
 10
6.047813938039743
 20
6.651267180684136
 30
0.0
 11
6.097813938039744
 21
6.651267180684136
 31
0.0
 12
6.072813938039743
 22
6.801267180684135
 32
0.0
 13
6.072813938039743
 23
6.801267180684135
 33
0.0
  0
SOLID
  5
4479
330
1E
100
AcDbEntity
  8
DIM
 62
     1
100
AcDbTrace
 10
6.749887068189677
 20
6.162929520956195
 30
0.0
 11
6.799887068189677
 21
6.162929520956195
 31
0.0
 12
6.774887068189677
 22
6.012929520956195
 32
0.0
 13
6.774887068189677
 23
6.012929520956195
 33
0.0
  0
MTEXT
  5
447A
330
1E
100
AcDbEntity
  8
DIM
 62
     7
100
AcDbMText
 10
6.072813938039741
 20
6.405648669622776
 30
0.0
 40
0.09
 41
0.0
 71
     5
 72
     1
  1
20\P[.787]
 73
     1
 44
1.0
1001
ACAD
1000
MTEXTBEGIN
1070
    73
1070
     1
1070
    44
1040
1.0
1070
    74
1070
     0
1000
MTEXTEND
  0
LINE
  5
447B
330
1E
100
AcDbEntity
  8
DIM
 62
     1
100
AcDbLine
 10
6.006408725416779
 20
6.012929520956195
 30
0.0
 11
6.503604565710588
 21
6.012929520956195
 31
0.0
  0
LINE
  5
447C
330
1E
100
AcDbEntity
  8
DIM
 62
     1
100
AcDbLine
 10
6.323337700075325
 20
5.617839407000444
 30
0.0
 11
6.837387068189676
 21
5.617839407000444
 31
0.0
  0
LINE
  5
447D
330
1E
100
AcDbEntity
  8
DIM
 62
     1
100
AcDbLine
 10
6.072813938039743
 20
6.162929520956195
 30
0.0
 11
6.072813938039743
 21
6.238830696516114
 31
0.0
  0
LINE
  5
447E
330
1E
100
AcDbEntity
  8
DIM
 62
     1
100
AcDbLine
 10
6.774887068189676
 20
5.467839407000443
 30
0.0
 11
6.774887068189676
 21
5.317839407000444
 31
0.0
  0
SOLID
  5
447F
330
1E
100
AcDbEntity
  8
DIM
 62
     1
100
AcDbTrace
 10
6.047813938039743
 20
6.162929520956195
 30
0.0
 11
6.097813938039744
 21
6.162929520956195
 31
0.0
 12
6.072813938039743
 22
6.012929520956195
 32
0.0
 13
6.072813938039743
 23
6.012929520956195
 33
0.0
  0
SOLID
  5
4480
330
1E
100
AcDbEntity
  8
DIM
 62
     1
100
AcDbTrace
 10
6.749887068189676
 20
5.467839407000443
 30
0.0
 11
6.799887068189677
 21
5.467839407000443
 31
0.0
 12
6.774887068189676
 22
5.617839407000444
 32
0.0
 13
6.774887068189676
 23
5.617839407000444
 33
0.0
  0
MTEXT
  5
4481
330
1E
100
AcDbEntity
  8
DIM
 62
     7
100
AcDbMText
 10
6.774887068189675
 20
5.815384463978321
 30
0.0
 40
0.09
 41
0.0
 71
     5
 72
     1
  1
10\P[.394]
 73
     1
 44
1.0
1001
ACAD
1000
MTEXTBEGIN
1070
    73
1070
     1
1070
    44
1040
1.0
1070
    74
1070
     0
1000
MTEXTEND
  0
LINE
  5
4482
330
1E
100
AcDbEntity
  8
DIM
 62
     1
100
AcDbLine
 10
3.478624459948493
 20
6.450751264344848
 30
0.0
 11
3.478624459948493
 21
9.321885912931925
 31
0.0
  0
LINE
  5
4483
330
1E
100
AcDbEntity
  8
DIM
 62
     1
100
AcDbLine
 10
5.58834239403496
 20
6.450751264344848
 30
0.0
 11
5.58834239403496
 21
7.066351975112304
 31
0.0
  0
LINE
  5
4484
330
1E
100
AcDbEntity
  8
DIM
 62
     1
100
AcDbLine
 10
3.628624459948493
 20
9.259385912931925
 30
0.0
 11
4.308483426991728
 21
9.259385912931925
 31
0.0
  0
LINE
  5
4485
330
1E
100
AcDbEntity
  8
DIM
 62
     1
100
AcDbLine
 10
5.438342394034959
 20
9.259385912931925
 30
0.0
 11
4.758483426991726
 21
9.259385912931925
 31
0.0
  0
SOLID
  5
4486
330
1E
100
AcDbEntity
  8
DIM
 62
     1
100
AcDbTrace
 10
3.628624459948493
 20
9.284385912931925
 30
0.0
 11
3.628624459948493
 21
9.234385912931925
 31
0.0
 12
3.478624459948493
 22
9.259385912931925
 32
0.0
 13
3.478624459948493
 23
9.259385912931925
 33
0.0
  0
SOLID
  5
4487
330
1E
100
AcDbEntity
  8
DIM
 62
     1
100
AcDbTrace
 10
5.438342394034959
 20
9.284385912931925
 30
0.0
 11
5.438342394034959
 21
9.234385912931925
 31
0.0
 12
5.58834239403496
 22
9.259385912931925
 32
0.0
 13
5.58834239403496
 23
9.259385912931925
 33
0.0
  0
MTEXT
  5
4488
330
1E
100
AcDbEntity
  8
DIM
 62
     7
100
AcDbMText
 10
4.533483426991726
 20
9.259385912931925
 30
0.0
 40
0.09
 41
0.0
 71
     5
 72
     1
  1
53.4\P[2.102]
 73
     1
 44
1.0
1001
ACAD
1000
MTEXTBEGIN
1070
    73
1070
     1
1070
    44
1040
1.0
1070
    74
1070
     0
1000
MTEXTEND
  0
LINE
  5
4489
330
1E
100
AcDbEntity
  8
DIM
 62
     1
100
AcDbLine
 10
4.114701125984488
 20
7.484057976726298
 30
0.0
 11
4.114701125984488
 21
8.577845450169412
 31
0.0
  0
LINE
  5
448B
330
1E
100
AcDbEntity
  8
DIM
 62
     1
100
AcDbLine
 10
4.26470112598449
 20
8.515345450169412
 30
0.0
 11
4.396493520936715
 21
8.515345450169412
 31
0.0
  0
SOLID
  5
448D
330
1E
100
AcDbEntity
  8
DIM
 62
     1
100
AcDbTrace
 10
4.26470112598449
 20
8.540345450169413
 30
0.0
 11
4.26470112598449
 21
8.490345450169412
 31
0.0
 12
4.114701125984488
 22
8.515345450169412
 32
0.0
 13
4.114701125984488
 23
8.515345450169412
 33
0.0
  0
SOLID
  5
448E
330
1E
100
AcDbEntity
  8
DIM
 62
     1
100
AcDbTrace
 10
4.885232815132777
 20
8.540345450169413
 30
0.0
 11
4.885232815132777
 21
8.490345450169412
 31
0.0
 12
5.035232815132777
 22
8.515345450169412
 32
0.0
 13
5.035232815132777
 23
8.515345450169412
 33
0.0
  0
MTEXT
  5
448F
330
1E
100
AcDbEntity
  8
DIM
 62
     7
100
AcDbMText
 10
4.598955848823122
 20
8.515345450169412
 30
0.0
 40
0.09
 41
0.0
 71
     5
 72
     1
  1
23.3\P[.917]
 73
     1
 44
1.0
1001
ACAD
1000
MTEXTBEGIN
1070
    73
1070
     1
1070
    44
1040
1.0
1070
    74
1070
     0
1000
MTEXTEND
  0
LINE
  5
4490
330
1E
100
AcDbEntity
  8
DIM
 62
     1
100
AcDbLine
 10
4.79981410110598
 20
8.515345450169412
 30
0.0
 11
4.885232815132777
 21
8.515345450169412
 31
0.0
  0
LINE
  5
4491
330
1E
100
AcDbEntity
  8
DIM
 62
     1
100
AcDbLine
 10
5.035232815132777
 20
6.280596382305541
 30
0.0
 11
5.035232815132777
 21
7.060377504683052
 31
0.0
  0
LINE
  5
4492
330
1E
100
AcDbEntity
  8
DIM
 62
     1
100
AcDbLine
 10
5.588342394034963
 20
6.450751264344848
 30
0.0
 11
5.588342394034964
 21
7.063364739897679
 31
0.0
  0
MTEXT
  5
4497
330
1E
100
AcDbEntity
  8
DIM
 62
     7
100
AcDbMText
 10
5.318130614632635
 20
8.515345450169412
 30
0.0
 40
0.09
 41
0.0
 71
     5
 72
     1
  1
14\P[.551]
 73
     1
 44
1.0
1001
ACAD
1000
MTEXTBEGIN
1070
    73
1070
     1
1070
    44
1040
1.0
1070
    74
1070
     0
1000
MTEXTEND
  0
LINE
  5
4498
330
1E
100
AcDbEntity
  8
DIM
 62
     1
100
AcDbLine
 10
5.870919405486723
 20
8.515345450169412
 30
0.0
 11
5.738342394034964
 21
8.515345450169412
 31
0.0
  0
SOLID
  5
4499
330
1E
100
AcDbEntity
  8
DIM
 62
     1
100
AcDbTrace
 10
5.738342394034964
 20
8.540345450169413
 30
0.0
 11
5.738342394034964
 21
8.490345450169412
 31
0.0
 12
5.588342394034963
 22
8.515345450169412
 32
0.0
 13
5.588342394034963
 23
8.515345450169412
 33
0.0
  0
LINE
  5
449A
330
1E
100
AcDbEntity
  8
DIM
 62
     1
100
AcDbLine
 10
3.766718617930354
 20
6.012929520956195
 30
0.0
 11
2.286353826564621
 21
6.012929520956197
 31
0.0
  0
LINE
  5
44A1
330
1E
100
AcDbEntity
  8
DIM
 62
     1
100
AcDbLine
 10
3.766718617930354
 20
6.012929520956195
 30
0.0
 11
2.967082920761384
 21
6.012929520956195
 31
0.0
  0
LINE
  5
44BC
330
1E
100
AcDbEntity
  8
DIM
 62
     1
100
AcDbLine
 10
3.766718617930354
 20
6.012929520956195
 30
0.0
 11
2.965692839452387
 21
6.012929520956195
 31
0.0
  0
LINE
  5
44BD
330
1E
100
AcDbEntity
  8
DIM
 62
     1
100
AcDbLine
 10
3.416124459948493
 20
5.815388683411963
 30
0.0
 11
2.965692839452387
 21
5.815388683411963
 31
0.0
  0
LINE
  5
44BF
330
1E
100
AcDbEntity
  8
DIM
 62
     1
100
AcDbLine
 10
3.028192839452387
 20
5.665388683411963
 30
0.0
 11
3.028192839452387
 21
5.515388683411964
 31
0.0
  0
LINE
  5
44C0
330
1E
100
AcDbEntity
  8
DIM
 62
     1
100
AcDbLine
 10
3.028192839452387
 20
5.515388683411964
 30
0.0
 11
2.878192839452387
 21
5.515388683411964
 31
0.0
  0
SOLID
  5
44C2
330
1E
100
AcDbEntity
  8
DIM
 62
     1
100
AcDbTrace
 10
3.003192839452387
 20
5.665388683411963
 30
0.0
 11
3.053192839452387
 21
5.665388683411963
 31
0.0
 12
3.028192839452387
 22
5.815388683411963
 32
0.0
 13
3.028192839452387
 23
5.815388683411963
 33
0.0
  0
MTEXT
  5
44C3
330
1E
100
AcDbEntity
  8
DIM
 62
     7
100
AcDbMText
 10
2.758192839452386
 20
5.515388683411964
 30
0.0
 40
0.09
 41
0.0
 71
     5
 72
     1
  1
5\P[.197]
 73
     1
 44
1.0
1001
ACAD
1000
MTEXTBEGIN
1070
    73
1070
     1
1070
    44
1040
1.0
1070
    74
1070
     0
1000
MTEXTEND
  0
LINE
  5
44C4
330
1E
100
AcDbEntity
  8
DIM
 62
     1
100
AcDbLine
 10
3.766718617930354
 20
6.012929520956195
 30
0.0
 11
2.288856066532488
 21
6.012929520956195
 31
0.0
  0
LINE
  5
44C5
330
1E
100
AcDbEntity
  8
DIM
 62
     1
100
AcDbLine
 10
3.447737306196689
 20
5.301776962061665
 30
0.0
 11
2.288856066532488
 21
5.301776962061665
 31
0.0
  0
LINE
  5
44C6
330
1E
100
AcDbEntity
  8
DIM
 62
     1
100
AcDbLine
 10
2.351356066532488
 20
5.862929520956195
 30
0.0
 11
2.351356066532488
 21
5.802432142205468
 31
0.0
  0
SOLID
  5
44C9
330
1E
100
AcDbEntity
  8
DIM
 62
     1
100
AcDbTrace
 10
2.326356066532488
 20
5.862929520956195
 30
0.0
 11
2.376356066532489
 21
5.862929520956195
 31
0.0
 12
2.351356066532488
 22
6.012929520956195
 32
0.0
 13
2.351356066532488
 23
6.012929520956195
 33
0.0
  0
SOLID
  5
44CA
330
1E
100
AcDbEntity
  8
DIM
 62
     1
100
AcDbTrace
 10
2.326356066532488
 20
5.451776962061665
 30
0.0
 11
2.376356066532489
 21
5.451776962061665
 31
0.0
 12
2.351356066532488
 22
5.301776962061665
 32
0.0
 13
2.351356066532488
 23
5.301776962061665
 33
0.0
  0
MTEXT
  5
44CB
330
1E
100
AcDbEntity
  8
DIM
 62
     7
100
AcDbMText
 10
2.348317962912629
 20
5.665837545284086
 30
0.0
 40
0.09
 41
0.0
 71
     5
 72
     1
  1
18.3\P[.720]
 73
     1
 44
1.0
1001
ACAD
1000
MTEXTBEGIN
1070
    73
1070
     1
1070
    44
1040
1.0
1070
    74
1070
     0
1000
MTEXTEND
  0
LINE
  5
44CC
330
1E
100
AcDbEntity
  8
DIM
 62
     1
100
AcDbLine
 10
2.351356066532488
 20
5.506036870343749
 30
0.0
 11
2.351356066532488
 21
5.451776962061665
 31
0.0
  0
LINE
  5
44CD
330
1E
100
AcDbEntity
  8
DIM
 62
     1
100
AcDbLine
 10
3.766718617930354
 20
6.012929520956195
 30
0.0
 11
1.514433183021672
 21
6.012929520956197
 31
0.0
  0
LINE
  5
44CE
330
1E
100
AcDbEntity
  8
DIM
 62
     1
100
AcDbLine
 10
5.56534628047799
 20
5.222773408609252
 30
0.0
 11
5.123372492889608
 21
5.222773408609252
 31
0.0
  0
LINE
  5
44CF
330
1E
100
AcDbEntity
  8
DIM
 62
     1
100
AcDbLine
 10
1.576933183021672
 20
5.862929520956196
 30
0.0
 11
1.576933183021672
 21
5.752851464782724
 31
0.0
  0
LINE
  5
44D0
330
1E
100
AcDbEntity
  8
DIM
 62
     1
100
AcDbLine
 10
1.576933183021672
 20
5.372773408609253
 30
0.0
 11
1.576933183021672
 21
5.482851464782725
 31
0.0
  0
SOLID
  5
44D1
330
1E
100
AcDbEntity
  8
DIM
 62
     1
100
AcDbTrace
 10
1.551933183021672
 20
5.862929520956196
 30
0.0
 11
1.601933183021673
 21
5.862929520956196
 31
0.0
 12
1.576933183021672
 22
6.012929520956197
 32
0.0
 13
1.576933183021672
 23
6.012929520956197
 33
0.0
  0
SOLID
  5
44D2
330
1E
100
AcDbEntity
  8
DIM
 62
     1
100
AcDbTrace
 10
1.551933183021672
 20
5.372773408609253
 30
0.0
 11
1.601933183021673
 21
5.372773408609253
 31
0.0
 12
1.576933183021672
 22
5.222773408609253
 32
0.0
 13
1.576933183021672
 23
5.222773408609253
 33
0.0
  0
MTEXT
  5
44D3
330
1E
100
AcDbEntity
  8
DIM
 62
     7
100
AcDbMText
 10
1.572297325044061
 20
5.617851464782725
 30
0.0
 40
0.09
 41
0.0
 71
     5
 72
     1
  1
22\P[.866]
 73
     1
 44
1.0
1001
ACAD
1000
MTEXTBEGIN
1070
    73
1070
     1
1070
    44
1040
1.0
1070
    74
1070
     0
1000
MTEXTEND
  0
LINE
  5
44D4
330
1E
100
AcDbEntity
  8
DIM
 62
     1
100
AcDbLine
 10
3.969041256139142
 20
5.222773408609252
 30
0.0
 11
3.496182702292678
 21
5.222773408609252
 31
0.0
  0
LINE
  5
44D5
330
1E
100
AcDbEntity
  8
DIM
 62
     1
100
AcDbLine
 10
4.97502472556701
 20
5.222773408609252
 30
0.0
 11
4.084937965611949
 21
5.222773408609252
 31
0.0
  0
LINE
  5
44D6
330
1E
100
AcDbEntity
  8
DIM
 62
     1
100
AcDbLine
 10
3.403465334714432
 20
5.222773408609252
 30
0.0
 11
1.514433183021672
 21
5.222773408609253
 31
0.0
  0
MTEXT
  5
44D7
330
1E
100
AcDbEntity
  8
DIM
 62
     7
100
AcDbMText
 10
1.865979916049204
 20
5.689999376681612
 30
0.0
 40
0.09
 41
0.0
 71
     5
 72
     1
  1
MAX
 73
     1
 44
1.0
1001
ACAD
1000
MTEXTBEGIN
1070
    73
1070
     1
1070
    44
1040
1.0
1070
    74
1070
     0
1000
MTEXTEND
  0
SOLID
  5
44DE
330
1E
100
AcDbEntity
  8
DIM
100
AcDbTrace
 10
5.150721447007426
 20
5.781013880318574
 30
0.0
 11
5.083933375800484
 21
5.917631425108606
 31
0.0
 12
5.191419673901116
 22
5.810059608536503
 32
0.0
 13
5.191419673901116
 23
5.810059608536503
 33
0.0
1001
ACAD
1000
DSTYLE
1002
{
1070
   147
1040
0.09
1070
    77
1070
     0
1002
}
  0
LINE
  5
44E0
330
1E
100
AcDbEntity
  8
DIM
100
AcDbLine
 10
5.17107056045427
 20
5.795536744427538
 30
0.0
 11
5.608115388963518
 21
5.183159273292093
 31
0.0
1001
ACAD
1000
DSTYLE
1002
{
1070
   147
1040
0.09
1070
    77
1070
     0
1002
}
  0
LINE
  5
44E1
330
1E
100
AcDbEntity
  8
DIM
100
AcDbLine
 10
5.776985146332286
 20
4.946542733699395
 30
0.0
 11
6.168391301065362
 21
4.946542733699395
 31
0.0
1001
ACAD
1000
DSTYLE
1002
{
1070
   147
1040
0.09
1070
    77
1070
     0
1002
}
  0
LINE
  5
44E2
330
1E
100
AcDbEntity
  8
DIM
100
AcDbLine
 10
6.281072501643194
 20
4.946542733699395
 30
0.0
 11
6.799810759561779
 21
4.946542733699395
 31
0.0
1001
ACAD
1000
DSTYLE
1002
{
1070
   147
1040
0.09
1070
    77
1070
     0
1002
}
  0
LINE
  5
44E3
330
1E
100
AcDbEntity
  8
DIM
100
AcDbLine
 10
5.64641825617446
 20
5.129490149600867
 30
0.0
 11
5.776985146332286
 21
4.946542733699395
 31
0.0
1001
ACAD
1000
DSTYLE
1002
{
1070
   147
1040
0.09
1070
    77
1070
     0
1002
}
  0
LINE
  5
44E5
330
1E
100
AcDbEntity
  8
DIM
 62
     1
100
AcDbLine
 10
9.322888021087514
 20
5.752888683411963
 30
0.0
 11
9.322888021087514
 21
4.487345106114826
 31
0.0
  0
LINE
  5
44E6
330
1E
100
AcDbEntity
  8
DIM
 62
     1
100
AcDbLine
 10
10.18020728050976
 20
5.752888683411963
 30
0.0
 11
10.18020728050976
 21
5.259990939490172
 31
0.0
  0
LINE
  5
44E7
330
1E
100
AcDbEntity
  8
DIM
 62
     1
100
AcDbLine
 10
9.472888021087515
 20
4.549845106114826
 30
0.0
 11
9.564399463864411
 21
4.549845106114826
 31
0.0
  0
SOLID
  5
44E9
330
1E
100
AcDbEntity
  8
DIM
 62
     1
100
AcDbTrace
 10
9.472888021087515
 20
4.574845106114826
 30
0.0
 11
9.472888021087515
 21
4.524845106114826
 31
0.0
 12
9.322888021087514
 22
4.549845106114826
 32
0.0
 13
9.322888021087514
 23
4.549845106114826
 33
0.0
  0
SOLID
  5
44EA
330
1E
100
AcDbEntity
  8
DIM
 62
     1
100
AcDbTrace
 10
10.03020728050976
 20
4.574845106114826
 30
0.0
 11
10.03020728050976
 21
4.524845106114826
 31
0.0
 12
10.18020728050976
 22
4.549845106114826
 32
0.0
 13
10.18020728050976
 23
4.549845106114826
 33
0.0
  0
MTEXT
  5
44EB
330
1E
100
AcDbEntity
  8
DIM
 62
     7
100
AcDbMText
 10
9.770914680619299
 20
4.549845106114826
 30
0.0
 40
0.09
 41
0.0
 71
     5
 72
     1
  1
21.7\P[.854]
 73
     1
 44
1.0
1001
ACAD
1000
MTEXTBEGIN
1070
    73
1070
     1
1070
    44
1040
1.0
1070
    74
1070
     0
1000
MTEXTEND
  0
LINE
  5
44EC
330
1E
100
AcDbEntity
  8
DIM
 62
     1
100
AcDbLine
 10
9.356469896859874
 20
5.35781243669598
 30
0.0
 11
9.356469896859874
 21
4.857010058700719
 31
0.0
  0
LINE
  5
44ED
330
1E
100
AcDbEntity
  8
DIM
 62
     1
100
AcDbLine
 10
10.14662600920682
 20
5.35781243669598
 30
0.0
 11
10.14662600920682
 21
5.259990939490172
 31
0.0
  0
LINE
  5
44EE
330
1E
100
AcDbEntity
  8
DIM
 62
     1
100
AcDbLine
 10
9.506469896859874
 20
4.919510058700719
 30
0.0
 11
9.601547953033348
 21
4.919510058700719
 31
0.0
  0
LINE
  5
44EF
330
1E
100
AcDbEntity
  8
DIM
 62
     1
100
AcDbLine
 10
9.996626009206824
 20
4.919510058700719
 30
0.0
 11
9.901547953033349
 21
4.919510058700719
 31
0.0
  0
SOLID
  5
44F0
330
1E
100
AcDbEntity
  8
DIM
 62
     1
100
AcDbTrace
 10
9.506469896859874
 20
4.94451005870072
 30
0.0
 11
9.506469896859874
 21
4.894510058700719
 31
0.0
 12
9.356469896859874
 22
4.919510058700719
 32
0.0
 13
9.356469896859874
 23
4.919510058700719
 33
0.0
  0
SOLID
  5
44F1
330
1E
100
AcDbEntity
  8
DIM
 62
     1
100
AcDbTrace
 10
9.996626009206824
 20
4.94451005870072
 30
0.0
 11
9.996626009206824
 21
4.894510058700719
 31
0.0
 12
10.14662600920682
 22
4.919510058700719
 32
0.0
 13
10.14662600920682
 23
4.919510058700719
 33
0.0
  0
MTEXT
  5
44F2
330
1E
100
AcDbEntity
  8
DIM
 62
     7
100
AcDbMText
 10
9.751547953033348
 20
4.919510058700719
 30
0.0
 40
0.09
 41
0.0
 71
     5
 72
     1
  1
21\P[.827]
 73
     1
 44
1.0
1001
ACAD
1000
MTEXTBEGIN
1070
    73
1070
     1
1070
    44
1040
1.0
1070
    74
1070
     0
1000
MTEXTEND
  0
LINE
  5
44F3
330
1E
100
AcDbEntity
  8
DIM
 62
     1
100
AcDbLine
 10
9.963652564918945
 20
4.549845106114826
 30
0.0
 11
10.03020728050976
 21
4.549845106114826
 31
0.0
  0
LEADER
  5
44F4
330
1E
100
AcDbEntity
  8
DIM
100
AcDbLeader
  3
Standard
 76
     3
 10
10.07775957526023
 20
5.269718972055187
 30
0.0
 10
10.41371646883248
 20
4.919510058700719
 30
0.0
 10
10.55004678587423
 20
4.919510058700719
 30
0.0
1001
ACAD
1000
DSTYLE
1002
{
1070
   147
1040
0.09
1070
    77
1070
     0
1002
}
  0
MTEXT
  5
44F5
330
1E
100
AcDbEntity
  8
DIM
 62
     7
100
AcDbMText
 10
11.09337565857316
 20
4.83716045790538
 30
0.0
 40
0.09
 41
0.0
 71
     5
 72
     1
  1
SEAL RUBBER\P(NBR)
 73
     1
 44
1.0
1001
ACAD
1000
MTEXTBEGIN
1070
    73
1070
     1
1070
    44
1040
1.0
1070
    74
1070
     0
1000
MTEXTEND
  0
LINE
  5
44F6
330
1E
100
AcDbEntity
  8
DIM
 62
     1
100
AcDbLine
 10
10.14662600920682
 20
5.104342547942966
 30
0.0
 11
10.14662600920682
 21
4.857010058700719
 31
0.0
  0
LINE
  5
44F7
330
1E
100
AcDbEntity
  8
DIM
 62
     1
100
AcDbLine
 10
10.18020728050976
 20
5.080022466530432
 30
0.0
 11
10.18020728050976
 21
4.487345106114826
 31
0.0
  0
LEADER
  5
4513
330
1E
100
AcDbEntity
  8
DIM
100
AcDbLeader
  3
Standard
 76
     3
 10
9.858072017618155
 20
5.554704563381839
 30
0.0
 10
10.42068887412016
 20
5.281011875797656
 30
0.0
 10
10.55278154683174
 20
5.281011875797656
 30
0.0
1001
ACAD
1000
DSTYLE
1002
{
1070
   147
1040
0.09
1070
    77
1070
     0
1002
}
  0
MTEXT
  5
4514
330
1E
100
AcDbEntity
  8
DIM
 62
     7
100
AcDbMText
 10
11.16186814590389
 20
5.286798374354624
 30
0.0
 40
0.09
 41
0.0
 71
     5
 72
     1
  1
INTERNAL \PCABLE OPENING 
 73
     1
 44
1.0
1001
ACAD
1000
MTEXTBEGIN
1070
    73
1070
     1
1070
    44
1040
1.0
1070
    74
1070
     0
1000
MTEXTEND
  0
MTEXT
  5
4515
330
1E
100
AcDbEntity
  8
DIM
 62
     7
100
AcDbMText
 10
12.03626159670349
 20
5.292579227016542
 30
0.0
 40
0.09
 41
0.0
 71
     5
 72
     1
  1
11\P[.433]
 73
     1
 44
1.0
1001
ACAD
1000
MTEXTBEGIN
1070
    73
1070
     1
1070
    44
1040
1.0
1070
    74
1070
     0
1000
MTEXTEND
  0
MTEXT
  5
4516
330
1E
100
AcDbEntity
  8
DIM
 62
     7
100
AcDbMText
 10
12.42897913551925
 20
5.307977007244524
 30
0.0
 40
0.09
 41
0.0
 71
     5
 72
     1
  1
DIA
 73
     1
 44
1.0
1001
ACAD
1000
MTEXTBEGIN
1070
    73
1070
     1
1070
    44
1040
1.0
1070
    74
1070
     0
1000
MTEXTEND
  0
LINE
  5
4672
330
1E
100
AcDbEntity
  8
OBJECT
 62
     7
100
AcDbLine
 10
3.91238814178955
 20
6.998714026558149
 30
0.0
 11
4.312943022781118
 21
6.998714026558149
 31
0.0
  0
LINE
  5
4673
330
1E
100
AcDbEntity
  8
OBJECT
 62
     7
100
AcDbLine
 10
4.424835487801026
 20
6.763575417709651
 30
0.0
 11
3.80715339155478
 21
7.046999705773393
 31
0.0
  0
LINE
  5
4674
330
1E
100
AcDbEntity
  8
OBJECT
 62
     7
100
AcDbLine
 10
3.899202565212301
 20
7.018395088223968
 30
0.0
 11
4.820746649368552
 21
7.018395088223968
 31
0.0
  0
LINE
  5
4678
330
1E
100
AcDbEntity
  8
OBJECT
 62
     7
100
AcDbLine
 10
3.576997117626904
 20
7.136489862544912
 30
0.0
 11
4.247284826252674
 21
7.136489862544912
 31
0.0
  0
LINE
  5
4680
330
1E
100
AcDbEntity
  8
OBJECT
 62
     7
100
AcDbLine
 10
3.505965761906288
 20
6.720689085442486
 30
0.0
 11
3.498224523454537
 21
7.016264341619461
 31
0.0
  0
LINE
  5
4681
330
1E
100
AcDbEntity
  8
OBJECT
 62
     7
100
AcDbLine
 10
3.466615656563989
 20
6.719659297670439
 30
0.0
 11
3.458869607767336
 21
7.015301867184426
 31
0.0
  0
LINE
  5
4682
330
1E
100
AcDbEntity
  8
OBJECT
 62
     7
100
AcDbLine
 10
3.542038400551799
 20
6.989064207005638
 30
0.0
 11
3.498378362757168
 21
6.64921007930625
 31
0.0
  0
LINE
  5
468F
330
1E
100
AcDbEntity
  8
OBJECT
 62
     7
100
AcDbLine
 10
3.505965761906288
 20
6.720689085442486
 30
0.0
 11
3.466615656563989
 21
6.719659297670439
 31
0.0
  0
ARC
  5
4698
330
1E
100
AcDbEntity
  8
OBJECT
 62
     7
100
AcDbCircle
 10
3.620128650055319
 20
6.979031764274324
 30
0.0
 40
0.0787290491352939
100
AcDbArc
 50
90.0
 51
172.759201
  0
ARC
  5
4699
330
1E
100
AcDbEntity
  8
OBJECT
 62
     7
100
AcDbCircle
 10
3.576997117626904
 20
7.018396288841973
 30
0.0
 40
0.1180935737029409
100
AcDbArc
 50
90.0
 51
181.4999999999999
  0
LINE
  5
469C
330
1E
100
AcDbEntity
  8
OBJECT
 62
     7
100
AcDbLine
 10
3.561081863203849
 20
7.031106298661471
 30
0.0
 11
3.561081863203849
 21
7.135411313936288
 31
0.0
  0
LINE
  5
469D
330
1E
100
AcDbEntity
  8
OBJECT
 62
     7
100
AcDbLine
 10
3.49829209659741
 20
7.016335142653346
 30
0.0
 11
3.561081863203849
 21
7.080787525065233
 31
0.0
  0
ARC
  5
469E
330
1E
100
AcDbEntity
  8
OBJECT
 62
     7
100
AcDbCircle
 10
3.576924438905196
 20
7.018396288841973
 30
0.0
 40
0.0787290491352939
100
AcDbArc
 50
101.6101989999999
 51
181.4999999999999
  0
ARC
  5
469F
330
1E
100
AcDbEntity
  8
OBJECT
 62
     7
100
AcDbCircle
 10
3.679175436906784
 20
6.900302715139027
 30
0.0
 40
0.1574580982705879
100
AcDbArc
 50
152.0164032
 51
193.3415069999999
  0
ARC
  5
46A0
330
1E
100
AcDbEntity
  8
OBJECT
 62
     7
100
AcDbCircle
 10
3.899418798482201
 20
6.979031764274324
 30
0.0
 40
0.039364524567647
100
AcDbArc
 50
90.0
 51
119.0655975
  0
ARC
  5
46A1
330
1E
100
AcDbEntity
  8
OBJECT
 62
     7
100
AcDbCircle
 10
3.757904486042077
 20
6.939667239706679
 30
0.0
 40
0.1180935737029409
100
AcDbArc
 50
65.35111239999998
 51
90.0
  0
CIRCLE
  5
46A3
330
1E
100
AcDbEntity
  8
OBJECT
 62
     7
100
AcDbCircle
 10
3.679175436906784
 20
6.900302715139027
 30
0.0
 40
0.0590467868514705
  0
CIRCLE
  5
46A4
330
1E
100
AcDbEntity
  8
OBJECT
 62
     7
100
AcDbCircle
 10
3.679175436906784
 20
6.900302715139027
 30
0.0
 40
0.0590467868514705
  0
LINE
  5
46A5
330
1E
100
AcDbEntity
  8
OBJECT
 62
     7
100
AcDbLine
 10
3.620128650055319
 20
7.057760813409618
 30
0.0
 11
3.757904486042077
 21
7.057760813409618
 31
0.0
  0
ARC
  5
46BE
330
1E
100
AcDbEntity
  8
OBJECT
 62
     7
100
AcDbCircle
 10
4.919157960787664
 20
7.057760813409618
 30
0.0
 40
0.0787290491352939
100
AcDbArc
 50
90.00005339999999
 51
180.0
  0
LINE
  5
46C0
330
1E
100
AcDbEntity
  8
DIM
 62
     1
100
AcDbLine
 10
6.373248897554178
 20
7.481253822062297
 30
0.0
 11
4.273960814348975
 21
7.212605087566657
 31
0.0
  0
LINE
  5
46C1
330
1E
100
AcDbEntity
  8
DIM
 62
     1
100
AcDbLine
 10
6.381295409350509
 20
7.442597519208476
 30
0.0
 11
4.278958262772865
 21
7.173558687404298
 31
0.0
  0
LINE
  5
46C2
330
1E
100
AcDbEntity
  8
OBJECT
 62
     7
100
AcDbLine
 10
6.428661592560635
 20
7.097125337977267
 30
0.0
 11
4.850976262047288
 21
7.097125337977267
 31
0.0
  0
LINE
  5
46C3
330
1E
100
AcDbEntity
  8
OBJECT
 62
     7
100
AcDbLine
 10
4.247284826252674
 20
7.136489862544912
 30
0.0
 11
6.428661592560635
 21
7.136489862544912
 31
0.0
  0
LINE
  5
46C4
330
1E
100
AcDbEntity
  8
OBJECT
 62
     7
100
AcDbLine
 10
4.396665316209077
 20
6.801891403719915
 30
0.0
 11
4.761699862517077
 21
6.801891403719915
 31
0.0
  0
LINE
  5
46C5
330
1E
100
AcDbEntity
  8
OBJECT
 62
     7
100
AcDbLine
 10
4.247284826252674
 20
7.136489862544912
 30
0.0
 11
4.227602563968851
 21
7.17058071388333
 31
0.0
  0
ARC
  5
46C6
330
1E
100
AcDbEntity
  8
OBJECT
 62
     7
100
AcDbCircle
 10
4.312943022781118
 20
6.959349501990502
 30
0.0
 40
0.039364524567647
100
AcDbArc
 50
15.16388990000005
 51
90.0
  0
ARC
  5
46C7
330
1E
100
AcDbEntity
  8
OBJECT
 62
     7
100
AcDbCircle
 10
4.166445976376387
 20
7.14436235019448
 30
0.0
 40
0.0078729049135294
100
AcDbArc
 50
270.0
 51
300.0
  0
LINE
  5
46C8
330
1E
100
AcDbEntity
  8
OBJECT
 62
     7
100
AcDbLine
 10
4.227602563968851
 20
7.17058071388333
 30
0.0
 11
4.170381468338756
 21
7.13754483967623
 31
0.0
  0
LINE
  5
46C9
330
1E
100
AcDbEntity
  8
OBJECT
 62
     7
100
AcDbLine
 10
4.350923939420549
 20
6.969701191016053
 30
0.0
 11
4.396665316209077
 21
6.801891403719915
 31
0.0
  0
ARC
  5
46CA
330
1E
100
AcDbEntity
  8
OBJECT
 62
     7
100
AcDbCircle
 10
4.820746649368552
 20
7.038078551125796
 30
0.0
 40
0.0196822622838235
100
AcDbArc
 50
270.0
 51
0.0
  0
CIRCLE
  5
46CB
330
1E
100
AcDbEntity
  8
OBJECT
 62
     7
100
AcDbCircle
 10
4.687571833488108
 20
6.931793929338546
 30
0.0
 40
0.0104315990104265
  0
CIRCLE
  5
46CC
330
1E
100
AcDbEntity
  8
OBJECT
 62
     7
100
AcDbCircle
 10
4.689188794317962
 20
7.008556362254513
 30
0.0
 40
0.0098385094645755
  0
LINE
  5
46CD
330
1E
100
AcDbEntity
  8
OBJECT
 62
     7
100
AcDbLine
 10
4.840428911652371
 20
7.038078551125796
 30
0.0
 11
4.840428911652371
 21
7.057760813409618
 31
0.0
  0
LINE
  5
46CE
330
1E
100
AcDbEntity
  8
OBJECT
 62
     7
100
AcDbLine
 10
4.761699862517077
 20
6.801891403719915
 30
0.0
 11
4.780857855522209
 21
6.763575417709651
 31
0.0
  0
CIRCLE
  5
46CF
330
1E
100
AcDbEntity
  8
OBJECT
 62
     7
100
AcDbCircle
 10
4.685748543502729
 20
6.845191609199645
 30
0.0
 40
0.0104315990104265
  0
LINE
  5
46D0
330
1E
100
AcDbEntity
  8
OBJECT
 62
     7
100
AcDbLine
 10
4.67955428756551
 20
7.018395088223968
 30
0.0
 11
4.67499411602633
 21
6.801891403719915
 31
0.0
  0
LINE
  5
46D1
330
1E
100
AcDbEntity
  8
OBJECT
 62
     7
100
AcDbLine
 10
4.694676378310154
 20
6.801891403719915
 30
0.0
 11
4.699236549849333
 21
7.018395088223968
 31
0.0
  0
LINE
  5
46D2
330
1E
100
AcDbEntity
  8
OBJECT
 62
     7
100
AcDbLine
 10
4.68939541870742
 20
7.018395088223968
 30
0.0
 11
4.684835247168239
 21
6.801891403719915
 31
0.0
  0
CIRCLE
  5
46D3
330
1E
100
AcDbEntity
  8
OBJECT
 62
     7
100
AcDbCircle
 10
4.491659802641531
 20
6.9750941741828
 30
0.0
 40
0.0104315990104265
  0
CIRCLE
  5
46D4
330
1E
100
AcDbEntity
  8
OBJECT
 62
     7
100
AcDbCircle
 10
4.488219248719462
 20
6.811729007800423
 30
0.0
 40
0.0098385094645755
  0
CIRCLE
  5
46D5
330
1E
100
AcDbEntity
  8
OBJECT
 62
     7
100
AcDbCircle
 10
4.489836213485768
 20
6.888491361987339
 30
0.0
 40
0.0104315990104265
  0
LINE
  5
46D6
330
1E
100
AcDbEntity
  8
OBJECT
 62
     7
100
AcDbLine
 10
4.482731664727271
 20
7.018395088223968
 30
0.0
 11
4.47817149318809
 21
6.801891403719915
 31
0.0
  0
LINE
  5
46D7
330
1E
100
AcDbEntity
  8
OBJECT
 62
     7
100
AcDbLine
 10
4.497853755471915
 20
6.801891403719915
 30
0.0
 11
4.502413927011099
 21
7.018395088223968
 31
0.0
  0
LINE
  5
46D8
330
1E
100
AcDbEntity
  8
OBJECT
 62
     7
100
AcDbLine
 10
4.492572795869184
 20
7.018395088223968
 30
0.0
 11
4.488012624330005
 21
6.801891403719915
 31
0.0
  0
LINE
  5
46D9
330
1E
100
AcDbEntity
  8
OBJECT
 62
     7
100
AcDbLine
 10
4.489836213485768
 20
6.802023660649558
 30
0.0
 11
4.687461309712482
 21
6.834901301277248
 31
0.0
  0
LINE
  5
46DA
330
1E
100
AcDbEntity
  8
OBJECT
 62
     7
100
AcDbLine
 10
4.683975108687722
 20
6.855471257208787
 30
0.0
 11
4.486547027970019
 21
6.821424856291514
 31
0.0
  0
LINE
  5
46DB
330
1E
100
AcDbEntity
  8
OBJECT
 62
     7
100
AcDbLine
 10
4.689803865014335
 20
6.921603292392354
 30
0.0
 11
4.492068248948442
 21
6.878301850866552
 31
0.0
  0
LINE
  5
46DC
330
1E
100
AcDbEntity
  8
OBJECT
 62
     7
100
AcDbLine
 10
4.685339798025428
 20
6.941983440459333
 30
0.0
 11
4.487604481129929
 21
6.898682451625568
 31
0.0
  0
LINE
  5
46DD
330
1E
100
AcDbEntity
  8
OBJECT
 62
     7
100
AcDbLine
 10
4.493432934349702
 20
6.964814486809135
 30
0.0
 11
4.690861019003863
 21
6.998860887726403
 31
0.0
  0
LINE
  5
46DE
330
1E
100
AcDbEntity
  8
OBJECT
 62
     7
100
AcDbLine
 10
4.687571833488108
 20
7.018262044003838
 30
0.0
 11
4.489947032495331
 21
6.985384442740674
 31
0.0
  0
LINE
  5
46E0
330
1E
100
AcDbEntity
  8
OBJECT
 62
     7
100
AcDbLine
 10
5.135662845909727
 20
7.097125337977267
 30
0.0
 11
5.135662845909727
 21
7.136489862544912
 31
0.0
  0
LINE
  5
46E1
330
1E
100
AcDbEntity
  8
OBJECT
 62
     7
100
AcDbLine
 10
6.428661592560635
 20
7.097125337977267
 30
0.0
 11
6.428661592560635
 21
7.136489862544912
 31
0.0
  0
ARC
  5
46E2
330
1E
100
AcDbEntity
  8
OBJECT
 62
     7
100
AcDbCircle
 10
5.537181476746924
 20
6.750172720698408
 30
0.0
 40
0.0275551671973529
100
AcDbArc
 50
0.0
 51
51.33121109999997
  0
ARC
  5
46E4
330
1E
100
AcDbEntity
  8
OBJECT
 62
     7
100
AcDbCircle
 10
5.468315185623339
 20
6.664115567733151
 30
0.0
 40
0.1377758359867644
100
AcDbArc
 50
51.33200070000002
 51
133.7887445467069
  0
LINE
  5
46FB
330
1E
100
AcDbEntity
  8
OBJECT
 62
     7
100
AcDbLine
 10
10.16166593682838
 20
6.74043956139347
 30
0.0
 11
10.16166593682838
 21
6.405837650299663
 31
0.0
  0
LINE
  5
46FC
330
1E
100
AcDbEntity
  8
OBJECT
 62
     7
100
AcDbLine
 10
9.335010881543265
 20
6.74043956139347
 30
0.0
 11
9.335010881543265
 21
6.405837650299663
 31
0.0
  0
ARC
  5
471C
330
1E
100
AcDbEntity
  8
OBJECT
 62
     7
100
AcDbCircle
 10
9.413739930678563
 20
7.035673495650822
 30
0.0
 40
0.0196822622838235
100
AcDbArc
 50
0.0
 51
90.0
  0
LINE
  5
471D
330
1E
100
AcDbEntity
  8
OBJECT
 62
     7
100
AcDbLine
 10
10.14198367454455
 20
6.760121823677295
 30
0.0
 11
9.354693143827091
 21
6.760121823677295
 31
0.0
  0
LINE
  5
471E
330
1E
100
AcDbEntity
  8
OBJECT
 62
     7
100
AcDbLine
 10
9.374375406110914
 20
7.055355757934645
 30
0.0
 11
9.413739930678563
 21
7.055355757934645
 31
0.0
  0
ARC
  5
471F
330
1E
100
AcDbEntity
  8
OBJECT
 62
     7
100
AcDbCircle
 10
9.374375406110914
 20
7.035673495650822
 30
0.0
 40
0.0196822622838235
100
AcDbArc
 50
90.0
 51
180.0
  0
ARC
  5
4720
330
1E
100
AcDbEntity
  8
OBJECT
 62
     7
100
AcDbCircle
 10
9.354693143827091
 20
6.74043956139347
 30
0.0
 40
0.0196822622838235
100
AcDbArc
 50
90.0
 51
180.0
  0
LINE
  5
4721
330
1E
100
AcDbEntity
  8
OBJECT
 62
     7
100
AcDbLine
 10
9.354693143827091
 20
7.035673495650822
 30
0.0
 11
9.354693143827091
 21
6.760121823677295
 31
0.0
  0
ARC
  5
4725
330
1E
100
AcDbEntity
  8
OBJECT
 62
     7
100
AcDbCircle
 10
9.826082553979983
 20
7.024213301613441
 30
0.0
 40
0.0629832393082352
100
AcDbArc
 50
0.0
 51
61.02658080000002
  0
LINE
  5
4726
330
1E
100
AcDbEntity
  8
OBJECT
 62
     7
100
AcDbLine
 10
9.994366707415879
 20
7.094720282502292
 30
0.0
 11
9.502310150320289
 21
7.094720282502292
 31
0.0
  0
LINE
  5
4727
330
1E
100
AcDbEntity
  8
OBJECT
 62
     7
100
AcDbLine
 10
9.925478789422495
 20
6.79948634824494
 30
0.0
 11
9.571198068313673
 21
6.79948634824494
 31
0.0
  0
LINE
  5
4728
330
1E
100
AcDbEntity
  8
OBJECT
 62
     7
100
AcDbLine
 10
9.502310150320289
 20
7.134084807069939
 30
0.0
 11
9.994366707415879
 21
7.134084807069939
 31
0.0
  0
LINE
  5
4729
330
1E
100
AcDbEntity
  8
OBJECT
 62
     7
100
AcDbLine
 10
9.544606095922155
 20
6.996308971083173
 30
0.0
 11
9.945161051706321
 21
6.996308971083173
 31
0.0
  0
CIRCLE
  5
472A
330
1E
100
AcDbEntity
  8
OBJECT
 62
     7
100
AcDbCircle
 10
9.846749740287201
 20
7.059291399482203
 30
0.0
 40
0.0098411311419117
  0
LINE
  5
472B
330
1E
100
AcDbEntity
  8
OBJECT
 62
     7
100
AcDbLine
 10
9.832973341560716
 20
7.094720282502292
 30
0.0
 11
9.832973341560716
 21
7.063228245584216
 31
0.0
  0
CIRCLE
  5
472C
330
1E
100
AcDbEntity
  8
OBJECT
 62
     7
100
AcDbCircle
 10
9.846749740287201
 20
7.084879151360379
 30
0.0
 40
0.0098411311419117
  0
ARC
  5
472D
330
1E
100
AcDbEntity
  8
OBJECT
 62
     7
100
AcDbCircle
 10
9.748338428868084
 20
6.626281629238089
 30
0.0
 40
0.4684378266091891
100
AcDbArc
 50
79.08914950000002
 51
79.59107969999999
  0
ARC
  5
472E
330
1E
100
AcDbEntity
  8
OBJECT
 62
     7
100
AcDbCircle
 10
9.807385215719556
 20
7.128811133840709
 30
0.0
 40
0.039364524567647
100
AcDbArc
 50
7.699182999999986
 51
90.0
  0
CIRCLE
  5
472F
330
1E
100
AcDbEntity
  8
OBJECT
 62
     7
100
AcDbCircle
 10
9.846749740287201
 20
6.972690244533227
 30
0.0
 40
0.0098411311419117
  0
CIRCLE
  5
4730
330
1E
100
AcDbEntity
  8
OBJECT
 62
     7
100
AcDbCircle
 10
9.846749740287201
 20
6.809327479386849
 30
0.0
 40
0.0098411311419117
  0
CIRCLE
  5
4731
330
1E
100
AcDbEntity
  8
OBJECT
 62
     7
100
AcDbCircle
 10
9.846749740287201
 20
6.886087885029802
 30
0.0
 40
0.0098411311419117
  0
LINE
  5
4732
330
1E
100
AcDbEntity
  8
OBJECT
 62
     7
100
AcDbLine
 10
9.836908609145293
 20
7.084879151360379
 30
0.0
 11
9.836908609145293
 21
6.79948634824494
 31
0.0
  0
LINE
  5
4733
330
1E
100
AcDbEntity
  8
OBJECT
 62
     7
100
AcDbLine
 10
9.856590871429116
 20
7.084879151360379
 30
0.0
 11
9.856590871429116
 21
6.79948634824494
 31
0.0
  0
LINE
  5
4734
330
1E
100
AcDbEntity
  8
OBJECT
 62
     7
100
AcDbLine
 10
9.846749740287201
 20
7.104790940314053
 30
0.0
 11
9.846749740287201
 21
6.790011692953848
 31
0.0
  0
LINE
  5
4735
330
1E
100
AcDbEntity
  8
OBJECT
 62
     7
100
AcDbLine
 10
9.590880330597496
 20
7.134084807069939
 30
0.0
 11
9.590880330597496
 21
7.094720282502292
 31
0.0
  0
LINE
  5
4736
330
1E
100
AcDbEntity
  8
OBJECT
 62
     7
100
AcDbLine
 10
9.663703890138439
 20
7.094720282502292
 30
0.0
 11
9.663703890138439
 21
7.063228245584216
 31
0.0
  0
CIRCLE
  5
4737
330
1E
100
AcDbEntity
  8
OBJECT
 62
     7
100
AcDbCircle
 10
9.649927117448967
 20
7.084879151360379
 30
0.0
 40
0.0098411311419117
  0
ARC
  5
4738
330
1E
100
AcDbEntity
  8
OBJECT
 62
     7
100
AcDbCircle
 10
9.748338428868084
 20
6.626281629238089
 30
0.0
 40
0.4684378266091891
100
AcDbArc
 50
100.4088974
 51
100.9108963
  0
ARC
  5
4739
330
1E
100
AcDbEntity
  8
OBJECT
 62
     7
100
AcDbCircle
 10
9.689291642016614
 20
7.128811133840709
 30
0.0
 40
0.039364524567647
100
AcDbArc
 50
90.0
 51
172.3007965
  0
CIRCLE
  5
473A
330
1E
100
AcDbEntity
  8
OBJECT
 62
     7
100
AcDbCircle
 10
9.649927117448967
 20
7.015991233366998
 30
0.0
 40
0.0098411311419117
  0
CIRCLE
  5
473B
330
1E
100
AcDbEntity
  8
OBJECT
 62
     7
100
AcDbCircle
 10
9.649927117448967
 20
6.929388873863572
 30
0.0
 40
0.0098411311419117
  0
LINE
  5
473C
330
1E
100
AcDbEntity
  8
OBJECT
 62
     7
100
AcDbLine
 10
9.607612174527545
 20
6.996308971083173
 30
0.0
 11
9.607612174527545
 21
7.024213301613441
 31
0.0
  0
LINE
  5
473D
330
1E
100
AcDbEntity
  8
OBJECT
 62
     7
100
AcDbLine
 10
9.569886387244745
 20
6.996308971083173
 30
0.0
 11
9.562385484961286
 21
7.094720282502292
 31
0.0
  0
ARC
  5
473E
330
1E
100
AcDbEntity
  8
OBJECT
 62
     7
100
AcDbCircle
 10
9.670589950039769
 20
7.024213301613441
 30
0.0
 40
0.0629832393082352
100
AcDbArc
 50
118.9710999
 51
180.0
  0
ARC
  5
473F
330
1E
100
AcDbEntity
  8
OBJECT
 62
     7
100
AcDbCircle
 10
9.502310150320289
 20
7.067164709850331
 30
0.0
 40
0.0275551671973529
100
AcDbArc
 50
90.0
 51
180.0
  0
ARC
  5
4740
330
1E
100
AcDbEntity
  8
OBJECT
 62
     7
100
AcDbCircle
 10
9.502310150320289
 20
7.067164709850331
 30
0.0
 40
0.0669196917649999
100
AcDbArc
 50
90.0
 51
180.0
  0
LINE
  5
4741
330
1E
100
AcDbEntity
  8
OBJECT
 62
     7
100
AcDbLine
 10
9.513535342082452
 20
6.967296135541079
 30
0.0
 11
9.494617109792418
 21
6.897894132602655
 31
0.0
  0
LINE
  5
4742
330
1E
100
AcDbEntity
  8
OBJECT
 62
     7
100
AcDbLine
 10
9.510714814850395
 20
6.956944446515528
 30
0.0
 11
9.474756943476261
 21
6.956944446515528
 31
0.0
  0
LINE
  5
4743
330
1E
100
AcDbEntity
  8
OBJECT
 62
     7
100
AcDbLine
 10
9.453104455246206
 20
6.897894132602655
 30
0.0
 11
9.494617109792418
 21
6.897894132602655
 31
0.0
  0
LINE
  5
4744
330
1E
100
AcDbEntity
  8
OBJECT
 62
     7
100
AcDbLine
 10
9.435392418908616
 20
6.956944446515528
 30
0.0
 11
9.433422192962385
 21
6.956944446515528
 31
0.0
  0
ARC
  5
4745
330
1E
100
AcDbEntity
  8
OBJECT
 62
     7
100
AcDbCircle
 10
9.453104455246206
 20
6.917576394886479
 30
0.0
 40
0.0196822622838235
100
AcDbArc
 50
180.0
 51
270.0
  0
LINE
  5
4746
330
1E
100
AcDbEntity
  8
OBJECT
 62
     7
100
AcDbLine
 10
9.435392418908616
 20
7.015990032748995
 30
0.0
 11
9.474756943476261
 21
7.015990032748995
 31
0.0
  0
LINE
  5
4747
330
1E
100
AcDbEntity
  8
OBJECT
 62
     7
100
AcDbLine
 10
9.435392418908616
 20
7.067164709850331
 30
0.0
 11
9.435392418908616
 21
6.908998065883341
 31
0.0
  0
LINE
  5
4748
330
1E
100
AcDbEntity
  8
OBJECT
 62
     7
100
AcDbLine
 10
9.474756943476261
 20
7.067164709850331
 30
0.0
 11
9.474756943476261
 21
6.897894132602655
 31
0.0
  0
ARC
  5
4749
330
1E
100
AcDbEntity
  8
OBJECT
 62
     7
100
AcDbCircle
 10
9.551515806029851
 20
6.956944446515528
 30
0.0
 40
0.039364524567647
100
AcDbArc
 50
90.0
 51
164.8361053000001
  0
CIRCLE
  5
474A
330
1E
100
AcDbEntity
  8
OBJECT
 62
     7
100
AcDbCircle
 10
9.649927117448967
 20
6.842786553724671
 30
0.0
 40
0.0098411311419117
  0
LINE
  5
474B
330
1E
100
AcDbEntity
  8
OBJECT
 62
     7
100
AcDbLine
 10
9.551515806029851
 20
6.779804085961117
 30
0.0
 11
9.551515806029851
 21
6.760121823677295
 31
0.0
  0
ARC
  5
474C
330
1E
100
AcDbEntity
  8
OBJECT
 62
     7
100
AcDbCircle
 10
9.453104455246206
 20
6.779804085961117
 30
0.0
 40
0.0196822622838235
100
AcDbArc
 50
180.0
 51
270.0
  0
ARC
  5
474D
330
1E
100
AcDbEntity
  8
OBJECT
 62
     7
100
AcDbCircle
 10
9.571198068313673
 20
6.779804085961117
 30
0.0
 40
0.0196822622838235
100
AcDbArc
 50
90.0
 51
180.0
  0
LINE
  5
474E
330
1E
100
AcDbEntity
  8
OBJECT
 62
     7
100
AcDbLine
 10
9.433422192962385
 20
7.035673495650822
 30
0.0
 11
9.433422192962385
 21
6.779804085961117
 31
0.0
  0
LINE
  5
474F
330
1E
100
AcDbEntity
  8
OBJECT
 62
     7
100
AcDbLine
 10
9.659768248590879
 20
7.084879151360379
 30
0.0
 11
9.659768248590879
 21
6.79948634824494
 31
0.0
  0
LINE
  5
4750
330
1E
100
AcDbEntity
  8
OBJECT
 62
     7
100
AcDbLine
 10
9.640085986307052
 20
7.084879151360379
 30
0.0
 11
9.640085986307052
 21
6.79948634824494
 31
0.0
  0
LINE
  5
4751
330
1E
100
AcDbEntity
  8
OBJECT
 62
     7
100
AcDbLine
 10
9.649927117448967
 20
6.790011692953848
 30
0.0
 11
9.649927117448967
 21
7.104790940314053
 31
0.0
  0
LINE
  5
4752
330
1E
100
AcDbEntity
  8
OBJECT
 62
     7
100
AcDbLine
 10
9.844635436244605
 20
6.982301923797887
 30
0.0
 11
9.647812813406364
 21
6.939000557064684
 31
0.0
  0
LINE
  5
4753
330
1E
100
AcDbEntity
  8
OBJECT
 62
     7
100
AcDbLine
 10
9.652041724598404
 20
7.006379628894929
 30
0.0
 11
9.848864347436641
 21
7.04968099562814
 31
0.0
  0
LINE
  5
4754
330
1E
100
AcDbEntity
  8
OBJECT
 62
     7
100
AcDbLine
 10
9.844635436244605
 20
7.068903082683316
 30
0.0
 11
9.647812813406364
 21
7.025601715950111
 31
0.0
  0
LINE
  5
4755
330
1E
100
AcDbEntity
  8
OBJECT
 62
     7
100
AcDbLine
 10
9.652041724598404
 20
6.833176075078007
 30
0.0
 11
9.848864347436641
 21
6.876475902658306
 31
0.0
  0
LINE
  5
4756
330
1E
100
AcDbEntity
  8
OBJECT
 62
     7
100
AcDbLine
 10
9.844635436244605
 20
6.895699564294467
 30
0.0
 11
9.647812813406364
 21
6.852398158196734
 31
0.0
  0
LINE
  5
4757
330
1E
100
AcDbEntity
  8
OBJECT
 62
     7
100
AcDbLine
 10
9.652041724598404
 20
6.919778470009507
 30
0.0
 11
9.848864347436641
 21
6.963078636124713
 31
0.0
  0
LINE
  5
4758
330
1E
100
AcDbEntity
  8
OBJECT
 62
     7
100
AcDbLine
 10
9.832973341560716
 20
7.063228245584216
 30
0.0
 11
9.663703890138439
 21
7.063228245584216
 31
0.0
  0
LINE
  5
4759
330
1E
100
AcDbEntity
  8
OBJECT
 62
     7
100
AcDbLine
 10
9.807385215719556
 20
7.168175658408355
 30
0.0
 11
9.689291642016614
 21
7.168175658408355
 31
0.0
  0
LINE
  5
475A
330
1E
100
AcDbEntity
  8
OBJECT
 62
     7
100
AcDbLine
 10
10.08293688769308
 20
7.055355757934645
 30
0.0
 11
10.12230141226073
 21
7.055355757934645
 31
0.0
  0
ARC
  5
475B
330
1E
100
AcDbEntity
  8
OBJECT
 62
     7
100
AcDbCircle
 10
10.04357236312543
 20
6.917576394886479
 30
0.0
 40
0.0196822622838235
100
AcDbArc
 50
270.0
 51
0.0
  0
LINE
  5
475C
330
1E
100
AcDbEntity
  8
OBJECT
 62
     7
100
AcDbLine
 10
10.06325462540926
 20
6.956944446515528
 30
0.0
 11
10.06128477736246
 21
6.956944446515528
 31
0.0
  0
LINE
  5
475D
330
1E
100
AcDbEntity
  8
OBJECT
 62
     7
100
AcDbLine
 10
10.02192025279482
 20
7.015990032748995
 30
0.0
 11
10.06128477736246
 21
7.015990032748995
 31
0.0
  0
ARC
  5
475E
330
1E
100
AcDbEntity
  8
OBJECT
 62
     7
100
AcDbCircle
 10
10.08293688769308
 20
7.035673495650822
 30
0.0
 40
0.0196822622838235
100
AcDbArc
 50
90.0
 51
180.0
  0
LINE
  5
475F
330
1E
100
AcDbEntity
  8
OBJECT
 62
     7
100
AcDbLine
 10
10.02192025279482
 20
7.067164709850331
 30
0.0
 11
10.02192025279482
 21
6.897894132602655
 31
0.0
  0
ARC
  5
4760
330
1E
100
AcDbEntity
  8
OBJECT
 62
     7
100
AcDbCircle
 10
10.12230141226073
 20
7.035673495650822
 30
0.0
 40
0.0196822622838235
100
AcDbArc
 50
0.0
 51
90.0
  0
LINE
  5
4761
330
1E
100
AcDbEntity
  8
OBJECT
 62
     7
100
AcDbLine
 10
10.06128477736246
 20
7.067164709850331
 30
0.0
 11
10.06128477736246
 21
6.908998065883341
 31
0.0
  0
LINE
  5
4762
330
1E
100
AcDbEntity
  8
OBJECT
 62
     7
100
AcDbLine
 10
9.905796527138672
 20
7.134084807069939
 30
0.0
 11
9.905796527138672
 21
7.094720282502292
 31
0.0
  0
ARC
  5
4763
330
1E
100
AcDbEntity
  8
OBJECT
 62
     7
100
AcDbCircle
 10
9.945161051706321
 20
6.956944446515528
 30
0.0
 40
0.039364524567647
100
AcDbArc
 50
15.16388990000005
 51
90.0
  0
LINE
  5
4764
330
1E
100
AcDbEntity
  8
OBJECT
 62
     7
100
AcDbLine
 10
9.983141893553149
 20
6.967296135541079
 30
0.0
 11
10.00206012190673
 21
6.897894132602655
 31
0.0
  0
LINE
  5
4765
330
1E
100
AcDbEntity
  8
OBJECT
 62
     7
100
AcDbLine
 10
9.889064982379011
 20
6.996308971083173
 30
0.0
 11
9.889064982379011
 21
7.024213301613441
 31
0.0
  0
LINE
  5
4766
330
1E
100
AcDbEntity
  8
OBJECT
 62
     7
100
AcDbLine
 10
9.934291675881722
 20
7.094720282502292
 30
0.0
 11
9.926790769661813
 21
6.996308971083173
 31
0.0
  0
ARC
  5
4767
330
1E
100
AcDbEntity
  8
OBJECT
 62
     7
100
AcDbCircle
 10
9.994366707415879
 20
7.067164709850331
 30
0.0
 40
0.0275551671973529
100
AcDbArc
 50
0.0
 51
90.0
  0
LINE
  5
4768
330
1E
100
AcDbEntity
  8
OBJECT
 62
     7
100
AcDbLine
 10
10.02192025279482
 20
6.956944446515528
 30
0.0
 11
9.98596234205616
 21
6.956944446515528
 31
0.0
  0
LINE
  5
4769
330
1E
100
AcDbEntity
  8
OBJECT
 62
     7
100
AcDbLine
 10
10.00206012190673
 20
6.897894132602655
 30
0.0
 11
10.04357236312543
 21
6.897894132602655
 31
0.0
  0
ARC
  5
476A
330
1E
100
AcDbEntity
  8
OBJECT
 62
     7
100
AcDbCircle
 10
9.994366707415879
 20
7.067164709850331
 30
0.0
 40
0.0669196917649999
100
AcDbArc
 50
0.0
 51
90.0
  0
ARC
  5
476B
330
1E
100
AcDbEntity
  8
OBJECT
 62
     7
100
AcDbCircle
 10
10.14198367454455
 20
6.74043956139347
 30
0.0
 40
0.0196822622838235
100
AcDbArc
 50
0.0
 51
90.0
  0
ARC
  5
476C
330
1E
100
AcDbEntity
  8
OBJECT
 62
     7
100
AcDbCircle
 10
10.04357236312543
 20
6.779804085961117
 30
0.0
 40
0.0196822622838235
100
AcDbArc
 50
270.0
 51
0.0
  0
LINE
  5
476D
330
1E
100
AcDbEntity
  8
OBJECT
 62
     7
100
AcDbLine
 10
9.945161051706321
 20
6.779804085961117
 30
0.0
 11
9.945161051706321
 21
6.760121823677295
 31
0.0
  0
ARC
  5
476E
330
1E
100
AcDbEntity
  8
OBJECT
 62
     7
100
AcDbCircle
 10
9.925478789422495
 20
6.779804085961117
 30
0.0
 40
0.0196822622838235
100
AcDbArc
 50
0.0
 51
90.0
  0
LINE
  5
476F
330
1E
100
AcDbEntity
  8
OBJECT
 62
     7
100
AcDbLine
 10
10.14198367454455
 20
7.035673495650822
 30
0.0
 11
10.14198367454455
 21
6.760121823677295
 31
0.0
  0
LINE
  5
4770
330
1E
100
AcDbEntity
  8
OBJECT
 62
     7
100
AcDbLine
 10
10.06325462540926
 20
7.035673495650822
 30
0.0
 11
10.06325462540926
 21
6.779804085961117
 31
0.0
  0
LINE
  5
4810
330
1E
100
AcDbEntity
  8
OBJECT
 62
     7
100
AcDbLine
 10
3.616901779609214
 20
6.763563660186701
 30
0.0
 11
3.51306902341499
 21
6.763563660186701
 31
0.0
  0
LINE
  5
4811
330
1E
100
AcDbEntity
  8
DIM
 62
     1
100
AcDbLine
 10
3.589175436906785
 20
6.900302715139027
 30
0.0
 11
3.769175436906784
 21
6.900302715139027
 31
0.0
  0
LINE
  5
4812
330
1E
100
AcDbEntity
  8
DIM
 62
     1
100
AcDbLine
 10
3.679175436906784
 20
6.810302715139027
 30
0.0
 11
3.679175436906784
 21
6.990302715139026
 31
0.0
  0
LINE
  5
4829
330
1E
100
AcDbEntity
  8
DIM
 62
     1
100
AcDbLine
 10
3.526675436906785
 20
6.900302715139027
 30
0.0
 11
2.29126392485697
 21
6.900302715139027
 31
0.0
  0
LINE
  5
482A
330
1E
100
AcDbEntity
  8
DIM
 62
     1
100
AcDbLine
 10
3.766718617930354
 20
6.012929520956195
 30
0.0
 11
2.29126392485697
 21
6.012929520956195
 31
0.0
  0
LINE
  5
482B
330
1E
100
AcDbEntity
  8
DIM
 62
     1
100
AcDbLine
 10
2.35376392485697
 20
6.750302715139026
 30
0.0
 11
2.35376392485697
 21
6.641898811889188
 31
0.0
  0
LINE
  5
482C
330
1E
100
AcDbEntity
  8
DIM
 62
     1
100
AcDbLine
 10
2.35376392485697
 20
6.162929520956195
 30
0.0
 11
2.35376392485697
 21
6.241163807901088
 31
0.0
  0
SOLID
  5
482D
330
1E
100
AcDbEntity
  8
DIM
 62
     1
100
AcDbTrace
 10
2.32876392485697
 20
6.750302715139026
 30
0.0
 11
2.37876392485697
 21
6.750302715139026
 31
0.0
 12
2.35376392485697
 22
6.900302715139027
 32
0.0
 13
2.35376392485697
 23
6.900302715139027
 33
0.0
  0
SOLID
  5
482E
330
1E
100
AcDbEntity
  8
DIM
 62
     1
100
AcDbTrace
 10
2.32876392485697
 20
6.162929520956195
 30
0.0
 11
2.37876392485697
 21
6.162929520956195
 31
0.0
 12
2.35376392485697
 22
6.012929520956195
 32
0.0
 13
2.35376392485697
 23
6.012929520956195
 33
0.0
  0
MTEXT
  5
482F
330
1E
100
AcDbEntity
  8
DIM
 62
     7
100
AcDbMText
 10
2.353763924856969
 20
6.456616118047612
 30
0.0
 40
0.09
 41
0.0
 71
     5
 72
     1
  1
22.5\P[.886]
 73
     1
 44
1.0
1001
ACAD
1000
MTEXTBEGIN
1070
    73
1070
     1
1070
    44
1040
1.0
1070
    74
1070
     0
1000
MTEXTEND
  0
LINE
  5
4830
330
1E
100
AcDbEntity
  8
DIM
 62
     1
100
AcDbLine
 10
3.679175436906784
 20
7.052802715139026
 30
0.0
 11
3.679175436906784
 21
8.971685137225033
 31
0.0
  0
LINE
  5
4832
330
1E
100
AcDbEntity
  8
DIM
 62
     1
100
AcDbLine
 10
3.829175436906784
 20
8.909185137225033
 30
0.0
 11
4.132204126019781
 21
8.909185137225033
 31
0.0
  0
LINE
  5
4833
330
1E
100
AcDbEntity
  8
DIM
 62
     1
100
AcDbLine
 10
4.885232815132777
 20
8.909185137225033
 30
0.0
 11
4.58220412601978
 21
8.909185137225033
 31
0.0
  0
SOLID
  5
4834
330
1E
100
AcDbEntity
  8
DIM
 62
     1
100
AcDbTrace
 10
3.829175436906784
 20
8.934185137225034
 30
0.0
 11
3.829175436906784
 21
8.884185137225033
 31
0.0
 12
3.679175436906784
 22
8.909185137225033
 32
0.0
 13
3.679175436906784
 23
8.909185137225033
 33
0.0
  0
SOLID
  5
4835
330
1E
100
AcDbEntity
  8
DIM
 62
     1
100
AcDbTrace
 10
4.885232815132777
 20
8.934185137225034
 30
0.0
 11
4.885232815132777
 21
8.884185137225033
 31
0.0
 12
5.035232815132777
 22
8.909185137225033
 32
0.0
 13
5.035232815132777
 23
8.909185137225033
 33
0.0
  0
MTEXT
  5
4836
330
1E
100
AcDbEntity
  8
DIM
 62
     7
100
AcDbMText
 10
4.35720412601978
 20
8.909185137225033
 30
0.0
 40
0.09
 41
0.0
 71
     5
 72
     1
  1
34.6\P[1.362]
 73
     1
 44
1.0
1001
ACAD
1000
MTEXTBEGIN
1070
    73
1070
     1
1070
    44
1040
1.0
1070
    74
1070
     0
1000
MTEXTEND
  0
MTEXT
  5
4838
330
1E
100
AcDbEntity
  8
DIM
 62
     7
100
AcDbMText
 10
6.806744147500253
 20
8.234766162576509
 30
0.0
 40
0.09
 41
0.0
 71
     5
 72
     1
  1
R70\P[2.756]
 73
     1
 44
1.0
1001
ACAD
1000
MTEXTBEGIN
1070
    73
1070
     1
1070
    44
1040
1.0
1070
    74
1070
     0
1000
MTEXTEND
  0
SOLID
  5
4839
330
1E
100
AcDbEntity
  8
DIM
100
AcDbTrace
 10
5.912072364479599
 20
8.244189730790225
 30
0.0
 11
6.054012498970992
 21
8.298760769084958
 31
0.0
 12
5.937443519304452
 22
8.20110487843057
 32
0.0
 13
5.937443519304452
 23
8.20110487843057
 33
0.0
1001
ACAD
1000
DSTYLE
1002
{
1070
   147
1040
0.09
1070
    77
1070
     0
1002
}
  0
LINE
  5
483B
330
1E
100
AcDbEntity
  8
DIM
100
AcDbLine
 10
6.054012498970992
 20
8.298760769084958
 30
0.0
 11
3.679175436906784
 21
6.900302715139027
 31
0.0
1001
ACAD
1000
DSTYLE
1002
{
1070
   147
1040
0.09
1070
    77
1070
     0
1002
}
  0
LINE
  5
483E
330
1E
100
AcDbEntity
  8
DIM
100
AcDbLine
 10
6.054012498970992
 20
8.298760769084958
 30
0.0
 11
6.597615793245617
 21
8.298760769084958
 31
0.0
  0
LINE
  5
4840
330
1E
100
AcDbEntity
  8
DIM
100
AcDbLine
 10
6.476675318083131
 20
7.136489862544912
 30
0.0
 11
6.810200459773009
 21
7.136489862544912
 31
0.0
  0
LINE
  5
4846
330
1E
100
AcDbEntity
  8
DIM
100
AcDbLine
 10
6.437036827487155
 20
7.482370904584691
 30
0.0
 11
7.373511081920382
 21
7.48237090458469
 31
0.0
  0
LINE
  5
4848
330
1E
100
AcDbEntity
  8
DIM
100
AcDbLine
 10
7.323519987190628
 20
7.48237090458469
 30
0.0
 11
7.323519987190628
 21
7.181638475277306
 31
0.0
  0
LINE
  5
4849
330
1E
100
AcDbEntity
  8
DIM
100
AcDbLine
 10
7.323519987190628
 20
6.012929520956194
 30
0.0
 11
7.323519987190628
 21
6.728068344203535
 31
0.0
  0
MTEXT
  5
484D
330
1E
100
AcDbEntity
  8
DIM
 62
     7
100
AcDbMText
 10
6.754753574289258
 20
6.569148519037662
 30
0.0
 40
0.09
 41
0.0
 71
     5
 72
     1
  1
28.5±1.2mm\P[1.122±.047]
 73
     1
 44
1.0
1001
ACAD
1000
MTEXTBEGIN
1070
    73
1070
     1
1070
    44
1040
1.0
1070
    74
1070
     0
1000
MTEXTEND
  0
LINE
  5
484E
330
1E
100
AcDbEntity
  8
DIM
 62
     1
100
AcDbLine
 10
6.774887068189677
 20
6.980772088901174
 30
0.0
 11
6.774887068189677
 21
6.736032593035998
 31
0.0
  0
SOLID
  5
484F
330
1E
100
AcDbEntity
  8
DIM
 62
     1
100
AcDbTrace
 10
6.749887068189677
 20
6.980772088901174
 30
0.0
 11
6.799887068189677
 21
6.980772088901174
 31
0.0
 12
6.774887068189677
 22
7.130772088901174
 32
0.0
 13
6.774887068189677
 23
7.130772088901174
 33
0.0
  0
LINE
  5
4850
330
1E
100
AcDbEntity
  8
DIM
 62
     1
100
AcDbLine
 10
5.58834239403496
 20
7.458703726909398
 30
0.0
 11
5.58834239403496
 21
7.945177870527146
 31
0.0
  0
LINE
  5
4851
330
1E
100
AcDbEntity
  8
DIM
 62
     1
100
AcDbLine
 10
5.588342394034963
 20
7.458703726909398
 30
0.0
 11
5.588342394034963
 21
7.793435374398431
 31
0.0
  0
MTEXT
  5
4852
330
1E
100
AcDbEntity
  8
DIM
 62
     7
100
AcDbMText
 10
7.334077596981229
 20
6.905383572402718
 30
0.0
 40
0.09
 41
0.0
 71
     5
 72
     1
  1
36.7mm\P[1.445]
 73
     1
 44
1.0
1001
ACAD
1000
MTEXTBEGIN
1070
    73
1070
     1
1070
    44
1040
1.0
1070
    74
1070
     0
1000
MTEXTEND
  0
SOLID
  5
4853
330
1E
100
AcDbEntity
  8
DIM
 62
     1
100
AcDbTrace
 10
7.298519987190627
 20
7.332370904584689
 30
0.0
 11
7.348519987190628
 21
7.332370904584689
 31
0.0
 12
7.323519987190628
 22
7.48237090458469
 32
0.0
 13
7.323519987190628
 23
7.48237090458469
 33
0.0
  0
SOLID
  5
4854
330
1E
100
AcDbEntity
  8
DIM
 62
     1
100
AcDbTrace
 10
7.298519987190628
 20
6.162929520956194
 30
0.0
 11
7.348519987190629
 21
6.162929520956194
 31
0.0
 12
7.323519987190628
 22
6.012929520956194
 32
0.0
 13
7.323519987190628
 23
6.012929520956194
 33
0.0
  0
LINE
  5
4857
330
1E
100
AcDbEntity
  8
DIM
 62
     1
100
AcDbLine
 10
9.590880330597496
 20
7.196584807069939
 30
0.0
 11
9.590880330597496
 21
7.877910115587003
 31
0.0
  0
LINE
  5
4858
330
1E
100
AcDbEntity
  8
DIM
 62
     1
100
AcDbLine
 10
9.905796527138672
 20
7.196584807069939
 30
0.0
 11
9.905796527138672
 21
7.877910115587003
 31
0.0
  0
LINE
  5
4859
330
1E
100
AcDbEntity
  8
DIM
 62
     1
100
AcDbLine
 10
9.440880330597495
 20
7.815410115587003
 30
0.0
 11
9.290880330597495
 21
7.815410115587003
 31
0.0
  0
LINE
  5
485A
330
1E
100
AcDbEntity
  8
DIM
 62
     1
100
AcDbLine
 10
10.05579652713867
 20
7.815410115587003
 30
0.0
 11
10.20579652713867
 21
7.815410115587003
 31
0.0
  0
SOLID
  5
485B
330
1E
100
AcDbEntity
  8
DIM
 62
     1
100
AcDbTrace
 10
9.440880330597495
 20
7.840410115587003
 30
0.0
 11
9.440880330597495
 21
7.790410115587002
 31
0.0
 12
9.590880330597496
 22
7.815410115587003
 32
0.0
 13
9.590880330597496
 23
7.815410115587003
 33
0.0
  0
SOLID
  5
485C
330
1E
100
AcDbEntity
  8
DIM
 62
     1
100
AcDbTrace
 10
10.05579652713867
 20
7.840410115587003
 30
0.0
 11
10.05579652713867
 21
7.790410115587002
 31
0.0
 12
9.905796527138672
 22
7.815410115587003
 32
0.0
 13
9.905796527138672
 23
7.815410115587003
 33
0.0
  0
MTEXT
  5
485D
330
1E
100
AcDbEntity
  8
DIM
 62
     7
100
AcDbMText
 10
9.200904703498428
 20
7.78023151526013
 30
0.0
 40
0.09
 41
0.0
 71
     5
 72
     1
  1
8\P[.315]
 73
     1
 44
1.0
1001
ACAD
1000
MTEXTBEGIN
1070
    73
1070
     1
1070
    44
1040
1.0
1070
    74
1070
     0
1000
MTEXTEND
  0
LINE
  5
485F
330
1E
100
AcDbEntity
  8
CENTER
 62
     3
100
AcDbLine
 10
9.190367233653644
 20
6.012071533457509
 30
0.0
 11
10.32628355952276
 21
6.012071533457509
 31
0.0
  0
ARC
  5
4862
330
1E
100
AcDbEntity
  8
DIM
100
AcDbCircle
 10
3.679175436906784
 20
6.900302715139027
 30
0.0
 40
2.756
100
AcDbArc
 50
11.34807033812642
 51
12.16894718288231
  0
LINE
  5
4864
330
1E
100
AcDbEntity
  8
DIM
 62
     1
100
AcDbLine
 10
5.035232815132777
 20
7.361408789316868
 30
0.0
 11
5.035232815132777
 21
7.619353256813035
 31
0.0
  0
LINE
  5
4865
330
1E
100
AcDbEntity
  8
DIM
 62
     1
100
AcDbLine
 10
5.035232815132777
 20
7.354620756550243
 30
0.0
 11
5.035232815132777
 21
7.632929270503911
 31
0.0
  0
ARC
  5
4866
330
1E
100
AcDbEntity
  8
DIM
100
AcDbCircle
 10
3.679175436906784
 20
6.900302715139027
 30
0.0
 40
2.756
100
AcDbArc
 50
13.51664261217977
 51
31.49413305587442
  0
LINE
  5
4867
330
1E
100
AcDbEntity
  8
DIM
 62
     1
100
AcDbLine
 10
5.58834239403496
 20
8.080938111120669
 30
0.0
 11
5.58834239403496
 21
9.321885912931925
 31
0.0
  0
LINE
  5
4868
330
1E
100
AcDbEntity
  8
DIM
 62
     1
100
AcDbLine
 10
5.035232815132777
 20
7.775477543864059
 30
0.0
 11
5.035232815132777
 21
8.971685137225033
 31
0.0
  0
LINE
  5
4869
330
1E
100
AcDbEntity
  8
DIM
 62
     1
100
AcDbLine
 10
5.035232815132777
 20
7.748325490561118
 30
0.0
 11
5.035232815132777
 21
7.793435374398431
 31
0.0
  0
MTEXT
  5
486A
330
1E
100
AcDbEntity
  8
DIM
 62
     7
100
AcDbMText
 10
7.751115866224494
 20
6.92667972772822
 30
0.0
 40
0.09
 41
0.0
 71
     5
 72
     1
  1
MAX
 73
     1
 44
1.0
1001
ACAD
1000
MTEXTBEGIN
1070
    73
1070
     1
1070
    44
1040
1.0
1070
    74
1070
     0
1000
MTEXTEND
  0
LINE
  5
486E
330
1E
100
AcDbEntity
  8
DIM
 62
     1
100
AcDbLine
 10
5.588342394034964
 20
7.170905181702973
 30
0.0
 11
5.588342394034963
 21
7.304287179420949
 31
0.0
  0
LINE
  5
486F
330
1E
100
AcDbEntity
  8
DIM
 62
     1
100
AcDbLine
 10
5.58834239403496
 20
7.170905181702973
 30
0.0
 11
5.58834239403496
 21
7.277037221799258
 31
0.0
  0
LINE
  5
4870
330
1E
100
AcDbEntity
  8
DIM
 62
     1
100
AcDbLine
 10
5.035232815132777
 20
7.164930711273726
 30
0.0
 11
5.035232815132777
 21
7.243571934089906
 31
0.0
  0
ENDSEC
  0
SECTION
  2
OBJECTS
  0
DICTIONARY
  5
C
330
0
100
AcDbDictionary
281
     1
  3
ACAD_COLOR
350
4881
  3
ACAD_GROUP
350
D
  3
ACAD_LAYOUT
350
19
  3
ACAD_MATERIAL
350
4880
  3
ACAD_MLINESTYLE
350
16
  3
ACAD_PLOTSETTINGS
350
18
  3
ACAD_PLOTSTYLENAME
350
E
  3
ACAD_TABLESTYLE
350
4882
  3
AcadDim
350
44BB
  3
ACDBHEADERROUNDTRIPXREC
350
493E
  3
AcDbVariableDictionary
350
3CD
  3
AcmDictionary
350
48E1
  3
AMG
350
4889
  3
AMGSNAPSETTINGS
350
4934
  3
ASE_INDEX_DICTIONARY
350
3E2
  0
DICTIONARY
  5
4881
102
{ACAD_REACTORS
330
C
102
}
330
C
100
AcDbDictionary
281
     1
  0
DICTIONARY
  5
D
102
{ACAD_REACTORS
330
C
102
}
330
C
100
AcDbDictionary
281
     1
  0
DICTIONARY
  5
19
102
{ACAD_REACTORS
330
C
102
}
330
C
100
AcDbDictionary
281
     1
  3
Layout1
350
1D
  3
Model
350
21
  0
DICTIONARY
  5
4880
102
{ACAD_REACTORS
330
C
102
}
330
C
100
AcDbDictionary
281
     1
  0
DICTIONARY
  5
16
102
{ACAD_REACTORS
330
C
102
}
330
C
100
AcDbDictionary
281
     1
  3
Standard
350
17
  0
DICTIONARY
  5
18
102
{ACAD_REACTORS
330
C
102
}
330
C
100
AcDbDictionary
281
     1
  0
ACDBDICTIONARYWDFLT
  5
E
102
{ACAD_REACTORS
330
C
102
}
330
C
100
AcDbDictionary
281
     1
  3
Normal
350
F
100
AcDbDictionaryWithDefault
340
F
  0
DICTIONARY
  5
4882
102
{ACAD_REACTORS
330
C
102
}
330
C
100
AcDbDictionary
281
     1
  3
Standard
350
4883
  0
XRECORD
  5
44BB
102
{ACAD_REACTORS
330
C
102
}
330
C
100
AcDbXrecord
280
     1
 90
   990106
  3

 60
     0
 61
     0
 62
     1
 63
     3
 64
     0
 65
     0
 66
     0
 67
     3
 68
     1
 69
     0
 70
     0
 71
     0
 72
     0
 40
0.0
170
     0
  0
DICTIONARY
  5
493E
102
{ACAD_REACTORS
330
C
102
}
330
C
100
AcDbDictionary
281
     1
  0
DICTIONARY
  5
3CD
102
{ACAD_REACTORS
330
C
102
}
330
C
100
AcDbDictionary
281
     1
  3
CTABLESTYLE
350
493B
  3
DIMASSOC
350
3CF
  3
HIDETEXT
350
3CE
  3
PROJECTNAME
350
493C
  0
DICTIONARY
  5
48E1
102
{ACAD_REACTORS
330
C
102
}
330
C
100
AcDbDictionary
281
     1
  3
AcmStdDictionary
350
48EC
  3
AMDTSECTSYM_ARROWCOLOR
350
490A
  0
DICTIONARY
  5
4889
102
{ACAD_REACTORS
330
C
102
}
330
C
100
AcDbDictionary
281
     1
  0
DICTIONARY
  5
4934
102
{ACAD_REACTORS
330
C
102
}
330
C
100
AcDbDictionary
281
     1
  0
DICTIONARY
  5
3E2
102
{ACAD_REACTORS
330
C
102
}
330
C
100
AcDbDictionary
281
     1
  3
ASEBlockHierarchyIndexRecord
350
3E4
1001
DCO15
1040
1464945035.036
  0
LAYOUT
  5
1D
102
{ACAD_XDICTIONARY
360
493F
102
}
102
{ACAD_REACTORS
330
19
102
}
330
19
100
AcDbPlotSettings
  1

  2
C:\Program Files\AutoCAD 2002\plotters\DWF ePlot (optimized for plotting).pc3
  4

  6

 40
0.0
 41
0.0
 42
0.0
 43
0.0
 44
0.0
 45
0.0
 46
0.0
 47
0.0
 48
0.0
 49
0.0
140
0.0
141
0.0
142
1.0
143
1.0
 70
   688
 72
     0
 73
     0
 74
     5
  7
standard.ctb
 75
    16
147
1.0
148
0.0
149
0.0
100
AcDbLayout
  1
Layout1
 70
     1
 71
     1
 10
0.0
 20
0.0
 11
12.0
 21
9.0
 12
0.0
 22
0.0
 32
0.0
 14
1.000000000000000E+20
 24
1.000000000000000E+20
 34
1.000000000000000E+20
 15
-1.000000000000000E+20
 25
-1.000000000000000E+20
 35
-1.000000000000000E+20
146
0.0
 13
0.0
 23
0.0
 33
0.0
 16
1.0
 26
0.0
 36
0.0
 17
0.0
 27
1.0
 37
0.0
 76
     0
330
1A
  0
LAYOUT
  5
21
102
{ACAD_XDICTIONARY
360
4941
102
}
102
{ACAD_REACTORS
330
19
102
}
330
19
100
AcDbPlotSettings
  1

  2
\\USCHMMGMT015\USCHMPD0026
  4
Tabloid
  6

 40
5.027083396911621
 41
5.027085304260253
 42
5.027099609375
 43
5.027069091796875
 44
279.3999938964844
 45
431.7999877929687
 46
0.0
 47
0.0
 48
0.0
 49
0.0
140
0.0
141
0.0
142
1.0
143
0.9914069849915843
 70
 11952
 72
     0
 73
     1
 74
     1
  7
standard.ctb
 75
     0
147
1.008667494922368
148
-2.622321565056127
149
-7.644107715091882
100
AcDbLayout
  1
Model
 70
     1
 71
     0
 10
0.0
 20
0.0
 11
12.0
 21
9.0
 12
0.0
 22
0.0
 32
0.0
 14
0.0
 24
0.0
 34
0.0
 15
0.0
 25
0.0
 35
0.0
146
0.0
 13
0.0
 23
0.0
 33
0.0
 16
1.0
 26
0.0
 36
0.0
 17
0.0
 27
1.0
 37
0.0
 76
     0
330
1E
  0
MLINESTYLE
  5
17
102
{ACAD_REACTORS
330
16
102
}
330
16
100
AcDbMlineStyle
  2
STANDARD
 70
     0
  3

 62
   256
 51
90.0
 52
90.0
 71
     2
 49
0.5
 62
   256
  6
BYLAYER
 49
-0.5
 62
   256
  6
BYLAYER
  0
ACDBPLACEHOLDER
  5
F
102
{ACAD_REACTORS
330
E
102
}
330
E
  0
TABLESTYLE
  5
4883
102
{ACAD_REACTORS
330
4882
102
}
330
4882
100
AcDbTableStyle
  3
Standard
 70
     0
 71
     0
 40
0.06
 41
0.06
280
     0
281
     0
  7
STANDARD
140
0.18
170
     2
 62
     0
 63
     7
283
     0
274
    -2
284
     1
 64
     0
275
    -2
285
     1
 65
     0
276
    -2
286
     1
 66
     0
277
    -2
287
     1
 67
     0
278
    -2
288
     1
 68
     0
279
    -2
289
     1
 69
     0
  7
STANDARD
140
0.25
170
     5
 62
     0
 63
     7
283
     0
274
    -2
284
     1
 64
     0
275
    -2
285
     1
 65
     0
276
    -2
286
     1
 66
     0
277
    -2
287
     1
 67
     0
278
    -2
288
     1
 68
     0
279
    -2
289
     1
 69
     0
  7
STANDARD
140
0.18
170
     5
 62
     0
 63
     7
283
     0
274
    -2
284
     1
 64
     0
275
    -2
285
     1
 65
     0
276
    -2
286
     1
 66
     0
277
    -2
287
     1
 67
     0
278
    -2
288
     1
 68
     0
279
    -2
289
     1
 69
     0
  0
DICTIONARYVAR
  5
493B
102
{ACAD_REACTORS
330
3CD
102
}
330
3CD
100
DictionaryVariables
280
     0
  1
STANDARD
  0
DICTIONARYVAR
  5
3CF
102
{ACAD_REACTORS
330
3CD
102
}
330
3CD
100
DictionaryVariables
280
     0
  1
0
  0
DICTIONARYVAR
  5
3CE
102
{ACAD_REACTORS
330
3CD
102
}
330
3CD
100
DictionaryVariables
280
     0
  1
1
  0
DICTIONARYVAR
  5
493C
102
{ACAD_REACTORS
330
3CD
102
}
330
3CD
100
DictionaryVariables
280
     0
  1

  0
DICTIONARY
  5
48EC
102
{ACAD_REACTORS
330
48E1
102
}
330
48E1
100
AcDbDictionary
281
     1
  0
XRECORD
  5
490A
102
{ACAD_REACTORS
330
48E1
102
}
330
48E1
100
AcDbXrecord
280
     1
 90
-1023410169
  0
XRECORD
  5
3E4
102
{ACAD_REACTORS
330
3E2
102
}
330
3E2
100
AcDbXrecord
280
     1
330
0
330
0
  0
DICTIONARY
  5
493F
330
1D
100
AcDbDictionary
280
     1
281
     1
  3
ACAD_XREC_ROUNDTRIP
360
4940
  0
DICTIONARY
  5
4941
330
21
100
AcDbDictionary
280
     1
281
     1
  3
ACAD_XREC_ROUNDTRIP
360
4942
  0
XRECORD
  5
4940
102
{ACAD_REACTORS
330
493F
102
}
330
493F
100
AcDbXrecord
280
     1
102
SHADEPLOT
 70
     0
102
SHADEPLOTRESLEVEL
 70
     2
102
SHADEPLOTCUSTOMDPI
 70
   300
  0
XRECORD
  5
4942
102
{ACAD_REACTORS
330
4941
102
}
330
4941
100
AcDbXrecord
280
     1
102
SHADEPLOT
 70
     0
102
SHADEPLOTRESLEVEL
 70
     2
102
SHADEPLOTCUSTOMDPI
 70
   300
  0
ENDSEC
  0
EOF
