  0
SECTION
  2
HEADER
  9
$ACADVER
  1
AC1018
  9
$ACADMAINTVER
 70
   104
  9
$DWGCODEPAGE
  3
ANSI_1252
  9
$LASTSAVEDBY
  1
aereyes
  9
$INSBASE
 10
0.0
 20
0.0
 30
0.0
  9
$EXTMIN
 10
0.25
 20
0.2483302711109045
 30
0.0
  9
$EXTMAX
 10
10.71
 20
8.210016413185645
 30
0.0
  9
$LIMMIN
 10
0.0
 20
0.0
  9
$LIMMAX
 10
11.0
 20
8.5
  9
$ORTHOMODE
 70
     1
  9
$REGENMODE
 70
     1
  9
$FILLMODE
 70
     1
  9
$QTEXTMODE
 70
     0
  9
$MIRRTEXT
 70
     1
  9
$LTSCALE
 40
0.25
  9
$ATTMODE
 70
     1
  9
$TEXTSIZE
 40
0.12
  9
$TRACEWID
 40
0.05
  9
$TEXTSTYLE
  7
STANDARD
  9
$CLAYER
  8
OBJECT
  9
$CELTYPE
  6
BYLAYER
  9
$CECOLOR
 62
   256
  9
$CELTSCALE
 40
1.0
  9
$DISPSILH
 70
     0
  9
$DIMSCALE
 40
0.0
  9
$DIMASZ
 40
0.18
  9
$DIMEXO
 40
0.0625
  9
$DIMDLI
 40
0.38
  9
$DIMRND
 40
0.0
  9
$DIMDLE
 40
0.0
  9
$DIMEXE
 40
0.18
  9
$DIMTP
 40
0.0
  9
$DIMTM
 40
0.0
  9
$DIMTXT
 40
0.125
  9
$DIMCEN
 40
0.09
  9
$DIMTSZ
 40
0.0
  9
$DIMTOL
 70
     0
  9
$DIMLIM
 70
     0
  9
$DIMTIH
 70
     1
  9
$DIMTOH
 70
     1
  9
$DIMSE1
 70
     0
  9
$DIMSE2
 70
     0
  9
$DIMTAD
 70
     0
  9
$DIMZIN
 70
     0
  9
$DIMBLK
  1

  9
$DIMASO
 70
     0
  9
$DIMSHO
 70
     1
  9
$DIMPOST
  1

  9
$DIMAPOST
  1

  9
$DIMALT
 70
     0
  9
$DIMALTD
 70
     2
  9
$DIMALTF
 40
25.4
  9
$DIMLFAC
 40
1.0
  9
$DIMTOFL
 70
     0
  9
$DIMTVP
 40
0.0
  9
$DIMTIX
 70
     0
  9
$DIMSOXD
 70
     0
  9
$DIMSAH
 70
     0
  9
$DIMBLK1
  1

  9
$DIMBLK2
  1

  9
$DIMSTYLE
  2
STANDARD
  9
$DIMCLRD
 70
     1
  9
$DIMCLRE
 70
     1
  9
$DIMCLRT
 70
     7
  9
$DIMTFAC
 40
1.0
  9
$DIMGAP
 40
0.09
  9
$DIMJUST
 70
     0
  9
$DIMSD1
 70
     0
  9
$DIMSD2
 70
     0
  9
$DIMTOLJ
 70
     1
  9
$DIMTZIN
 70
     0
  9
$DIMALTZ
 70
     0
  9
$DIMALTTZ
 70
     0
  9
$DIMUPT
 70
     0
  9
$DIMDEC
 70
     4
  9
$DIMTDEC
 70
     4
  9
$DIMALTU
 70
     2
  9
$DIMALTTD
 70
     2
  9
$DIMTXSTY
  7
STANDARD
  9
$DIMAUNIT
 70
     0
  9
$DIMADEC
 70
     0
  9
$DIMALTRND
 40
0.0
  9
$DIMAZIN
 70
     0
  9
$DIMDSEP
 70
    46
  9
$DIMATFIT
 70
     3
  9
$DIMFRAC
 70
     0
  9
$DIMLDRBLK
  1

  9
$DIMLUNIT
 70
     2
  9
$DIMLWD
 70
    -2
  9
$DIMLWE
 70
    -2
  9
$DIMTMOVE
 70
     0
  9
$LUNITS
 70
     2
  9
$LUPREC
 70
     4
  9
$SKETCHINC
 40
0.1
  9
$FILLETRAD
 40
0.0
  9
$AUNITS
 70
     0
  9
$AUPREC
 70
     0
  9
$MENU
  1
acad
  9
$ELEVATION
 40
0.0
  9
$PELEVATION
 40
0.0
  9
$THICKNESS
 40
0.0
  9
$LIMCHECK
 70
     0
  9
$CHAMFERA
 40
0.0
  9
$CHAMFERB
 40
0.0
  9
$CHAMFERC
 40
0.0
  9
$CHAMFERD
 40
0.0
  9
$SKPOLY
 70
     0
  9
$TDCREATE
 40
2450156.536341667
  9
$TDUCREATE
 40
2450156.744675000
  9
$TDUPDATE
 40
2454821.745215313
  9
$TDUUPDATE
 40
2454821.953548646
  9
$TDINDWG
 40
0.3771476968
  9
$TDUSRTIMER
 40
0.3771476968
  9
$USRTIMER
 70
     1
  9
$ANGBASE
 50
0.0
  9
$ANGDIR
 70
     0
  9
$PDMODE
 70
     0
  9
$PDSIZE
 40
0.0
  9
$PLINEWID
 40
0.0
  9
$SPLFRAME
 70
     0
  9
$SPLINETYPE
 70
     6
  9
$SPLINESEGS
 70
     8
  9
$HANDSEED
  5
EA2
  9
$SURFTAB1
 70
     6
  9
$SURFTAB2
 70
     6
  9
$SURFTYPE
 70
     6
  9
$SURFU
 70
     6
  9
$SURFV
 70
     6
  9
$UCSBASE
  2

  9
$UCSNAME
  2

  9
$UCSORG
 10
0.0
 20
0.0
 30
0.0
  9
$UCSXDIR
 10
1.0
 20
0.0
 30
0.0
  9
$UCSYDIR
 10
0.0
 20
1.0
 30
0.0
  9
$UCSORTHOREF
  2

  9
$UCSORTHOVIEW
 70
     0
  9
$UCSORGTOP
 10
0.0
 20
0.0
 30
0.0
  9
$UCSORGBOTTOM
 10
0.0
 20
0.0
 30
0.0
  9
$UCSORGLEFT
 10
0.0
 20
0.0
 30
0.0
  9
$UCSORGRIGHT
 10
0.0
 20
0.0
 30
0.0
  9
$UCSORGFRONT
 10
0.0
 20
0.0
 30
0.0
  9
$UCSORGBACK
 10
0.0
 20
0.0
 30
0.0
  9
$PUCSBASE
  2

  9
$PUCSNAME
  2

  9
$PUCSORG
 10
0.0
 20
0.0
 30
0.0
  9
$PUCSXDIR
 10
1.0
 20
0.0
 30
0.0
  9
$PUCSYDIR
 10
0.0
 20
1.0
 30
0.0
  9
$PUCSORTHOREF
  2

  9
$PUCSORTHOVIEW
 70
     0
  9
$PUCSORGTOP
 10
0.0
 20
0.0
 30
0.0
  9
$PUCSORGBOTTOM
 10
0.0
 20
0.0
 30
0.0
  9
$PUCSORGLEFT
 10
0.0
 20
0.0
 30
0.0
  9
$PUCSORGRIGHT
 10
0.0
 20
0.0
 30
0.0
  9
$PUCSORGFRONT
 10
0.0
 20
0.0
 30
0.0
  9
$PUCSORGBACK
 10
0.0
 20
0.0
 30
0.0
  9
$USERI1
 70
     0
  9
$USERI2
 70
     0
  9
$USERI3
 70
     0
  9
$USERI4
 70
     0
  9
$USERI5
 70
     0
  9
$USERR1
 40
0.0
  9
$USERR2
 40
0.0
  9
$USERR3
 40
0.0
  9
$USERR4
 40
0.0
  9
$USERR5
 40
0.0
  9
$WORLDVIEW
 70
     1
  9
$SHADEDGE
 70
     3
  9
$SHADEDIF
 70
    70
  9
$TILEMODE
 70
     1
  9
$MAXACTVP
 70
    16
  9
$PINSBASE
 10
0.0
 20
0.0
 30
0.0
  9
$PLIMCHECK
 70
     0
  9
$PEXTMIN
 10
1.000000000000000E+20
 20
1.000000000000000E+20
 30
1.000000000000000E+20
  9
$PEXTMAX
 10
-1.000000000000000E+20
 20
-1.000000000000000E+20
 30
-1.000000000000000E+20
  9
$PLIMMIN
 10
0.0
 20
0.0
  9
$PLIMMAX
 10
12.0
 20
9.0
  9
$UNITMODE
 70
     0
  9
$VISRETAIN
 70
     0
  9
$PLINEGEN
 70
     0
  9
$PSLTSCALE
 70
     0
  9
$TREEDEPTH
 70
  3020
  9
$CMLSTYLE
  2
STANDARD
  9
$CMLJUST
 70
     0
  9
$CMLSCALE
 40
1.0
  9
$PROXYGRAPHICS
 70
     1
  9
$MEASUREMENT
 70
     0
  9
$CELWEIGHT
370
    -1
  9
$ENDCAPS
280
     0
  9
$JOINSTYLE
280
     0
  9
$LWDISPLAY
290
     0
  9
$INSUNITS
 70
     0
  9
$HYPERLINKBASE
  1

  9
$STYLESHEET
  1

  9
$XEDIT
290
     1
  9
$CEPSNTYPE
380
     0
  9
$PSTYLEMODE
290
     1
  9
$FINGERPRINTGUID
  2
{97FB4B60-9A49-49E5-8841-953C339703E3}
  9
$VERSIONGUID
  2
{333ED45B-26B3-4509-A750-4A87D9B173F0}
  9
$EXTNAMES
290
     1
  9
$PSVPSCALE
 40
0.0
  9
$OLESTARTUP
290
     0
  9
$SORTENTS
280
    96
  9
$INDEXCTL
280
     0
  9
$HIDETEXT
280
     0
  9
$XCLIPFRAME
290
     0
  9
$HALOGAP
280
     0
  9
$OBSCOLOR
 70
   257
  9
$OBSLTYPE
280
     0
  9
$INTERSECTIONDISPLAY
280
     0
  9
$INTERSECTIONCOLOR
 70
   257
  9
$DIMASSOC
280
     0
  9
$PROJECTNAME
  1

  0
ENDSEC
  0
SECTION
  2
CLASSES
  0
CLASS
  1
DICTIONARYVAR
  2
AcDbDictionaryVar
  3
ObjectDBX Classes
 90
        0
 91
        5
280
     0
281
     0
  0
CLASS
  1
ACDBDICTIONARYWDFLT
  2
AcDbDictionaryWithDefault
  3
ObjectDBX Classes
 90
        0
 91
        1
280
     0
281
     0
  0
CLASS
  1
MATERIAL
  2
AcDbMaterial
  3
ObjectDBX Classes
 90
     1153
 91
        3
280
     0
281
     0
  0
CLASS
  1
VISUALSTYLE
  2
AcDbVisualStyle
  3
ObjectDBX Classes
 90
     4095
 91
       16
280
     0
281
     0
  0
CLASS
  1
TABLESTYLE
  2
AcDbTableStyle
  3
ObjectDBX Classes
 90
     4095
 91
        1
280
     0
281
     0
  0
CLASS
  1
SCALE
  2
AcDbScale
  3
ObjectDBX Classes
 90
     1153
 91
       33
280
     0
281
     0
  0
CLASS
  1
MLEADERSTYLE
  2
AcDbMLeaderStyle
  3
ACDB_MLEADERSTYLE_CLASS
 90
     4095
 91
        1
280
     0
281
     0
  0
CLASS
  1
CELLSTYLEMAP
  2
AcDbCellStyleMap
  3
ObjectDBX Classes
 90
     1152
 91
        2
280
     0
281
     0
  0
ENDSEC
  0
SECTION
  2
TABLES
  0
TABLE
  2
VPORT
  5
8
330
0
100
AcDbSymbolTable
 70
     1
  0
VPORT
  5
E22
330
8
100
AcDbSymbolTableRecord
100
AcDbViewportTableRecord
  2
*ACTIVE
 70
     0
 10
0.0
 20
0.0
 11
1.0
 21
1.0
 12
7.766697588126159
 22
4.621596727351397
 13
0.0
 23
0.0
 14
0.062
 24
0.062
 15
0.25
 25
0.25
 16
0.0
 26
0.0
 36
1.0
 17
0.0
 27
0.0
 37
0.0
 40
9.243193454702794
 41
1.680522565320664
 42
50.0
 43
0.0
 44
0.0
 50
0.0
 51
0.0
 71
     0
 72
   500
 73
     1
 74
     0
 75
     0
 76
     0
 77
     0
 78
     0
281
     0
 65
     1
110
0.0
120
0.0
130
0.0
111
1.0
121
0.0
131
0.0
112
0.0
122
1.0
132
0.0
 79
     0
146
0.0
  0
ENDTAB
  0
TABLE
  2
LTYPE
  5
5
330
0
100
AcDbSymbolTable
 70
     4
  0
LTYPE
  5
11
330
5
100
AcDbSymbolTableRecord
100
AcDbLinetypeTableRecord
  2
BYBLOCK
 70
     0
  3

 72
    65
 73
     0
 40
0.0
  0
LTYPE
  5
12
330
5
100
AcDbSymbolTableRecord
100
AcDbLinetypeTableRecord
  2
BYLAYER
 70
     0
  3

 72
    65
 73
     0
 40
0.0
  0
LTYPE
  5
13
330
5
100
AcDbSymbolTableRecord
100
AcDbLinetypeTableRecord
  2
CONTINUOUS
 70
     0
  3
Solid line
 72
    65
 73
     0
 40
0.0
  0
LTYPE
  5
1D
330
5
100
AcDbSymbolTableRecord
100
AcDbLinetypeTableRecord
  2
CENTER
 70
     0
  3
____ _ ____ _ ____ _ ____ _ ____ _ ____ _ ____ 
 72
    65
 73
     4
 40
2.0
 49
1.25
 74
     0
 49
-0.25
 74
     0
 49
0.25
 74
     0
 49
-0.25
 74
     0
  0
LTYPE
  5
1E
330
5
100
AcDbSymbolTableRecord
100
AcDbLinetypeTableRecord
  2
HIDDEN
 70
     0
  3
__ __ __ __ __ __ __ __ __ __ __ __ __ __ __ __
 72
    65
 73
     2
 40
0.375
 49
0.25
 74
     0
 49
-0.125
 74
     0
  0
LTYPE
  5
DC7
330
5
100
AcDbSymbolTableRecord
100
AcDbLinetypeTableRecord
  2
CENTER2
 70
     0
  3
Center (.5x) ___ _ ___ _ ___ _ ___ _ ___ _ ___
 72
    65
 73
     4
 40
1.125
 49
0.75
 74
     0
 49
-0.125
 74
     0
 49
0.125
 74
     0
 49
-0.125
 74
     0
  0
ENDTAB
  0
TABLE
  2
LAYER
  5
2
330
0
100
AcDbSymbolTable
 70
     9
  0
LAYER
  5
E
102
{ACAD_XDICTIONARY
360
E7F
102
}
330
2
100
AcDbSymbolTableRecord
100
AcDbLayerTableRecord
  2
0
 70
     0
 62
     7
  6
CONTINUOUS
370
    -3
390
E25
  0
LAYER
  5
21
102
{ACAD_XDICTIONARY
360
E81
102
}
330
2
100
AcDbSymbolTableRecord
100
AcDbLayerTableRecord
  2
FORM
 70
     0
 62
     7
  6
CONTINUOUS
370
    -3
390
E25
  0
LAYER
  5
22
102
{ACAD_XDICTIONARY
360
E83
102
}
330
2
100
AcDbSymbolTableRecord
100
AcDbLayerTableRecord
  2
CENTER
 70
     0
 62
     3
  6
CENTER2
370
    -3
390
E25
  0
LAYER
  5
23
102
{ACAD_XDICTIONARY
360
E85
102
}
330
2
100
AcDbSymbolTableRecord
100
AcDbLayerTableRecord
  2
DIM
 70
     0
 62
     1
  6
CONTINUOUS
370
    -3
390
E25
  0
LAYER
  5
24
102
{ACAD_XDICTIONARY
360
E87
102
}
330
2
100
AcDbSymbolTableRecord
100
AcDbLayerTableRecord
  2
HATCH
 70
     0
 62
     4
  6
CONTINUOUS
370
    -3
390
E25
  0
LAYER
  5
25
102
{ACAD_XDICTIONARY
360
E89
102
}
330
2
100
AcDbSymbolTableRecord
100
AcDbLayerTableRecord
  2
HIDDEN
 70
     0
 62
     5
  6
HIDDEN
370
    -3
390
E25
  0
LAYER
  5
26
102
{ACAD_XDICTIONARY
360
E8B
102
}
330
2
100
AcDbSymbolTableRecord
100
AcDbLayerTableRecord
  2
OBJECT
 70
     0
 62
     7
  6
CONTINUOUS
370
    -3
390
E25
  0
LAYER
  5
27
102
{ACAD_XDICTIONARY
360
E8D
102
}
330
2
100
AcDbSymbolTableRecord
100
AcDbLayerTableRecord
  2
TEXT
 70
     0
 62
     7
  6
CONTINUOUS
370
    -3
390
E25
  0
LAYER
  5
C30
102
{ACAD_XDICTIONARY
360
E8F
102
}
330
2
100
AcDbSymbolTableRecord
100
AcDbLayerTableRecord
  2
NODE
 70
     0
 62
     7
  6
CONTINUOUS
370
    -3
390
E25
  0
ENDTAB
  0
TABLE
  2
STYLE
  5
3
330
0
100
AcDbSymbolTable
 70
     5
  0
STYLE
  5
F
330
3
100
AcDbSymbolTableRecord
100
AcDbTextStyleTableRecord
  2
STANDARD
 70
     0
 40
0.0
 41
1.0
 50
0.0
 71
     0
 42
0.12
  3
ROMANS.SHX
  4

  0
STYLE
  5
1C
330
3
100
AcDbSymbolTableRecord
100
AcDbTextStyleTableRecord
  2
ROMANS
 70
     0
 40
0.0
 41
1.0
 50
0.0
 71
     0
 42
0.08
  3
romans
  4

  0
STYLE
  5
B79
330
3
100
AcDbSymbolTableRecord
100
AcDbTextStyleTableRecord
  2
HELV
 70
     0
 40
0.0
 41
1.0
 50
0.0
 71
     0
 42
0.15
  3
HELVMED
  4

  0
STYLE
  5
B7A
330
3
100
AcDbSymbolTableRecord
100
AcDbTextStyleTableRecord
  2
HELR
 70
     0
 40
0.0
 41
1.0
 50
0.0
 71
     0
 42
0.2
  3
HELV
  4

  0
STYLE
  5
DC6
330
3
100
AcDbSymbolTableRecord
100
AcDbTextStyleTableRecord
  2

 70
     1
 40
0.0
 41
1.0
 50
0.0
 71
     0
 42
0.12
  3
ltypeshp.shx
  4

  0
ENDTAB
  0
TABLE
  2
VIEW
  5
6
330
0
100
AcDbSymbolTable
 70
     0
  0
ENDTAB
  0
TABLE
  2
UCS
  5
7
330
0
100
AcDbSymbolTable
 70
     0
  0
ENDTAB
  0
TABLE
  2
APPID
  5
9
330
0
100
AcDbSymbolTable
 70
     2
  0
APPID
  5
10
330
9
100
AcDbSymbolTableRecord
100
AcDbRegAppTableRecord
  2
ACAD
 70
     0
  0
APPID
  5
E77
330
9
100
AcDbSymbolTableRecord
100
AcDbRegAppTableRecord
  2
ACAD_MLEADERVER
 70
     0
  0
ENDTAB
  0
TABLE
  2
DIMSTYLE
  5
A
330
0
100
AcDbSymbolTable
 70
     1
100
AcDbDimStyleTable
 71
     0
  0
DIMSTYLE
105
FA
330
A
100
AcDbSymbolTableRecord
100
AcDbDimStyleTableRecord
  2
STANDARD
 70
     0
340
F
  0
ENDTAB
  0
TABLE
  2
BLOCK_RECORD
  5
1
330
0
100
AcDbSymbolTable
 70
     0
  0
BLOCK_RECORD
  5
17
330
1
100
AcDbSymbolTableRecord
100
AcDbBlockTableRecord
  2
*MODEL_SPACE
340
E7A
  0
BLOCK_RECORD
  5
14
330
1
100
AcDbSymbolTableRecord
100
AcDbBlockTableRecord
  2
*PAPER_SPACE
340
E7B
  0
ENDTAB
  0
ENDSEC
  0
SECTION
  2
BLOCKS
  0
BLOCK
  5
2A
330
17
100
AcDbEntity
  8
0
100
AcDbBlockBegin
  2
*MODEL_SPACE
 70
     0
 10
0.0
 20
0.0
 30
0.0
  3
*MODEL_SPACE
  1

  0
ENDBLK
  5
2B
330
17
100
AcDbEntity
  8
0
100
AcDbBlockEnd
  0
BLOCK
  5
28
330
14
100
AcDbEntity
 67
     1
  8
0
100
AcDbBlockBegin
  2
*PAPER_SPACE
 70
     0
 10
0.0
 20
0.0
 30
0.0
  3
*PAPER_SPACE
  1

  0
ENDBLK
  5
29
330
14
100
AcDbEntity
 67
     1
  8
0
100
AcDbBlockEnd
  0
ENDSEC
  0
SECTION
  2
ENTITIES
  0
MTEXT
  5
706
330
17
100
AcDbEntity
  8
DIM
 62
     7
100
AcDbMText
 10
3.842319250371675
 20
2.973327563458316
 30
0.0
 40
0.1
 41
0.0
 71
     1
 72
     1
  1
1. UNLESS OTHERWISE SPECIFIDE ALL\P  DIMENSIONS ARE mm (INCHES)
 73
     1
 44
1.0
  0
LINE
  5
BC7
330
17
100
AcDbEntity
  8
FORM
100
AcDbLine
 10
2.695377489052576
 20
1.989130419728978
 30
0.0
 11
0.25
 21
1.989130419728978
 31
0.0
  0
TEXT
  5
BC8
330
17
100
AcDbEntity
  8
FORM
100
AcDbText
 10
0.9766218010942354
 20
1.831598449722397
 30
0.0
 40
0.09
  1
E.O. N.O.
 72
     4
 11
1.289478943951378
 21
1.876598449722397
 31
0.0
100
AcDbText
  0
TEXT
  5
BC9
330
17
100
AcDbEntity
  8
FORM
100
AcDbText
 10
0.2842857125303047
 20
1.831598449722397
 30
0.0
 40
0.09
  1
REV.
 72
     4
 11
0.4299999982445905
 21
1.876598449722397
 31
0.0
100
AcDbText
  0
TEXT
  5
BCA
330
17
100
AcDbEntity
  8
FORM
100
AcDbText
 10
2.727228862851443
 20
1.755392835964501
 30
0.0
 40
0.05
  1
DIMENSIONS ARE IN INCHES
 72
     1
 11
3.262943148565729
 21
1.755392835964501
 31
0.0
100
AcDbText
  0
TEXT
  5
BCB
330
17
100
AcDbEntity
  8
FORM
100
AcDbText
 10
2.727278038080573
 20
1.588726169297835
 30
0.0
 40
0.05
  1
FRACTION      DECIMALS      ANGLES
 72
     1
 11
3.517754228556763
 21
1.588726169297835
 31
0.0
100
AcDbText
  0
TEXT
  5
BCC
330
17
100
AcDbEntity
  8
FORM
100
AcDbText
 10
2.737399617384427
 20
1.672059502631168
 30
0.0
 40
0.05
  1
TOLERANCES ON
 72
     1
 11
3.043351998336809
 21
1.672059502631168
 31
0.0
100
AcDbText
  0
TEXT
  5
BCD
330
17
100
AcDbEntity
  8
FORM
100
AcDbText
 10
2.723850086181901
 20
0.5138388340507319
 30
0.0
 40
0.07
  1
SCALE
100
AcDbText
  0
TEXT
  5
BCE
330
17
100
AcDbEntity
  8
FORM
100
AcDbText
 10
4.458468624149955
 20
1.872959498187011
 30
0.0
 40
0.07
  1
DWN.
100
AcDbText
  0
TEXT
  5
BCF
330
17
100
AcDbEntity
  8
FORM
100
AcDbText
 10
4.458468624149955
 20
1.398258681090509
 30
0.0
 40
0.07
  1
DATE
100
AcDbText
  0
LINE
  5
BD0
330
17
100
AcDbEntity
  8
FORM
100
AcDbLine
 10
2.695377489052576
 20
1.989130419728978
 30
0.0
 11
4.415211632832586
 21
1.989130419728978
 31
0.0
  0
TEXT
  5
BD1
330
17
100
AcDbEntity
  8
FORM
100
AcDbText
 10
2.97231839781857
 20
1.892684021717673
 30
0.0
 40
0.05
  1
UNLESS OTHERWISE SPECIFIED
 72
     4
 11
3.554461254961427
 21
1.917684021717673
 31
0.0
100
AcDbText
  0
TEXT
  5
BD2
330
17
100
AcDbEntity
  8
FORM
100
AcDbText
 10
9.294506914046444
 20
0.8333545251391596
 30
0.0
 40
0.07
  1
CHELMSFORD, MA. 01824
100
AcDbText
  0
TEXT
  5
BD3
330
17
100
AcDbEntity
  8
FORM
100
AcDbText
 10
9.418841673999887
 20
0.9907249701126081
 30
0.0
 40
0.07
  1
2 EXECUTIVE DRIVE
100
AcDbText
  0
TEXT
  5
BD4
330
17
100
AcDbEntity
  8
FORM
100
AcDbText
 10
9.370613713632506
 20
1.140724970112607
 30
0.0
 40
0.09
  1
ALLEN-BRADLEY
100
AcDbText
  0
TEXT
  5
BD5
330
17
100
AcDbEntity
  8
FORM
100
AcDbText
 10
7.657869070352465
 20
0.4599197610249633
 30
0.0
 40
0.08
  1
NO.
100
AcDbText
  0
TEXT
  5
BD6
330
17
100
AcDbEntity
  8
FORM
100
AcDbText
 10
7.657869070352465
 20
0.5932530943582961
 30
0.0
 40
0.08
  1
DWG.
100
AcDbText
  0
TEXT
  5
BD7
330
17
100
AcDbEntity
  8
FORM
100
AcDbText
 10
9.715288769836082
 20
1.498672232518766
 30
0.0
 40
0.2
  1
AB
  7
HELV
100
AcDbText
  0
TEXT
  5
BD8
330
17
100
AcDbEntity
  8
FORM
100
AcDbText
 10
2.030714285468466
 20
1.831598449722397
 30
0.0
 40
0.09
  1
DRAFTER
 72
     4
 11
2.31999999975418
 21
1.876598449722397
 31
0.0
100
AcDbText
  0
TEXT
  5
BD9
330
17
100
AcDbEntity
  8
FORM
100
AcDbText
 10
2.723850086181901
 20
0.8923554340507319
 30
0.0
 40
0.07
  1
FINISH
100
AcDbText
  0
TEXT
  5
BDA
330
17
100
AcDbEntity
  8
FORM
100
AcDbText
 10
2.723850086181901
 20
1.270872034050731
 30
0.0
 40
0.07
  1
MATERIAL
100
AcDbText
  0
TEXT
  5
BDD
330
17
100
AcDbEntity
  8
FORM
100
AcDbText
 10
4.46209378020576
 20
0.8379779333667888
 30
0.0
 40
0.06
  1
THIS DRAWING IS PROPERTY OF THE
 72
     1
 11
5.303522351634332
 21
0.8379779333667888
 31
0.0
100
AcDbText
  0
TEXT
  5
BDE
330
17
100
AcDbEntity
  8
FORM
100
AcDbText
 10
4.484950923062903
 20
0.7408350762239318
 30
0.0
 40
0.06
  1
ALLEN-BRADLEY CO. INC. AND MAY
 72
     1
 11
5.303522351634332
 21
0.7408350762239318
 31
0.0
100
AcDbText
  0
TEXT
  5
BDF
330
17
100
AcDbEntity
  8
FORM
100
AcDbText
 10
4.686379494491474
 20
0.6436922190810746
 30
0.0
 40
0.06
  1
NOT BE COPIED, USED OR
 72
     1
 11
5.303522351634332
 21
0.6436922190810746
 31
0.0
100
AcDbText
  0
TEXT
  5
BE0
330
17
100
AcDbEntity
  8
FORM
100
AcDbText
 10
4.590665208777189
 20
0.5465493619382174
 30
0.0
 40
0.06
  1
DISCLOSED FOR ANY PURPOSE
 72
     1
 11
5.303522351634332
 21
0.5465493619382174
 31
0.0
100
AcDbText
  0
TEXT
  5
BE1
330
17
100
AcDbEntity
  8
FORM
100
AcDbText
 10
4.477808065920046
 20
0.4494065047953601
 30
0.0
 40
0.06
  1
EXCEPT AS AUTHORIZED IN WRITING
 72
     1
 11
5.303522351634332
 21
0.4494065047953601
 31
0.0
100
AcDbText
  0
TEXT
  5
BE2
330
17
100
AcDbEntity
  8
FORM
100
AcDbText
 10
4.520665208777189
 20
0.3522636476525029
 30
0.0
 40
0.06
  1
BY THE ALLEN-BRADLEY CO. INC.
 72
     1
 11
5.303522351634332
 21
0.3522636476525029
 31
0.0
100
AcDbText
  0
TEXT
  5
BE3
330
17
100
AcDbEntity
  8
FORM
100
AcDbText
 10
7.661052896581039
 20
0.2814285576370099
 30
0.0
 40
0.08
  1
SIZE  A  SHEET     OF
 11
7.661052896581039
 21
0.3214285576370099
 31
0.0
100
AcDbText
 73
     2
  0
LINE
  5
BE4
330
17
100
AcDbEntity
  8
FORM
100
AcDbLine
 10
4.426533112099226
 20
1.498081847880708
 30
0.0
 11
6.182221322797538
 21
1.498081847880708
 31
0.0
  0
LINE
  5
BE5
330
17
100
AcDbEntity
  8
FORM
100
AcDbLine
 10
0.25
 20
1.007033276032438
 30
0.0
 11
6.182221322797538
 21
1.007033276032439
 31
0.0
  0
LINE
  5
BE6
330
17
100
AcDbEntity
  8
FORM
100
AcDbLine
 10
0.25
 20
1.989130419728978
 30
0.0
 11
10.71
 21
1.989130419728977
 31
0.0
  0
LINE
  5
BE7
330
17
100
AcDbEntity
  8
FORM
100
AcDbLine
 10
10.71
 20
8.209999999999999
 30
0.0
 11
0.25
 21
8.210016413185645
 31
0.0
  0
LINE
  5
BE8
330
17
100
AcDbEntity
  8
FORM
100
AcDbLine
 10
0.25
 20
8.210016413185645
 30
0.0
 11
0.25
 21
0.25
 31
0.0
  0
LINE
  5
BE9
330
17
100
AcDbEntity
  8
FORM
100
AcDbLine
 10
0.25
 20
0.25
 30
0.0
 11
10.71
 21
0.25
 31
0.0
  0
LINE
  5
BEA
330
17
100
AcDbEntity
  8
FORM
100
AcDbLine
 10
10.71
 20
0.25
 30
0.0
 11
10.71
 21
8.209999999999999
 31
0.0
  0
LINE
  5
BEB
330
17
100
AcDbEntity
  8
FORM
100
AcDbLine
 10
0.25
 20
1.385549876032439
 30
0.0
 11
4.428922508542364
 21
1.385549876032438
 31
0.0
  0
LINE
  5
BEC
330
17
100
AcDbEntity
  8
FORM
100
AcDbLine
 10
0.25
 20
1.764066479715818
 30
0.0
 11
2.68000000138049
 21
1.764066479715818
 31
0.0
  0
LINE
  5
BED
330
17
100
AcDbEntity
  8
FORM
100
AcDbLine
 10
0.25
 20
0.4392583760324392
 30
0.0
 11
2.68000000138049
 21
0.4392583760324389
 31
0.0
  0
LINE
  5
BEE
330
17
100
AcDbEntity
  8
FORM
100
AcDbLine
 10
0.25
 20
0.6285166760324392
 30
0.0
 11
4.428922508542364
 21
0.6285166760324388
 31
0.0
  0
LINE
  5
BEF
330
17
100
AcDbEntity
  8
FORM
100
AcDbLine
 10
0.25
 20
0.817774976032439
 30
0.0
 11
2.68000000138049
 21
0.8177749760324388
 31
0.0
  0
LINE
  5
BF0
330
17
100
AcDbEntity
  8
FORM
100
AcDbLine
 10
0.25
 20
1.196291576032439
 30
0.0
 11
2.68000000138049
 21
1.196291576032438
 31
0.0
  0
LINE
  5
BF1
330
17
100
AcDbEntity
  8
FORM
100
AcDbLine
 10
0.25
 20
1.574808176032439
 30
0.0
 11
2.68000000138049
 21
1.574808176032438
 31
0.0
  0
LINE
  5
BF2
330
17
100
AcDbEntity
  8
FORM
100
AcDbLine
 10
1.95999999812787
 20
1.989130419728978
 30
0.0
 11
1.95999999812787
 21
0.2483302711109045
 31
0.0
  0
LINE
  5
BF3
330
17
100
AcDbEntity
  8
FORM
100
AcDbLine
 10
0.609999996489181
 20
1.989130419728978
 30
0.0
 11
0.609999996489181
 21
0.25
 31
0.0
  0
LINE
  5
BF4
330
17
100
AcDbEntity
  8
FORM
100
AcDbLine
 10
2.68000000138049
 20
1.989130419728978
 30
0.0
 11
2.68000000138049
 21
0.2499999999999999
 31
0.0
  0
LINE
  5
BF5
330
17
100
AcDbEntity
  8
FORM
100
AcDbLine
 10
4.428922508542364
 20
1.989130419728978
 30
0.0
 11
4.428922508542364
 21
0.25
 31
0.0
  0
LINE
  5
BF6
330
17
100
AcDbEntity
  8
FORM
100
AcDbLine
 10
2.68000000138049
 20
1.846237623706368
 30
0.0
 11
4.428922508542364
 21
1.846237623706368
 31
0.0
  0
LINE
  5
BF7
330
17
100
AcDbEntity
  8
FORM
100
AcDbLine
 10
4.428922508542364
 20
1.846237623706368
 30
0.0
 11
4.428922508542364
 21
1.846237623706368
 31
0.0
  0
LINE
  5
BF8
330
17
100
AcDbEntity
  8
FORM
100
AcDbLine
 10
6.182221322797538
 20
0.3928571152740196
 30
0.0
 11
10.24124999999999
 21
0.3928571152740196
 31
0.0
  0
LINE
  5
BF9
330
17
100
AcDbEntity
  8
FORM
100
AcDbLine
 10
10.71
 20
0.739130419728978
 30
0.0
 11
6.182221322797538
 21
0.7391304197289781
 31
0.0
  0
LINE
  5
BFA
330
17
100
AcDbEntity
  8
FORM
100
AcDbLine
 10
6.182221322797538
 20
1.989130419728978
 30
0.0
 11
6.182221322797538
 21
0.25
 31
0.0
  0
LINE
  5
BFB
330
17
100
AcDbEntity
  8
FORM
100
AcDbLine
 10
6.812221322797538
 20
0.7391304197289781
 30
0.0
 11
6.812221322797537
 21
0.25
 31
0.0
  0
LINE
  5
BFC
330
17
100
AcDbEntity
  8
FORM
100
AcDbLine
 10
7.532221322797537
 20
0.7391304197289781
 30
0.0
 11
7.532221322797537
 21
0.25
 31
0.0
  0
LINE
  5
BFD
330
17
100
AcDbEntity
  8
FORM
100
AcDbLine
 10
9.21571735032967
 20
1.989130419728978
 30
0.0
 11
9.215717350329672
 21
0.7391304197289781
 31
0.0
  0
LINE
  5
BFE
330
17
100
AcDbEntity
  8
FORM
100
AcDbLine
 10
9.789666943428487
 20
1.866233118803336
 30
0.0
 11
9.62578940633189
 21
1.702355581706739
 31
0.0
  0
LINE
  5
BFF
330
17
100
AcDbEntity
  8
FORM
100
AcDbLine
 10
9.62578940633189
 20
1.702355581706739
 30
0.0
 11
9.62578940633189
 21
1.47059774617643
 31
0.0
  0
LINE
  5
C00
330
17
100
AcDbEntity
  8
FORM
100
AcDbLine
 10
9.62578940633189
 20
1.47059774617643
 30
0.0
 11
9.789666943428487
 21
1.306720209079832
 31
0.0
  0
LINE
  5
C01
330
17
100
AcDbEntity
  8
FORM
100
AcDbLine
 10
9.789666943428487
 20
1.306720209079832
 30
0.0
 11
10.02142477895879
 21
1.306720209079832
 31
0.0
  0
LINE
  5
C02
330
17
100
AcDbEntity
  8
FORM
100
AcDbLine
 10
10.02142477895879
 20
1.306720209079832
 30
0.0
 11
10.18530231605539
 21
1.47059774617643
 31
0.0
  0
LINE
  5
C03
330
17
100
AcDbEntity
  8
FORM
100
AcDbLine
 10
10.18530231605539
 20
1.47059774617643
 30
0.0
 11
10.18530231605539
 21
1.702355581706739
 31
0.0
  0
LINE
  5
C04
330
17
100
AcDbEntity
  8
FORM
100
AcDbLine
 10
10.18530231605539
 20
1.702355581706739
 30
0.0
 11
10.02142477895879
 21
1.866233118803336
 31
0.0
  0
LINE
  5
C05
330
17
100
AcDbEntity
  8
FORM
100
AcDbLine
 10
10.02142477895879
 20
1.866233118803336
 30
0.0
 11
9.789666943428487
 21
1.866233118803336
 31
0.0
  0
TEXT
  5
C06
330
17
100
AcDbEntity
  8
0
100
AcDbText
 10
10.34610119047619
 20
0.6164179222667118
 30
0.0
 40
0.08
  1
REV.
 72
     4
 11
10.475625
 21
0.6564179222667118
 31
0.0
100
AcDbText
  0
LINE
  5
C07
330
17
100
AcDbEntity
  8
0
100
AcDbLine
 10
10.24124999999999
 20
0.739130419728978
 30
0.0
 11
10.24124999999999
 21
0.25
 31
0.0
  0
LINE
  5
C08
330
17
100
AcDbEntity
  8
0
100
AcDbLine
 10
10.24124999999999
 20
0.5737054248044457
 30
0.0
 11
10.71
 21
0.5737054248044457
 31
0.0
  0
TEXT
  5
C09
330
17
100
AcDbEntity
  8
0
100
AcDbText
 10
10.41610119047619
 20
0.3683483051416797
 30
0.0
 40
0.125
  1
3
 72
     4
 11
10.475625
 21
0.4308483051416797
 31
0.0
100
AcDbText
  0
TEXT
  5
C0A
330
17
100
AcDbEntity
  8
0
100
AcDbText
 10
9.333896903985653
 20
0.2780634965791637
 30
0.0
 40
0.08
  1
1
 72
     4
 11
9.366277856366606
 21
0.3180634965791636
 31
0.0
100
AcDbText
  0
TEXT
  5
C0B
330
17
100
AcDbEntity
  8
0
100
AcDbText
 10
8.882304285335443
 20
0.2878708720998364
 30
0.0
 40
0.08
  1
1
 72
     4
 11
8.914685237716396
 21
0.3278708720998363
 31
0.0
100
AcDbText
  0
TEXT
  5
C0F
330
17
100
AcDbEntity
  8
FORM
100
AcDbText
 10
7.020370346903886
 20
1.445152987055838
 30
0.0
 40
0.2
  1
REFLECTOR
100
AcDbText
  0
TEXT
  5
C10
330
17
100
AcDbEntity
  8
FORM
100
AcDbText
 10
8.227784726103505
 20
0.5041937141522688
 30
0.0
 40
0.15
  1
92-107
100
AcDbText
  0
TEXT
  5
C12
330
17
100
AcDbEntity
  8
FORM
100
AcDbText
 10
4.854687249223998
 20
1.221741701840059
 30
0.0
 40
0.09
  1
1/5/99
100
AcDbText
  0
LINE
  5
C16
330
17
100
AcDbEntity
  8
OBJECT
100
AcDbLine
 10
3.495009112239273
 20
1.170760346989332
 30
0.0
 11
4.07495641081266
 21
1.170760346989332
 31
0.0
  0
LINE
  5
C17
330
17
100
AcDbEntity
  8
OBJECT
100
AcDbLine
 10
3.605686068576602
 20
1.095580614314133
 30
0.0
 11
3.694227675439805
 21
1.237095429071487
 31
0.0
  0
LINE
  5
C18
330
17
100
AcDbEntity
  8
OBJECT
100
AcDbLine
 10
3.773915017133347
 20
1.095580614314133
 30
0.0
 11
3.86245662399655
 21
1.237095429071487
 31
0.0
  0
LINE
  5
C19
330
17
100
AcDbEntity
  8
OBJECT
100
AcDbLine
 10
3.495009112239273
 20
0.825818028233769
 30
0.0
 11
4.07495641081266
 21
0.825818028233769
 31
0.0
  0
LINE
  5
C1A
330
17
100
AcDbEntity
  8
OBJECT
100
AcDbLine
 10
3.773915017133347
 20
0.75063829555857
 30
0.0
 11
3.86245662399655
 21
0.8921531103159239
 31
0.0
  0
LINE
  5
C1B
330
17
100
AcDbEntity
  8
OBJECT
100
AcDbLine
 10
3.605686068576602
 20
0.75063829555857
 30
0.0
 11
3.694227675439805
 21
0.8921531103159239
 31
0.0
  0
LINE
  5
D98
330
17
100
AcDbEntity
  8
OBJECT
100
AcDbLine
 10
6.218198154118045
 20
3.649168379758196
 30
0.0
 11
6.764198154118044
 21
3.649168379758196
 31
0.0
  0
LINE
  5
D99
330
17
100
AcDbEntity
  8
OBJECT
100
AcDbLine
 10
6.218198154118045
 20
3.649168379758196
 30
0.0
 11
6.218198154118045
 21
7.192918379758196
 31
0.0
  0
LINE
  5
D9A
330
17
100
AcDbEntity
  8
OBJECT
100
AcDbLine
 10
6.218198154118045
 20
7.192918379758195
 30
0.0
 11
6.764198154118044
 21
7.192918379758195
 31
0.0
  0
LINE
  5
D9B
330
17
100
AcDbEntity
  8
OBJECT
100
AcDbLine
 10
6.764198154118046
 20
3.649168379758196
 30
0.0
 11
6.764198154118044
 21
7.192918379758196
 31
0.0
  0
CIRCLE
  5
DA0
330
17
100
AcDbEntity
  8
OBJECT
100
AcDbCircle
 10
6.491198154118045
 20
7.045168379758195
 30
0.0
 40
0.058875
  0
CIRCLE
  5
DA1
330
17
100
AcDbEntity
  8
OBJECT
100
AcDbCircle
 10
6.491198154118045
 20
3.796918379758195
 30
0.0
 40
0.058875
  0
ARC
  5
DA2
330
17
100
AcDbEntity
  8
OBJECT
100
AcDbCircle
 10
6.491198154118045
 20
7.045168379758195
 30
0.0
 40
0.100892918162591
100
AcDbArc
 50
180.0
 51
0.0
  0
LINE
  5
DA3
330
17
100
AcDbEntity
  8
OBJECT
100
AcDbLine
 10
6.390305235955453
 20
7.045168379758195
 30
0.0
 11
6.390305235955453
 21
7.192918379758195
 31
0.0
  0
LINE
  5
DA4
330
17
100
AcDbEntity
  8
OBJECT
100
AcDbLine
 10
6.592091072280636
 20
7.045168379758195
 30
0.0
 11
6.592091072280636
 21
7.192918379758195
 31
0.0
  0
LINE
  5
DAC
102
{ACAD_REACTORS
330
DB6
102
}
330
17
100
AcDbEntity
  8
OBJECT
100
AcDbLine
 10
6.255698154118046
 20
3.728781064728324
 30
0.0
 11
6.255698154118046
 21
7.113305694788067
 31
0.0
  0
LINE
  5
DAD
102
{ACAD_REACTORS
330
DB6
102
}
330
17
100
AcDbEntity
  8
OBJECT
100
AcDbLine
 10
6.726698154118046
 20
3.728781064728324
 30
0.0
 11
6.726698154118045
 21
7.113305694788067
 31
0.0
  0
ARC
  5
DAE
330
17
100
AcDbEntity
  8
OBJECT
100
AcDbCircle
 10
6.491198154118045
 20
7.113305694788067
 30
0.0
 40
0.2354999999999994
100
AcDbArc
 50
180.0
 51
0.0
  0
ARC
  5
DB0
102
{ACAD_REACTORS
330
DB6
102
}
330
17
100
AcDbEntity
  8
OBJECT
100
AcDbCircle
 10
6.491198154118047
 20
7.113305694788067
 30
0.0
 40
0.2354999999999994
100
AcDbArc
 50
180.0
 51
0.000000000000007
  0
ARC
  5
DB1
102
{ACAD_REACTORS
330
DB6
102
}
330
17
100
AcDbEntity
  8
OBJECT
100
AcDbCircle
 10
6.491198154118047
 20
3.728781064728324
 30
0.0
 40
0.2354999999999994
100
AcDbArc
 50
0.0
 51
180.0
  0
LINE
  5
DB3
330
17
100
AcDbEntity
  8
OBJECT
100
AcDbLine
 10
6.390305235955453
 20
3.796918379758196
 30
0.0
 11
6.390305235955453
 21
3.649168379758196
 31
0.0
  0
LINE
  5
DB4
330
17
100
AcDbEntity
  8
OBJECT
100
AcDbLine
 10
6.592091072280636
 20
3.796918379758196
 30
0.0
 11
6.592091072280636
 21
3.649168379758196
 31
0.0
  0
ARC
  5
DB5
330
17
100
AcDbEntity
  8
OBJECT
100
AcDbCircle
 10
6.491198154118045
 20
3.796918379758196
 30
0.0
 40
0.100892918162591
100
AcDbArc
 50
0.0
 51
180.0
  0
HATCH
  5
DB6
330
17
100
AcDbEntity
  8
OBJECT
100
AcDbHatch
 10
0.0
 20
0.0
 30
0.0
210
0.0
220
0.0
230
1.0
  2
HONEY
 70
     0
 71
     1
 91
        1
 92
        1
 93
        4
 72
     1
 10
6.726698154118046
 20
3.728781064728324
 11
6.726698154118045
 21
7.113305694788067
 72
     2
 10
6.491198154118047
 20
7.113305694788067
 40
0.2354999999999994
 50
360.0
 51
540.0
 73
     0
 72
     1
 10
6.255698154118046
 20
7.113305694788067
 11
6.255698154118046
 21
3.728781064728324
 72
     2
 10
6.491198154118047
 20
3.728781064728324
 40
0.2354999999999994
 50
180.0
 51
360.0
 73
     0
 97
        4
330
DAD
330
DB0
330
DAC
330
DB1
 75
     0
 76
     1
 52
0.0
 41
0.375
 77
     0
 78
     3
 53
0.0
 43
2.098531311370173
 44
1.442437619775732
 45
0.0703125
 46
0.040594940625
 79
     2
 49
0.046875
 49
-0.09375
 53
120.0
 43
2.098531311370173
 44
1.442437619775732
 45
-0.0703124998463709
 46
0.0405949408910934
 79
     2
 49
0.046875
 49
-0.09375
 53
60.0
 43
2.098531311370173
 44
1.442437619775732
 45
0.0000000001536291
 46
0.0811898815160934
 79
     2
 49
-0.09375
 49
0.046875
 98
        1
 10
2.098531311370173
 20
1.442437619775732
  0
LINE
  5
DB7
330
17
100
AcDbEntity
  8
OBJECT
100
AcDbLine
 10
3.846322077063939
 20
3.649168379758197
 30
0.0
 11
3.654322077063939
 21
3.649168379758197
 31
0.0
  0
LINE
  5
DB8
330
17
100
AcDbEntity
  8
OBJECT
100
AcDbLine
 10
3.846322077063939
 20
7.192918379758195
 30
0.0
 11
3.654322077063939
 21
7.192918379758196
 31
0.0
  0
LINE
  5
DB9
330
17
100
AcDbEntity
  8
OBJECT
100
AcDbLine
 10
3.654322077063939
 20
3.649168379758196
 30
0.0
 11
3.654322077063939
 21
7.192918379758196
 31
0.0
  0
LINE
  5
DBA
330
17
100
AcDbEntity
  8
OBJECT
100
AcDbLine
 10
3.846322077063939
 20
3.649168379758196
 30
0.0
 11
3.846322077063939
 21
7.192918379758196
 31
0.0
  0
LINE
  5
DBD
330
17
100
AcDbEntity
  8
HIDDEN
100
AcDbLine
 10
3.798322077063939
 20
7.104043379758196
 30
0.0
 11
3.654322077063939
 21
7.104043379758195
 31
0.0
  0
LINE
  5
DBE
330
17
100
AcDbEntity
  8
HIDDEN
100
AcDbLine
 10
3.798322077063939
 20
6.986293379758195
 30
0.0
 11
3.654322077063939
 21
6.986293379758195
 31
0.0
  0
LINE
  5
DBF
330
17
100
AcDbEntity
  8
HIDDEN
100
AcDbLine
 10
3.79832207706394
 20
3.738043379758195
 30
0.0
 11
3.654322077063939
 21
3.738043379758195
 31
0.0
  0
LINE
  5
DC0
330
17
100
AcDbEntity
  8
HIDDEN
100
AcDbLine
 10
3.798322077063939
 20
3.855793379758195
 30
0.0
 11
3.654322077063939
 21
3.855793379758195
 31
0.0
  0
LINE
  5
DC1
330
17
100
AcDbEntity
  8
OBJECT
100
AcDbLine
 10
3.846322077063939
 20
6.877805694788068
 30
0.0
 11
3.750322077063939
 21
6.877805694788067
 31
0.0
  0
LINE
  5
DC2
330
17
100
AcDbEntity
  8
OBJECT
100
AcDbLine
 10
3.846322077063939
 20
3.964281064728324
 30
0.0
 11
3.750322077063939
 21
3.964281064728324
 31
0.0
  0
LINE
  5
DC3
330
17
100
AcDbEntity
  8
CENTER
100
AcDbLine
 10
3.917279264625904
 20
7.045168379758195
 30
0.0
 11
3.59165149344896
 21
7.045168379758195
 31
0.0
  0
LINE
  5
DC4
330
17
100
AcDbEntity
  8
CENTER
100
AcDbLine
 10
3.917279271134974
 20
3.796918379758195
 30
0.0
 11
3.549089600603643
 21
3.796918379758195
 31
0.0
  0
LINE
  5
DC8
330
17
100
AcDbEntity
  8
OBJECT
100
AcDbLine
 10
3.750322077063939
 20
6.877805694788068
 30
0.0
 11
3.750322077063939
 21
3.964281064728324
 31
0.0
  0
LINE
  5
DC9
330
17
100
AcDbEntity
  8
OBJECT
100
AcDbLine
 10
3.798322077063939
 20
6.877805694788068
 30
0.0
 11
3.798322077063939
 21
7.192918379758195
 31
0.0
  0
LINE
  5
DCA
330
17
100
AcDbEntity
  8
OBJECT
100
AcDbLine
 10
3.798322077063939
 20
3.964281064728324
 30
0.0
 11
3.798322077063939
 21
3.649168379758197
 31
0.0
  0
LINE
  5
DCB
330
17
100
AcDbEntity
  8
DIM
 62
     1
100
AcDbLine
 10
6.811073154118046
 20
3.649168379758196
 30
0.0
 11
7.87900067986259
 21
3.649168379758196
 31
0.0
  0
LINE
  5
DCC
330
17
100
AcDbEntity
  8
DIM
 62
     1
100
AcDbLine
 10
6.811073154118044
 20
7.192918379758196
 30
0.0
 11
7.87900067986259
 21
7.192918379758195
 31
0.0
  0
LINE
  5
DCD
330
17
100
AcDbEntity
  8
DIM
 62
     1
100
AcDbLine
 10
7.74400067986259
 20
3.784168379758197
 30
0.0
 11
7.74400067986259
 21
5.041595613362963
 31
0.0
  0
LINE
  5
DCE
330
17
100
AcDbEntity
  8
DIM
 62
     1
100
AcDbLine
 10
7.74400067986259
 20
7.057918379758195
 30
0.0
 11
7.74400067986259
 21
5.535418379758196
 31
0.0
  0
SOLID
  5
DCF
330
17
100
AcDbEntity
  8
DIM
 62
     1
100
AcDbTrace
 10
7.72150067986259
 20
3.784168379758197
 30
0.0
 11
7.766500679862591
 21
3.784168379758197
 31
0.0
 12
7.74400067986259
 22
3.649168379758196
 32
0.0
 13
7.74400067986259
 23
3.649168379758196
 33
0.0
  0
SOLID
  5
DD0
330
17
100
AcDbEntity
  8
DIM
 62
     1
100
AcDbTrace
 10
7.721500679862591
 20
7.057918379758195
 30
0.0
 11
7.766500679862591
 21
7.057918379758195
 31
0.0
 12
7.74400067986259
 22
7.192918379758195
 32
0.0
 13
7.74400067986259
 23
7.192918379758195
 33
0.0
  0
MTEXT
  5
DD1
330
17
100
AcDbEntity
  8
DIM
 62
     7
100
AcDbMText
 10
7.74400067986259
 20
5.421043379758195
 30
0.0
 40
0.09375
 41
0.0
 71
     5
 72
     1
  1
\A1;120
 73
     1
 44
1.0
  0
LINE
  5
DD2
330
17
100
AcDbEntity
  8
DIM
 62
     1
100
AcDbLine
 10
6.538073154118045
 20
7.045168379758195
 30
0.0
 11
7.348286774282719
 21
7.045168379758195
 31
0.0
  0
LINE
  5
DD3
330
17
100
AcDbEntity
  8
DIM
 62
     1
100
AcDbLine
 10
6.538073154118045
 20
3.796918379758195
 30
0.0
 11
7.348286774282719
 21
3.796918379758195
 31
0.0
  0
LINE
  5
DD4
330
17
100
AcDbEntity
  8
DIM
 62
     1
100
AcDbLine
 10
7.213286774282719
 20
6.910168379758196
 30
0.0
 11
7.213286774282719
 21
5.866759341227973
 31
0.0
  0
LINE
  5
DD5
330
17
100
AcDbEntity
  8
DIM
 62
     1
100
AcDbLine
 10
7.213286774282719
 20
3.931918379758196
 30
0.0
 11
7.213286774282719
 21
5.306668379758196
 31
0.0
  0
SOLID
  5
DD6
330
17
100
AcDbEntity
  8
DIM
 62
     1
100
AcDbTrace
 10
7.19078677428272
 20
6.910168379758196
 30
0.0
 11
7.23578677428272
 21
6.910168379758196
 31
0.0
 12
7.213286774282719
 22
7.045168379758195
 32
0.0
 13
7.213286774282719
 23
7.045168379758195
 33
0.0
  0
SOLID
  5
DD7
330
17
100
AcDbEntity
  8
DIM
 62
     1
100
AcDbTrace
 10
7.190786774282718
 20
3.931918379758196
 30
0.0
 11
7.23578677428272
 21
3.931918379758196
 31
0.0
 12
7.213286774282719
 22
3.796918379758195
 32
0.0
 13
7.213286774282719
 23
3.796918379758195
 33
0.0
  0
MTEXT
  5
DD8
330
17
100
AcDbEntity
  8
DIM
 62
     7
100
AcDbMText
 10
7.213286774282719
 20
5.739130702213062
 30
0.0
 40
0.09375
 41
0.0
 71
     5
 72
     1
  1
\A1;110
 73
     1
 44
1.0
  0
MTEXT
  5
DD9
330
17
100
AcDbEntity
  8
DIM
 62
     7
100
AcDbMText
 10
7.74400067986259
 20
5.222238808437504
 30
0.0
 40
0.09375
 41
0.0
 71
     5
 72
     1
  1
(4.725)
 73
     1
 44
1.0
  0
MTEXT
  5
DDA
330
17
100
AcDbEntity
  8
DIM
 62
     7
100
AcDbMText
 10
7.213286745607923
 20
5.527072491877465
 30
0.0
 40
0.09375
 41
0.0
 71
     5
 72
     1
  1
(4.331)
 73
     1
 44
1.0
  0
LINE
  5
DDB
330
17
100
AcDbEntity
  8
DIM
 62
     1
100
AcDbLine
 10
6.218198154118045
 20
7.27955429680292
 30
0.0
 11
6.218198154118045
 21
7.654230773523735
 31
0.0
  0
LINE
  5
DDC
330
17
100
AcDbEntity
  8
DIM
 62
     1
100
AcDbLine
 10
6.764198154118044
 20
7.27955429680292
 30
0.0
 11
6.764198154118044
 21
7.654230773523735
 31
0.0
  0
LINE
  5
DDD
330
17
100
AcDbEntity
  8
DIM
 62
     1
100
AcDbLine
 10
6.083198154118045
 20
7.519230773523736
 30
0.0
 11
5.948198154118045
 21
7.519230773523736
 31
0.0
  0
LINE
  5
DDE
330
17
100
AcDbEntity
  8
DIM
 62
     1
100
AcDbLine
 10
6.899198154118044
 20
7.519230773523736
 30
0.0
 11
7.034198154118046
 21
7.519230773523736
 31
0.0
  0
SOLID
  5
DDF
330
17
100
AcDbEntity
  8
DIM
 62
     1
100
AcDbTrace
 10
6.083198154118045
 20
7.541730773523736
 30
0.0
 11
6.083198154118045
 21
7.496730773523736
 31
0.0
 12
6.218198154118045
 22
7.519230773523736
 32
0.0
 13
6.218198154118045
 23
7.519230773523736
 33
0.0
  0
SOLID
  5
DE0
330
17
100
AcDbEntity
  8
DIM
 62
     1
100
AcDbTrace
 10
6.899198154118044
 20
7.541730773523736
 30
0.0
 11
6.899198154118044
 21
7.496730773523736
 31
0.0
 12
6.764198154118044
 22
7.519230773523736
 32
0.0
 13
6.764198154118044
 23
7.519230773523736
 33
0.0
  0
MTEXT
  5
DE1
330
17
100
AcDbEntity
  8
DIM
 62
     7
100
AcDbMText
 10
6.491198154118045
 20
7.606857253375107
 30
0.0
 40
0.09375
 41
0.0
 71
     5
 72
     1
  1
\A1;18.5
 73
     1
 44
1.0
  0
MTEXT
  5
DE2
330
17
100
AcDbEntity
  8
DIM
 62
     7
100
AcDbMText
 10
6.491280145506745
 20
7.444129018574841
 30
0.0
 40
0.09375
 41
0.0
 71
     5
 72
     1
  1
(.728)
 73
     1
 44
1.0
  0
LINE
  5
DE3
330
17
100
AcDbEntity
  8
DIM
 62
     1
100
AcDbLine
 10
3.654322077063939
 20
7.239793379758196
 30
0.0
 11
3.654322077063939
 21
7.68073803765062
 31
0.0
  0
LINE
  5
DE4
330
17
100
AcDbEntity
  8
DIM
 62
     1
100
AcDbLine
 10
3.846322077063939
 20
7.239793379758195
 30
0.0
 11
3.846322077063939
 21
7.68073803765062
 31
0.0
  0
LINE
  5
DE5
330
17
100
AcDbEntity
  8
DIM
 62
     1
100
AcDbLine
 10
3.519322077063939
 20
7.54573803765062
 30
0.0
 11
3.384322077063939
 21
7.54573803765062
 31
0.0
  0
LINE
  5
DE6
330
17
100
AcDbEntity
  8
DIM
 62
     1
100
AcDbLine
 10
3.981322077063939
 20
7.54573803765062
 30
0.0
 11
4.11632207706394
 21
7.54573803765062
 31
0.0
  0
SOLID
  5
DE7
330
17
100
AcDbEntity
  8
DIM
 62
     1
100
AcDbTrace
 10
3.519322077063939
 20
7.568238037650621
 30
0.0
 11
3.519322077063939
 21
7.52323803765062
 31
0.0
 12
3.654322077063939
 22
7.54573803765062
 32
0.0
 13
3.654322077063939
 23
7.54573803765062
 33
0.0
  0
SOLID
  5
DE8
330
17
100
AcDbEntity
  8
DIM
 62
     1
100
AcDbTrace
 10
3.981322077063939
 20
7.568238037650621
 30
0.0
 11
3.981322077063939
 21
7.52323803765062
 31
0.0
 12
3.846322077063939
 22
7.54573803765062
 32
0.0
 13
3.846322077063939
 23
7.54573803765062
 33
0.0
  0
MTEXT
  5
DE9
330
17
100
AcDbEntity
  8
DIM
 62
     7
100
AcDbMText
 10
4.279804219921082
 20
7.54573803765062
 30
0.0
 40
0.09375
 41
0.0
 71
     5
 72
     1
  1
\A1;6.5
 73
     1
 44
1.0
  0
MTEXT
  5
DEA
330
17
100
AcDbEntity
  8
DIM
 62
     7
100
AcDbMText
 10
4.310930424504828
 20
7.3778608235003
 30
0.0
 40
0.09375
 41
0.0
 71
     5
 72
     1
  1
(.256)
 73
     1
 44
1.0
  0
LINE
  5
DEB
330
17
100
AcDbEntity
  8
DIM
 62
     1
100
AcDbLine
 10
6.444323154118045
 20
6.986293379758196
 30
0.0
 11
5.756784252779606
 21
6.986293379758196
 31
0.0
  0
LINE
  5
DEC
330
17
100
AcDbEntity
  8
DIM
 62
     1
100
AcDbLine
 10
6.444323154118045
 20
7.104043379758195
 30
0.0
 11
5.756784252779606
 21
7.104043379758196
 31
0.0
  0
LINE
  5
DED
330
17
100
AcDbEntity
  8
DIM
 62
     1
100
AcDbLine
 10
5.891784252779606
 20
6.851293379758196
 30
0.0
 11
5.891784252779606
 21
6.716293379758196
 31
0.0
  0
LINE
  5
DEE
330
17
100
AcDbEntity
  8
DIM
 62
     1
100
AcDbLine
 10
5.891784252779606
 20
7.239043379758196
 30
0.0
 11
5.891784252779607
 21
7.374043379758196
 31
0.0
  0
LINE
  5
DEF
330
17
100
AcDbEntity
  8
DIM
 62
     1
100
AcDbLine
 10
5.756784252779606
 20
6.716293379758196
 30
0.0
 11
5.891784252779606
 21
6.716293379758196
 31
0.0
  0
SOLID
  5
DF0
330
17
100
AcDbEntity
  8
DIM
 62
     1
100
AcDbTrace
 10
5.869284252779606
 20
6.851293379758196
 30
0.0
 11
5.914284252779606
 21
6.851293379758196
 31
0.0
 12
5.891784252779606
 22
6.986293379758196
 32
0.0
 13
5.891784252779606
 23
6.986293379758196
 33
0.0
  0
SOLID
  5
DF1
330
17
100
AcDbEntity
  8
DIM
 62
     1
100
AcDbTrace
 10
5.869284252779606
 20
7.239043379758196
 30
0.0
 11
5.914284252779606
 21
7.239043379758196
 31
0.0
 12
5.891784252779606
 22
7.104043379758196
 32
0.0
 13
5.891784252779606
 23
7.104043379758196
 33
0.0
  0
MTEXT
  5
DF2
330
17
100
AcDbEntity
  8
DIM
 62
     7
100
AcDbMText
 10
5.645600075185522
 20
6.714943533817178
 30
0.0
 40
0.09375
 41
0.0
 71
     5
 72
     1
  1
\A1;4
 73
     1
 44
1.0
  0
MTEXT
  5
DF4
330
17
100
AcDbEntity
  8
DIM
 62
     7
100
AcDbMText
 10
5.627159826456683
 20
6.569195995995722
 30
0.0
 40
0.09375
 41
0.0
 71
     5
 72
     1
  1
(.157)
 73
     1
 44
1.0
  0
TEXT
  5
DF6
330
17
100
AcDbEntity
  8
FORM
100
AcDbText
 10
6.565180491461772
 20
1.091722631862189
 30
0.0
 40
0.2
  1
100MM X 18MM
100
AcDbText
  0
LINE
  5
DF7
330
17
100
AcDbEntity
  8
OBJECT
100
AcDbLine
 10
3.773915017133347
 20
0.3265218841559907
 30
0.0
 11
3.86245662399655
 21
0.4680366989133447
 31
0.0
  0
LINE
  5
DF8
330
17
100
AcDbEntity
  8
OBJECT
100
AcDbLine
 10
3.605686068576602
 20
0.3265218841559907
 30
0.0
 11
3.694227675439805
 21
0.4680366989133447
 31
0.0
  0
LINE
  5
DF9
330
17
100
AcDbEntity
  8
OBJECT
100
AcDbLine
 10
3.495009112239273
 20
0.4017016168311898
 30
0.0
 11
4.07495641081266
 21
0.4017016168311898
 31
0.0
  0
MTEXT
  5
E0C
330
17
100
AcDbEntity
  8
DIM
 62
     7
100
AcDbMText
 10
5.299256121309669
 20
2.564003831712157
 30
0.0
 40
0.1
 41
0.0
 71
     5
 72
     1
  1
AND ARE FOR REFERENCE ONLY
 73
     1
 44
1.0
  0
MTEXT
  5
E1B
330
17
100
AcDbEntity
  8
DIM
 62
     7
100
AcDbMText
 10
3.789561092632718
 20
3.19251595714729
 30
0.0
 40
0.1
 41
0.0
 71
     5
 72
     1
  1
NOTES:
 73
     1
 44
1.0
  0
ENDSEC
  0
SECTION
  2
OBJECTS
  0
DICTIONARY
  5
C
330
0
100
AcDbDictionary
281
     1
  3
ACAD_COLOR
350
E50
  3
ACAD_GROUP
350
D
  3
ACAD_LAYOUT
350
E78
  3
ACAD_MATERIAL
350
E26
  3
ACAD_MLEADERSTYLE
350
E75
  3
ACAD_MLINESTYLE
350
1A
  3
ACAD_PLOTSETTINGS
350
E79
  3
ACAD_PLOTSTYLENAME
350
E24
  3
ACAD_SCALELIST
350
E53
  3
ACAD_TABLESTYLE
350
E51
  3
ACAD_VISUALSTYLE
350
E3F
  3
ACDB_RECOMPOSE_DATA
350
E9D
  3
ACDBVARIABLEDICTIONARY
350
2C
  0
DICTIONARY
  5
E7F
330
E
100
AcDbDictionary
280
     1
281
     1
  3
ADSK_XREC_LAYER_RECONCILED
360
E80
  0
DICTIONARY
  5
E81
330
21
100
AcDbDictionary
280
     1
281
     1
  3
ADSK_XREC_LAYER_RECONCILED
360
E82
  0
DICTIONARY
  5
E83
330
22
100
AcDbDictionary
280
     1
281
     1
  3
ADSK_XREC_LAYER_RECONCILED
360
E84
  0
DICTIONARY
  5
E85
330
23
100
AcDbDictionary
280
     1
281
     1
  3
ADSK_XREC_LAYER_RECONCILED
360
E86
  0
DICTIONARY
  5
E87
330
24
100
AcDbDictionary
280
     1
281
     1
  3
ADSK_XREC_LAYER_RECONCILED
360
E88
  0
DICTIONARY
  5
E89
330
25
100
AcDbDictionary
280
     1
281
     1
  3
ADSK_XREC_LAYER_RECONCILED
360
E8A
  0
DICTIONARY
  5
E8B
330
26
100
AcDbDictionary
280
     1
281
     1
  3
ADSK_XREC_LAYER_RECONCILED
360
E8C
  0
DICTIONARY
  5
E8D
330
27
100
AcDbDictionary
280
     1
281
     1
  3
ADSK_XREC_LAYER_RECONCILED
360
E8E
  0
DICTIONARY
  5
E8F
330
C30
100
AcDbDictionary
280
     1
281
     1
  3
ADSK_XREC_LAYER_RECONCILED
360
E90
  0
DICTIONARY
  5
E50
102
{ACAD_REACTORS
330
C
102
}
330
C
100
AcDbDictionary
281
     1
  0
DICTIONARY
  5
D
102
{ACAD_REACTORS
330
C
102
}
330
C
100
AcDbDictionary
281
     1
  0
DICTIONARY
  5
E78
102
{ACAD_REACTORS
330
C
102
}
330
C
100
AcDbDictionary
281
     1
  3
Layout1
350
E7B
  3
Model
350
E7A
  0
DICTIONARY
  5
E26
102
{ACAD_REACTORS
330
C
102
}
330
C
100
AcDbDictionary
281
     1
  3
ByBlock
350
E2F
  3
ByLayer
350
E27
  3
Global
350
E37
  0
DICTIONARY
  5
E75
102
{ACAD_REACTORS
330
C
102
}
330
C
100
AcDbDictionary
281
     1
  3
Standard
350
E76
  0
DICTIONARY
  5
1A
102
{ACAD_REACTORS
330
C
102
}
330
C
100
AcDbDictionary
281
     1
  3
STANDARD
350
1B
  0
DICTIONARY
  5
E79
102
{ACAD_REACTORS
330
C
102
}
330
C
100
AcDbDictionary
281
     1
  0
ACDBDICTIONARYWDFLT
  5
E24
102
{ACAD_REACTORS
330
C
102
}
330
C
100
AcDbDictionary
281
     1
  3
Normal
350
E25
100
AcDbDictionaryWithDefault
340
E25
  0
DICTIONARY
  5
E53
102
{ACAD_REACTORS
330
C
102
}
330
C
100
AcDbDictionary
281
     1
  3
A0
350
E54
  3
A1
350
E55
  3
A2
350
E56
  3
A3
350
E57
  3
A4
350
E58
  3
A5
350
E59
  3
A6
350
E5A
  3
A7
350
E5B
  3
A8
350
E5C
  3
A9
350
E5D
  3
B0
350
E5E
  3
B1
350
E5F
  3
B2
350
E60
  3
B3
350
E61
  3
B4
350
E62
  3
B5
350
E63
  3
B6
350
E64
  3
B7
350
E65
  3
B8
350
E66
  3
B9
350
E67
  3
C0
350
E68
  3
C1
350
E69
  3
C2
350
E6A
  3
C3
350
E6B
  3
C4
350
E6C
  3
C5
350
E6D
  3
C6
350
E6E
  3
C7
350
E6F
  3
C8
350
E70
  3
C9
350
E71
  3
D0
350
E72
  3
D1
350
E73
  3
D2
350
E74
  0
DICTIONARY
  5
E51
102
{ACAD_REACTORS
330
C
102
}
330
C
100
AcDbDictionary
281
     1
  3
Standard
350
E52
  0
DICTIONARY
  5
E3F
102
{ACAD_REACTORS
330
C
102
}
330
C
100
AcDbDictionary
281
     1
  3
2dWireframe
350
E45
  3
3D Hidden
350
E47
  3
3dWireframe
350
E46
  3
Basic
350
E44
  3
Brighten
350
E4B
  3
ColorChange
350
E4F
  3
Conceptual
350
E48
  3
Dim
350
E4A
  3
Facepattern
350
E4E
  3
Flat
350
E40
  3
FlatWithEdges
350
E41
  3
Gouraud
350
E42
  3
GouraudWithEdges
350
E43
  3
Linepattern
350
E4D
  3
Realistic
350
E49
  3
Thicken
350
E4C
  0
XRECORD
  5
E9D
102
{ACAD_REACTORS
330
C
102
}
330
C
100
AcDbXrecord
280
     1
 90
        1
330
E52
  0
DICTIONARY
  5
2C
102
{ACAD_REACTORS
330
C
102
}
330
C
100
AcDbDictionary
281
     1
  3
CANNOSCALE
350
E93
  3
CMLEADERSTYLE
350
E92
  3
CTABLESTYLE
350
E91
  3
DIMADEC
350
2D
  3
SORTENTS
350
18C
  0
XRECORD
  5
E80
102
{ACAD_REACTORS
330
E7F
102
}
330
E7F
100
AcDbXrecord
280
     1
290
     1
  0
XRECORD
  5
E82
102
{ACAD_REACTORS
330
E81
102
}
330
E81
100
AcDbXrecord
280
     1
290
     1
  0
XRECORD
  5
E84
102
{ACAD_REACTORS
330
E83
102
}
330
E83
100
AcDbXrecord
280
     1
290
     1
  0
XRECORD
  5
E86
102
{ACAD_REACTORS
330
E85
102
}
330
E85
100
AcDbXrecord
280
     1
290
     1
  0
XRECORD
  5
E88
102
{ACAD_REACTORS
330
E87
102
}
330
E87
100
AcDbXrecord
280
     1
290
     1
  0
XRECORD
  5
E8A
102
{ACAD_REACTORS
330
E89
102
}
330
E89
100
AcDbXrecord
280
     1
290
     1
  0
XRECORD
  5
E8C
102
{ACAD_REACTORS
330
E8B
102
}
330
E8B
100
AcDbXrecord
280
     1
290
     1
  0
XRECORD
  5
E8E
102
{ACAD_REACTORS
330
E8D
102
}
330
E8D
100
AcDbXrecord
280
     1
290
     1
  0
XRECORD
  5
E90
102
{ACAD_REACTORS
330
E8F
102
}
330
E8F
100
AcDbXrecord
280
     1
290
     1
  0
LAYOUT
  5
E7B
102
{ACAD_REACTORS
330
E78
102
}
330
E78
100
AcDbPlotSettings
  1

  2
\\uschmmgmt015\USCHMPD0025
  4

  6

 40
0.0
 41
0.0
 42
0.0
 43
0.0
 44
0.0
 45
0.0
 46
0.0
 47
0.0
 48
0.0
 49
0.0
140
0.0
141
0.0
142
1.0
143
1.0
 70
   688
 72
     0
 73
     0
 74
     5
  7

 75
    16
147
1.0
 76
     0
 77
     2
 78
   300
148
0.0
149
0.0
100
AcDbLayout
  1
Layout1
 70
     0
 71
     1
 10
0.0
 20
0.0
 11
12.0
 21
9.0
 12
0.0
 22
0.0
 32
0.0
 14
1.000000000000000E+20
 24
1.000000000000000E+20
 34
1.000000000000000E+20
 15
-1.000000000000000E+20
 25
-1.000000000000000E+20
 35
-1.000000000000000E+20
146
0.0
 13
0.0
 23
0.0
 33
0.0
 16
1.0
 26
0.0
 36
0.0
 17
0.0
 27
1.0
 37
0.0
 76
     0
330
14
  0
LAYOUT
  5
E7A
102
{ACAD_REACTORS
330
E78
102
}
330
E78
100
AcDbPlotSettings
  1

  2
\\uschmmgmt015\USCHMPD0025
  4

  6

 40
0.0
 41
0.0
 42
0.0
 43
0.0
 44
0.0
 45
0.0
 46
0.0
 47
0.0
 48
0.0
 49
0.0
140
0.0
141
0.0
142
1.0
143
1.0
 70
  1712
 72
     0
 73
     0
 74
     0
  7

 75
     0
147
1.0
 76
     0
 77
     2
 78
   300
148
0.0
149
0.0
100
AcDbLayout
  1
Model
 70
     1
 71
     0
 10
0.0
 20
0.0
 11
12.0
 21
9.0
 12
0.0
 22
0.0
 32
0.0
 14
0.0
 24
0.0
 34
0.0
 15
0.0
 25
0.0
 35
0.0
146
0.0
 13
0.0
 23
0.0
 33
0.0
 16
1.0
 26
0.0
 36
0.0
 17
0.0
 27
1.0
 37
0.0
 76
     0
330
17
331
E22
  0
MATERIAL
  5
E2F
102
{ACAD_XDICTIONARY
360
E30
102
}
102
{ACAD_REACTORS
330
E26
102
}
330
E26
100
AcDbMaterial
  1
ByBlock
 72
     0
 43
0.0208333333333333
 43
0.0
 43
0.0
 43
0.0
 43
0.0
 43
0.0208333333333333
 43
0.0
 43
0.0
 43
0.0
 43
0.0
 43
1.0
 43
0.0
 43
0.0
 43
0.0
 43
0.0
 43
1.0
 77
     0
 47
0.0208333333333333
 47
0.0
 47
0.0
 47
0.0
 47
0.0
 47
0.0208333333333333
 47
0.0
 47
0.0
 47
0.0
 47
0.0
 47
1.0
 47
0.0
 47
0.0
 47
0.0
 47
0.0
 47
1.0
171
     0
 49
0.0208333333333333
 49
0.0
 49
0.0
 49
0.0
 49
0.0
 49
0.0208333333333333
 49
0.0
 49
0.0
 49
0.0
 49
0.0
 49
1.0
 49
0.0
 49
0.0
 49
0.0
 49
0.0
 49
1.0
175
     0
142
0.0208333333333333
142
0.0
142
0.0
142
0.0
142
0.0
142
0.0208333333333333
142
0.0
142
0.0
142
0.0
142
0.0
142
1.0
142
0.0
142
0.0
142
0.0
142
0.0
142
1.0
179
     0
144
0.0208333333333333
144
0.0
144
0.0
144
0.0
144
0.0
144
0.0208333333333333
144
0.0
144
0.0
144
0.0
144
0.0
144
1.0
144
0.0
144
0.0
144
0.0
144
0.0
144
1.0
147
0.0208333333333333
147
0.0
147
0.0
147
0.0
147
0.0
147
0.0208333333333333
147
0.0
147
0.0
147
0.0
147
0.0
147
1.0
147
0.0
147
0.0
147
0.0
147
0.0
147
1.0
  0
MATERIAL
  5
E27
102
{ACAD_XDICTIONARY
360
E28
102
}
102
{ACAD_REACTORS
330
E26
102
}
330
E26
100
AcDbMaterial
  1
ByLayer
 72
     0
 43
0.0208333333333333
 43
0.0
 43
0.0
 43
0.0
 43
0.0
 43
0.0208333333333333
 43
0.0
 43
0.0
 43
0.0
 43
0.0
 43
1.0
 43
0.0
 43
0.0
 43
0.0
 43
0.0
 43
1.0
 77
     0
 47
0.0208333333333333
 47
0.0
 47
0.0
 47
0.0
 47
0.0
 47
0.0208333333333333
 47
0.0
 47
0.0
 47
0.0
 47
0.0
 47
1.0
 47
0.0
 47
0.0
 47
0.0
 47
0.0
 47
1.0
171
     0
 49
0.0208333333333333
 49
0.0
 49
0.0
 49
0.0
 49
0.0
 49
0.0208333333333333
 49
0.0
 49
0.0
 49
0.0
 49
0.0
 49
1.0
 49
0.0
 49
0.0
 49
0.0
 49
0.0
 49
1.0
175
     0
142
0.0208333333333333
142
0.0
142
0.0
142
0.0
142
0.0
142
0.0208333333333333
142
0.0
142
0.0
142
0.0
142
0.0
142
1.0
142
0.0
142
0.0
142
0.0
142
0.0
142
1.0
179
     0
144
0.0208333333333333
144
0.0
144
0.0
144
0.0
144
0.0
144
0.0208333333333333
144
0.0
144
0.0
144
0.0
144
0.0
144
1.0
144
0.0
144
0.0
144
0.0
144
0.0
144
1.0
147
0.0208333333333333
147
0.0
147
0.0
147
0.0
147
0.0
147
0.0208333333333333
147
0.0
147
0.0
147
0.0
147
0.0
147
1.0
147
0.0
147
0.0
147
0.0
147
0.0
147
1.0
  0
MATERIAL
  5
E37
102
{ACAD_XDICTIONARY
360
E38
102
}
102
{ACAD_REACTORS
330
E26
102
}
330
E26
100
AcDbMaterial
  1
Global
 72
     0
 43
0.0208333333333333
 43
0.0
 43
0.0
 43
0.0
 43
0.0
 43
0.0208333333333333
 43
0.0
 43
0.0
 43
0.0
 43
0.0
 43
1.0
 43
0.0
 43
0.0
 43
0.0
 43
0.0
 43
1.0
 77
     0
 47
0.0208333333333333
 47
0.0
 47
0.0
 47
0.0
 47
0.0
 47
0.0208333333333333
 47
0.0
 47
0.0
 47
0.0
 47
0.0
 47
1.0
 47
0.0
 47
0.0
 47
0.0
 47
0.0
 47
1.0
171
     0
 49
0.0208333333333333
 49
0.0
 49
0.0
 49
0.0
 49
0.0
 49
0.0208333333333333
 49
0.0
 49
0.0
 49
0.0
 49
0.0
 49
1.0
 49
0.0
 49
0.0
 49
0.0
 49
0.0
 49
1.0
175
     0
142
0.0208333333333333
142
0.0
142
0.0
142
0.0
142
0.0
142
0.0208333333333333
142
0.0
142
0.0
142
0.0
142
0.0
142
1.0
142
0.0
142
0.0
142
0.0
142
0.0
142
1.0
179
     0
144
0.0208333333333333
144
0.0
144
0.0
144
0.0
144
0.0
144
0.0208333333333333
144
0.0
144
0.0
144
0.0
144
0.0
144
1.0
144
0.0
144
0.0
144
0.0
144
0.0
144
1.0
147
0.0208333333333333
147
0.0
147
0.0
147
0.0
147
0.0
147
0.0208333333333333
147
0.0
147
0.0
147
0.0
147
0.0
147
1.0
147
0.0
147
0.0
147
0.0
147
0.0
147
1.0
  0
MLEADERSTYLE
  5
E76
102
{ACAD_REACTORS
330
E75
102
}
330
E75
100
AcDbMLeaderStyle
170
     2
171
     1
172
     0
 90
        2
 40
0.0
 41
0.0
173
     1
 91
-1056964608
340
11
 92
       -2
290
     1
 42
0.09
291
     1
 43
0.36
  3
Standard
 44
0.18
300

342
F
174
     1
178
     6
175
     1
176
     0
 93
-1056964608
 45
0.18
292
     0
297
     0
 46
0.18
 94
-1056964608
 47
1.0
 49
1.0
140
1.0
293
     1
141
0.0
294
     1
177
     0
142
1.0
295
     0
296
     0
143
0.125
1001
ACAD_MLEADERVER
1070
     2
  0
MLINESTYLE
  5
1B
102
{ACAD_REACTORS
330
1A
102
}
330
1A
100
AcDbMlineStyle
  2
STANDARD
 70
     0
  3

 62
   256
 51
90.0
 52
90.0
 71
     2
 49
0.5
 62
   256
  6
BYLAYER
 49
-0.5
 62
   256
  6
BYLAYER
  0
ACDBPLACEHOLDER
  5
E25
102
{ACAD_REACTORS
330
E24
102
}
330
E24
  0
SCALE
  5
E54
102
{ACAD_REACTORS
330
E53
102
}
330
E53
100
AcDbScale
 70
     0
300
1:1
140
1.0
141
1.0
290
     1
  0
SCALE
  5
E55
102
{ACAD_REACTORS
330
E53
102
}
330
E53
100
AcDbScale
 70
     0
300
1:2
140
1.0
141
2.0
290
     0
  0
SCALE
  5
E56
102
{ACAD_REACTORS
330
E53
102
}
330
E53
100
AcDbScale
 70
     0
300
1:4
140
1.0
141
4.0
290
     0
  0
SCALE
  5
E57
102
{ACAD_REACTORS
330
E53
102
}
330
E53
100
AcDbScale
 70
     0
300
1:5
140
1.0
141
5.0
290
     0
  0
SCALE
  5
E58
102
{ACAD_REACTORS
330
E53
102
}
330
E53
100
AcDbScale
 70
     0
300
1:8
140
1.0
141
8.0
290
     0
  0
SCALE
  5
E59
102
{ACAD_REACTORS
330
E53
102
}
330
E53
100
AcDbScale
 70
     0
300
1:10
140
1.0
141
10.0
290
     0
  0
SCALE
  5
E5A
102
{ACAD_REACTORS
330
E53
102
}
330
E53
100
AcDbScale
 70
     0
300
1:16
140
1.0
141
16.0
290
     0
  0
SCALE
  5
E5B
102
{ACAD_REACTORS
330
E53
102
}
330
E53
100
AcDbScale
 70
     0
300
1:20
140
1.0
141
20.0
290
     0
  0
SCALE
  5
E5C
102
{ACAD_REACTORS
330
E53
102
}
330
E53
100
AcDbScale
 70
     0
300
1:30
140
1.0
141
30.0
290
     0
  0
SCALE
  5
E5D
102
{ACAD_REACTORS
330
E53
102
}
330
E53
100
AcDbScale
 70
     0
300
1:40
140
1.0
141
40.0
290
     0
  0
SCALE
  5
E5E
102
{ACAD_REACTORS
330
E53
102
}
330
E53
100
AcDbScale
 70
     0
300
1:50
140
1.0
141
50.0
290
     0
  0
SCALE
  5
E5F
102
{ACAD_REACTORS
330
E53
102
}
330
E53
100
AcDbScale
 70
     0
300
1:100
140
1.0
141
100.0
290
     0
  0
SCALE
  5
E60
102
{ACAD_REACTORS
330
E53
102
}
330
E53
100
AcDbScale
 70
     0
300
2:1
140
2.0
141
1.0
290
     0
  0
SCALE
  5
E61
102
{ACAD_REACTORS
330
E53
102
}
330
E53
100
AcDbScale
 70
     0
300
4:1
140
4.0
141
1.0
290
     0
  0
SCALE
  5
E62
102
{ACAD_REACTORS
330
E53
102
}
330
E53
100
AcDbScale
 70
     0
300
8:1
140
8.0
141
1.0
290
     0
  0
SCALE
  5
E63
102
{ACAD_REACTORS
330
E53
102
}
330
E53
100
AcDbScale
 70
     0
300
10:1
140
10.0
141
1.0
290
     0
  0
SCALE
  5
E64
102
{ACAD_REACTORS
330
E53
102
}
330
E53
100
AcDbScale
 70
     0
300
100:1
140
100.0
141
1.0
290
     0
  0
SCALE
  5
E65
102
{ACAD_REACTORS
330
E53
102
}
330
E53
100
AcDbScale
 70
     0
300
1/128" = 1'-0"
140
0.0078125
141
12.0
290
     0
  0
SCALE
  5
E66
102
{ACAD_REACTORS
330
E53
102
}
330
E53
100
AcDbScale
 70
     0
300
1/64" = 1'-0"
140
0.015625
141
12.0
290
     0
  0
SCALE
  5
E67
102
{ACAD_REACTORS
330
E53
102
}
330
E53
100
AcDbScale
 70
     0
300
1/32" = 1'-0"
140
0.03125
141
12.0
290
     0
  0
SCALE
  5
E68
102
{ACAD_REACTORS
330
E53
102
}
330
E53
100
AcDbScale
 70
     0
300
1/16" = 1'-0"
140
0.0625
141
12.0
290
     0
  0
SCALE
  5
E69
102
{ACAD_REACTORS
330
E53
102
}
330
E53
100
AcDbScale
 70
     0
300
3/32" = 1'-0"
140
0.09375
141
12.0
290
     0
  0
SCALE
  5
E6A
102
{ACAD_REACTORS
330
E53
102
}
330
E53
100
AcDbScale
 70
     0
300
1/8" = 1'-0"
140
0.125
141
12.0
290
     0
  0
SCALE
  5
E6B
102
{ACAD_REACTORS
330
E53
102
}
330
E53
100
AcDbScale
 70
     0
300
3/16" = 1'-0"
140
0.1875
141
12.0
290
     0
  0
SCALE
  5
E6C
102
{ACAD_REACTORS
330
E53
102
}
330
E53
100
AcDbScale
 70
     0
300
1/4" = 1'-0"
140
0.25
141
12.0
290
     0
  0
SCALE
  5
E6D
102
{ACAD_REACTORS
330
E53
102
}
330
E53
100
AcDbScale
 70
     0
300
3/8" = 1'-0"
140
0.375
141
12.0
290
     0
  0
SCALE
  5
E6E
102
{ACAD_REACTORS
330
E53
102
}
330
E53
100
AcDbScale
 70
     0
300
1/2" = 1'-0"
140
0.5
141
12.0
290
     0
  0
SCALE
  5
E6F
102
{ACAD_REACTORS
330
E53
102
}
330
E53
100
AcDbScale
 70
     0
300
3/4" = 1'-0"
140
0.75
141
12.0
290
     0
  0
SCALE
  5
E70
102
{ACAD_REACTORS
330
E53
102
}
330
E53
100
AcDbScale
 70
     0
300
1" = 1'-0"
140
1.0
141
12.0
290
     0
  0
SCALE
  5
E71
102
{ACAD_REACTORS
330
E53
102
}
330
E53
100
AcDbScale
 70
     0
300
1-1/2" = 1'-0"
140
1.5
141
12.0
290
     0
  0
SCALE
  5
E72
102
{ACAD_REACTORS
330
E53
102
}
330
E53
100
AcDbScale
 70
     0
300
3" = 1'-0"
140
3.0
141
12.0
290
     0
  0
SCALE
  5
E73
102
{ACAD_REACTORS
330
E53
102
}
330
E53
100
AcDbScale
 70
     0
300
6" = 1'-0"
140
6.0
141
12.0
290
     0
  0
SCALE
  5
E74
102
{ACAD_REACTORS
330
E53
102
}
330
E53
100
AcDbScale
 70
     0
300
1'-0" = 1'-0"
140
12.0
141
12.0
290
     0
  0
TABLESTYLE
  5
E52
102
{ACAD_XDICTIONARY
360
E9B
102
}
102
{ACAD_REACTORS
330
E51
102
}
330
E51
100
AcDbTableStyle
  3
Standard
 70
     0
 71
     0
 40
0.06
 41
0.06
280
     0
281
     0
  7
STANDARD
140
0.18
170
     2
 62
     0
 63
     7
283
     0
274
    -2
284
     1
 64
     0
275
    -2
285
     1
 65
     0
276
    -2
286
     1
 66
     0
277
    -2
287
     1
 67
     0
278
    -2
288
     1
 68
     0
279
    -2
289
     1
 69
     0
  7
STANDARD
140
0.25
170
     5
 62
     0
 63
     7
283
     0
274
    -2
284
     1
 64
     0
275
    -2
285
     1
 65
     0
276
    -2
286
     1
 66
     0
277
    -2
287
     1
 67
     0
278
    -2
288
     1
 68
     0
279
    -2
289
     1
 69
     0
  7
STANDARD
140
0.18
170
     5
 62
     0
 63
     7
283
     0
274
    -2
284
     1
 64
     0
275
    -2
285
     1
 65
     0
276
    -2
286
     1
 66
     0
277
    -2
287
     1
 67
     0
278
    -2
288
     1
 68
     0
279
    -2
289
     1
 69
     0
  0
VISUALSTYLE
  5
E45
102
{ACAD_REACTORS
330
E3F
102
}
330
E3F
100
AcDbVisualStyle
  2
2dWireframe
 70
     4
 71
     0
 72
     2
 73
     0
 90
        0
 40
-0.6
 41
-30.0
 62
     5
 63
     7
421
 16777215
 74
     1
 91
        4
 64
     7
 65
   257
 75
     1
175
     1
 42
1.0
 92
        0
 66
   257
 43
1.0
 76
     1
 77
     6
 78
     2
 67
     7
 79
     5
170
     0
171
     0
290
     0
174
     0
 93
        1
 44
0.0
173
     0
291
     0
 45
0.0
1001
ACAD
1000
AcDbSavedByObjectVersion
1070
     0
  0
VISUALSTYLE
  5
E47
102
{ACAD_REACTORS
330
E3F
102
}
330
E3F
100
AcDbVisualStyle
  2
3D Hidden
 70
     6
 71
     1
 72
     2
 73
     2
 90
        0
 40
-0.6
 41
-30.0
 62
     5
 63
     7
421
 16777215
 74
     2
 91
        2
 64
     7
 65
   257
 75
     2
175
     1
 42
40.0
 92
        0
 66
   257
 43
1.0
 76
     1
 77
     6
 78
     2
 67
     7
 79
     3
170
     0
171
     0
290
     0
174
     0
 93
        1
 44
0.0
173
     0
291
     0
 45
0.0
1001
ACAD
1000
AcDbSavedByObjectVersion
1070
     0
  0
VISUALSTYLE
  5
E46
102
{ACAD_REACTORS
330
E3F
102
}
330
E3F
100
AcDbVisualStyle
  2
3dWireframe
 70
     5
 71
     0
 72
     2
 73
     0
 90
        0
 40
-0.6
 41
-30.0
 62
     5
 63
     7
421
 16777215
 74
     1
 91
        4
 64
     7
 65
   257
 75
     1
175
     1
 42
1.0
 92
        0
 66
   257
 43
1.0
 76
     1
 77
     6
 78
     2
 67
     7
 79
     5
170
     0
171
     0
290
     0
174
     0
 93
        1
 44
0.0
173
     0
291
     0
 45
0.0
1001
ACAD
1000
AcDbSavedByObjectVersion
1070
     0
  0
VISUALSTYLE
  5
E44
102
{ACAD_REACTORS
330
E3F
102
}
330
E3F
100
AcDbVisualStyle
  2
Basic
 70
     7
 71
     1
 72
     0
 73
     1
 90
        0
 40
-0.6
 41
-30.0
 62
     5
 63
     7
421
 16777215
 74
     0
 91
        4
 64
     7
 65
   257
 75
     1
175
     1
 42
1.0
 92
        8
 66
     7
 43
1.0
 76
     1
 77
     6
 78
     2
 67
     7
 79
     5
170
     0
171
     0
290
     0
174
     0
 93
        1
 44
0.0
173
     0
291
     1
 45
0.0
1001
ACAD
1000
AcDbSavedByObjectVersion
1070
     0
  0
VISUALSTYLE
  5
E4B
102
{ACAD_REACTORS
330
E3F
102
}
330
E3F
100
AcDbVisualStyle
  2
Brighten
 70
    12
 71
     2
 72
     2
 73
     0
 90
        0
 40
-0.6
 41
-30.0
 62
     5
 63
     7
421
 16777215
 74
     1
 91
        4
 64
     7
 65
   257
 75
     1
175
     1
 42
1.0
 92
        8
 66
     7
 43
1.0
 76
     1
 77
     6
 78
     2
 67
     7
 79
     5
170
     0
171
     0
290
     0
174
     0
 93
        1
 44
50.0
173
     0
291
     1
 45
0.0
1001
ACAD
1000
AcDbSavedByObjectVersion
1070
     0
  0
VISUALSTYLE
  5
E4F
102
{ACAD_REACTORS
330
E3F
102
}
330
E3F
100
AcDbVisualStyle
  2
ColorChange
 70
    16
 71
     2
 72
     2
 73
     3
 90
        0
 40
-0.6
 41
-30.0
 62
     5
 63
     8
421
  8421504
 74
     1
 91
        4
 64
     7
 65
   257
 75
     1
175
     1
 42
1.0
 92
        8
 66
     8
424
  8421504
 43
1.0
 76
     1
 77
     6
 78
     2
 67
     7
 79
     5
170
     0
171
     0
290
     0
174
     0
 93
        1
 44
0.0
173
     0
291
     1
 45
0.0
1001
ACAD
1000
AcDbSavedByObjectVersion
1070
     0
  0
VISUALSTYLE
  5
E48
102
{ACAD_REACTORS
330
E3F
102
}
330
E3F
100
AcDbVisualStyle
  2
Conceptual
 70
     9
 71
     3
 72
     2
 73
     0
 90
        0
 40
-0.6
 41
-30.0
 62
     5
 63
     7
421
 16777215
 74
     2
 91
        2
 64
     7
 65
   257
 75
     1
175
     1
 42
40.0
 92
        8
 66
     7
 43
1.0
 76
     1
 77
     6
 78
     2
 67
     7
 79
     3
170
     0
171
     0
290
     0
174
     0
 93
        1
 44
0.0
173
     0
291
     0
 45
0.0
1001
ACAD
1000
AcDbSavedByObjectVersion
1070
     0
  0
VISUALSTYLE
  5
E4A
102
{ACAD_REACTORS
330
E3F
102
}
330
E3F
100
AcDbVisualStyle
  2
Dim
 70
    11
 71
     2
 72
     2
 73
     0
 90
        0
 40
-0.6
 41
-30.0
 62
     5
 63
     7
421
 16777215
 74
     1
 91
        4
 64
     7
 65
   257
 75
     1
175
     1
 42
1.0
 92
        8
 66
     7
 43
1.0
 76
     1
 77
     6
 78
     2
 67
     7
 79
     5
170
     0
171
     0
290
     0
174
     0
 93
        1
 44
-50.0
173
     0
291
     1
 45
0.0
1001
ACAD
1000
AcDbSavedByObjectVersion
1070
     0
  0
VISUALSTYLE
  5
E4E
102
{ACAD_REACTORS
330
E3F
102
}
330
E3F
100
AcDbVisualStyle
  2
Facepattern
 70
    15
 71
     2
 72
     2
 73
     0
 90
        0
 40
-0.6
 41
-30.0
 62
     5
 63
     7
421
 16777215
 74
     1
 91
        4
 64
     7
 65
   257
 75
     1
175
     1
 42
1.0
 92
        8
 66
     7
 43
1.0
 76
     1
 77
     6
 78
     2
 67
     7
 79
     5
170
     0
171
     0
290
     0
174
     0
 93
        1
 44
0.0
173
     0
291
     1
 45
0.0
1001
ACAD
1000
AcDbSavedByObjectVersion
1070
     0
  0
VISUALSTYLE
  5
E40
102
{ACAD_REACTORS
330
E3F
102
}
330
E3F
100
AcDbVisualStyle
  2
Flat
 70
     0
 71
     2
 72
     1
 73
     1
 90
        2
 40
-0.6
 41
30.0
 62
     5
 63
     7
421
 16777215
 74
     0
 91
        4
 64
     7
 65
   257
 75
     1
175
     1
 42
1.0
 92
        8
 66
     7
 43
1.0
 76
     1
 77
     6
 78
     2
 67
     7
 79
     5
170
     0
171
     0
290
     0
174
     0
 93
       13
 44
0.0
173
     0
291
     1
 45
0.0
1001
ACAD
1000
AcDbSavedByObjectVersion
1070
     0
  0
VISUALSTYLE
  5
E41
102
{ACAD_REACTORS
330
E3F
102
}
330
E3F
100
AcDbVisualStyle
  2
FlatWithEdges
 70
     1
 71
     2
 72
     1
 73
     1
 90
        2
 40
-0.6
 41
30.0
 62
     5
 63
     7
421
 16777215
 74
     1
 91
        4
 64
     7
 65
   257
 75
     1
175
     1
 42
1.0
 92
        0
 66
   257
 43
1.0
 76
     1
 77
     6
 78
     2
 67
     7
 79
     5
170
     0
171
     0
290
     0
174
     0
 93
       13
 44
0.0
173
     0
291
     1
 45
0.0
1001
ACAD
1000
AcDbSavedByObjectVersion
1070
     0
  0
VISUALSTYLE
  5
E42
102
{ACAD_REACTORS
330
E3F
102
}
330
E3F
100
AcDbVisualStyle
  2
Gouraud
 70
     2
 71
     2
 72
     2
 73
     1
 90
        2
 40
-0.6
 41
30.0
 62
     5
 63
     7
421
 16777215
 74
     0
 91
        4
 64
     7
 65
   257
 75
     1
175
     1
 42
1.0
 92
        0
 66
     7
 43
1.0
 76
     1
 77
     6
 78
     2
 67
     7
 79
     5
170
     0
171
     0
290
     0
174
     0
 93
       13
 44
0.0
173
     0
291
     1
 45
0.0
1001
ACAD
1000
AcDbSavedByObjectVersion
1070
     0
  0
VISUALSTYLE
  5
E43
102
{ACAD_REACTORS
330
E3F
102
}
330
E3F
100
AcDbVisualStyle
  2
GouraudWithEdges
 70
     3
 71
     2
 72
     2
 73
     1
 90
        2
 40
-0.6
 41
30.0
 62
     5
 63
     7
421
 16777215
 74
     1
 91
        4
 64
     7
 65
   257
 75
     1
175
     1
 42
1.0
 92
        0
 66
   257
 43
1.0
 76
     1
 77
     6
 78
     2
 67
     7
 79
     5
170
     0
171
     0
290
     0
174
     0
 93
       13
 44
0.0
173
     0
291
     1
 45
0.0
1001
ACAD
1000
AcDbSavedByObjectVersion
1070
     0
  0
VISUALSTYLE
  5
E4D
102
{ACAD_REACTORS
330
E3F
102
}
330
E3F
100
AcDbVisualStyle
  2
Linepattern
 70
    14
 71
     2
 72
     2
 73
     0
 90
        0
 40
-0.6
 41
-30.0
 62
     5
 63
     7
421
 16777215
 74
     1
 91
        4
 64
     7
 65
   257
 75
     7
175
     7
 42
1.0
 92
        8
 66
     7
 43
1.0
 76
     1
 77
     6
 78
     2
 67
     7
 79
     5
170
     0
171
     0
290
     0
174
     0
 93
        1
 44
0.0
173
     0
291
     1
 45
0.0
1001
ACAD
1000
AcDbSavedByObjectVersion
1070
     0
  0
VISUALSTYLE
  5
E49
102
{ACAD_REACTORS
330
E3F
102
}
330
E3F
100
AcDbVisualStyle
  2
Realistic
 70
     8
 71
     2
 72
     2
 73
     0
 90
        0
 40
-0.6
 41
-30.0
 62
     5
 63
     7
421
 16777215
 74
     1
 91
        0
 64
     7
 65
   257
 75
     1
175
     1
 42
1.0
 92
        8
 66
     8
424
  7895160
 43
1.0
 76
     1
 77
     6
 78
     2
 67
     7
 79
     5
170
     0
171
     0
290
     0
174
     0
 93
       13
 44
0.0
173
     0
291
     0
 45
0.0
1001
ACAD
1000
AcDbSavedByObjectVersion
1070
     0
  0
VISUALSTYLE
  5
E4C
102
{ACAD_REACTORS
330
E3F
102
}
330
E3F
100
AcDbVisualStyle
  2
Thicken
 70
    13
 71
     2
 72
     2
 73
     0
 90
        0
 40
-0.6
 41
-30.0
 62
     5
 63
     7
421
 16777215
 74
     1
 91
        4
 64
     7
 65
   257
 75
     1
175
     1
 42
1.0
 92
       12
 66
     7
 43
1.0
 76
     1
 77
     6
 78
     2
 67
     7
 79
     5
170
     0
171
     0
290
     0
174
     0
 93
        1
 44
0.0
173
     0
291
     1
 45
0.0
1001
ACAD
1000
AcDbSavedByObjectVersion
1070
     0
  0
DICTIONARYVAR
  5
E93
102
{ACAD_REACTORS
330
2C
102
}
330
2C
100
DictionaryVariables
280
     0
  1
1:1
  0
DICTIONARYVAR
  5
E92
102
{ACAD_REACTORS
330
2C
102
}
330
2C
100
DictionaryVariables
280
     0
  1
STANDARD
  0
DICTIONARYVAR
  5
E91
102
{ACAD_REACTORS
330
2C
102
}
330
2C
100
DictionaryVariables
280
     0
  1
STANDARD
  0
DICTIONARYVAR
  5
2D
102
{ACAD_REACTORS
330
2C
102
}
330
2C
100
DictionaryVariables
280
     0
  1
0
  0
DICTIONARYVAR
  5
18C
102
{ACAD_REACTORS
330
2C
102
}
330
2C
100
DictionaryVariables
280
     0
  1
96
  0
DICTIONARY
  5
E30
330
E2F
100
AcDbDictionary
280
     1
281
     1
  3
ACAD_XREC_ROUNDTRIP
360
E9F
  3
BUMPTILE
360
E32
  3
DIFFUSETILE
360
E31
  3
OPACITYTILE
360
E35
  3
REFLECTIONTILE
360
E34
  3
REFRACTIONTILE
360
E36
  3
SPECULARTILE
360
E33
  0
DICTIONARY
  5
E28
330
E27
100
AcDbDictionary
280
     1
281
     1
  3
ACAD_XREC_ROUNDTRIP
360
E9E
  3
BUMPTILE
360
E2A
  3
DIFFUSETILE
360
E29
  3
OPACITYTILE
360
E2D
  3
REFLECTIONTILE
360
E2C
  3
REFRACTIONTILE
360
E2E
  3
SPECULARTILE
360
E2B
  0
DICTIONARY
  5
E38
330
E37
100
AcDbDictionary
280
     1
281
     1
  3
ACAD_XREC_ROUNDTRIP
360
EA0
  3
BUMPTILE
360
E3A
  3
DIFFUSETILE
360
E39
  3
OPACITYTILE
360
E3D
  3
REFLECTIONTILE
360
E3C
  3
REFRACTIONTILE
360
E3E
  3
SPECULARTILE
360
E3B
  0
DICTIONARY
  5
E9B
330
E52
100
AcDbDictionary
280
     1
281
     1
  3
ACAD_ROUNDTRIP_2008_TABLESTYLE_CELLSTYLEMAP
360
E9C
  3
ACAD_XREC_ROUNDTRIP
360
EA1
  0
XRECORD
  5
E9F
102
{ACAD_REACTORS
330
E30
102
}
330
E30
100
AcDbXrecord
280
     1
102
MATERIAL
148
0.0
149
0.0
149
0.0
 93
        0
 94
      127
282
     0
 72
     0
 77
     0
171
     0
175
     0
179
     0
273
     0
  0
XRECORD
  5
E32
102
{ACAD_REACTORS
330
E30
102
}
330
E30
100
AcDbXrecord
280
     1
270
     1
271
     1
  0
XRECORD
  5
E31
102
{ACAD_REACTORS
330
E30
102
}
330
E30
100
AcDbXrecord
280
     1
270
     1
271
     1
  0
XRECORD
  5
E35
102
{ACAD_REACTORS
330
E30
102
}
330
E30
100
AcDbXrecord
280
     1
270
     1
271
     1
  0
XRECORD
  5
E34
102
{ACAD_REACTORS
330
E30
102
}
330
E30
100
AcDbXrecord
280
     1
270
     1
271
     1
  0
XRECORD
  5
E36
102
{ACAD_REACTORS
330
E30
102
}
330
E30
100
AcDbXrecord
280
     1
270
     1
271
     1
  0
XRECORD
  5
E33
102
{ACAD_REACTORS
330
E30
102
}
330
E30
100
AcDbXrecord
280
     1
270
     1
271
     1
  0
XRECORD
  5
E9E
102
{ACAD_REACTORS
330
E28
102
}
330
E28
100
AcDbXrecord
280
     1
102
MATERIAL
148
0.0
149
0.0
149
0.0
 93
        0
 94
      127
282
     0
 72
     0
 77
     0
171
     0
175
     0
179
     0
273
     0
  0
XRECORD
  5
E2A
102
{ACAD_REACTORS
330
E28
102
}
330
E28
100
AcDbXrecord
280
     1
270
     1
271
     1
  0
XRECORD
  5
E29
102
{ACAD_REACTORS
330
E28
102
}
330
E28
100
AcDbXrecord
280
     1
270
     1
271
     1
  0
XRECORD
  5
E2D
102
{ACAD_REACTORS
330
E28
102
}
330
E28
100
AcDbXrecord
280
     1
270
     1
271
     1
  0
XRECORD
  5
E2C
102
{ACAD_REACTORS
330
E28
102
}
330
E28
100
AcDbXrecord
280
     1
270
     1
271
     1
  0
XRECORD
  5
E2E
102
{ACAD_REACTORS
330
E28
102
}
330
E28
100
AcDbXrecord
280
     1
270
     1
271
     1
  0
XRECORD
  5
E2B
102
{ACAD_REACTORS
330
E28
102
}
330
E28
100
AcDbXrecord
280
     1
270
     1
271
     1
  0
XRECORD
  5
EA0
102
{ACAD_REACTORS
330
E38
102
}
330
E38
100
AcDbXrecord
280
     1
102
MATERIAL
148
0.0
149
0.0
149
0.0
 93
        0
 94
      127
282
     0
 72
     0
 77
     0
171
     0
175
     0
179
     0
273
     0
  0
XRECORD
  5
E3A
102
{ACAD_REACTORS
330
E38
102
}
330
E38
100
AcDbXrecord
280
     1
270
     1
271
     1
  0
XRECORD
  5
E39
102
{ACAD_REACTORS
330
E38
102
}
330
E38
100
AcDbXrecord
280
     1
270
     1
271
     1
  0
XRECORD
  5
E3D
102
{ACAD_REACTORS
330
E38
102
}
330
E38
100
AcDbXrecord
280
     1
270
     1
271
     1
  0
XRECORD
  5
E3C
102
{ACAD_REACTORS
330
E38
102
}
330
E38
100
AcDbXrecord
280
     1
270
     1
271
     1
  0
XRECORD
  5
E3E
102
{ACAD_REACTORS
330
E38
102
}
330
E38
100
AcDbXrecord
280
     1
270
     1
271
     1
  0
XRECORD
  5
E3B
102
{ACAD_REACTORS
330
E38
102
}
330
E38
100
AcDbXrecord
280
     1
270
     1
271
     1
  0
CELLSTYLEMAP
  5
E9C
102
{ACAD_REACTORS
330
E9B
102
}
330
E9B
100
AcDbCellStyleMap
 90
        3
300
CELLSTYLE
  1
TABLEFORMAT_BEGIN
 90
        5
170
     1
 91
        0
 92
    32768
 62
   257
 93
        1
300
CONTENTFORMAT
  1
CONTENTFORMAT_BEGIN
 90
        0
 91
        0
 92
      512
 93
        0
300

 40
0.0
140
1.0
 94
        5
 62
     0
340
F
144
0.25
309
CONTENTFORMAT_END
171
     0
 94
        0
309
TABLEFORMAT_END
  1
CELLSTYLE_BEGIN
 90
        1
 91
        1
300
_TITLE
309
CELLSTYLE_END
300
CELLSTYLE
  1
TABLEFORMAT_BEGIN
 90
        5
170
     1
 91
        0
 92
        0
 62
   257
 93
        1
300
CONTENTFORMAT
  1
CONTENTFORMAT_BEGIN
 90
        0
 91
        0
 92
      512
 93
        0
300

 40
0.0
140
1.0
 94
        5
 62
     0
340
F
144
0.18
309
CONTENTFORMAT_END
171
     0
 94
        0
309
TABLEFORMAT_END
  1
CELLSTYLE_BEGIN
 90
        2
 91
        1
300
_HEADER
309
CELLSTYLE_END
300
CELLSTYLE
  1
TABLEFORMAT_BEGIN
 90
        5
170
     1
 91
        0
 92
        0
 62
   257
 93
        1
300
CONTENTFORMAT
  1
CONTENTFORMAT_BEGIN
 90
        0
 91
        0
 92
      512
 93
        0
300

 40
0.0
140
1.0
 94
        2
 62
     0
340
F
144
0.18
309
CONTENTFORMAT_END
171
     0
 94
        0
309
TABLEFORMAT_END
  1
CELLSTYLE_BEGIN
 90
        3
 91
        2
300
_DATA
309
CELLSTYLE_END
  0
XRECORD
  5
EA1
102
{ACAD_REACTORS
330
E9B
102
}
330
E9B
100
AcDbXrecord
280
     1
102
ACAD_ROUNDTRIP_PRE2007_TABLESTYLE
 90
      512
 91
        0
  1

 92
      512
 93
        0
  2

 94
      512
 95
        0
  3

  0
ENDSEC
  0
EOF
