  0
SECTION
  2
HEADER
  9
$ACADVER
  1
AC1018
  9
$ACADMAINTVER
 70
   104
  9
$DWGCODEPAGE
  3
ANSI_1252
  9
$LASTSAVEDBY
  1
aereyes
  9
$INSBASE
 10
0.0
 20
0.0
 30
0.0
  9
$EXTMIN
 10
0.25
 20
0.2483302711109045
 30
0.0
  9
$EXTMAX
 10
10.71
 20
8.210016413185645
 30
0.0
  9
$LIMMIN
 10
0.0
 20
0.0
  9
$LIMMAX
 10
11.0
 20
8.5
  9
$ORTHOMODE
 70
     0
  9
$REGENMODE
 70
     1
  9
$FILLMODE
 70
     1
  9
$QTEXTMODE
 70
     0
  9
$MIRRTEXT
 70
     1
  9
$LTSCALE
 40
0.25
  9
$ATTMODE
 70
     1
  9
$TEXTSIZE
 40
0.12
  9
$TRACEWID
 40
0.05
  9
$TEXTSTYLE
  7
STANDARD
  9
$CLAYER
  8
DIM
  9
$CELTYPE
  6
BYLAYER
  9
$CECOLOR
 62
   256
  9
$CELTSCALE
 40
1.0
  9
$DISPSILH
 70
     0
  9
$DIMSCALE
 40
0.0
  9
$DIMASZ
 40
0.15
  9
$DIMEXO
 40
0.0625
  9
$DIMDLI
 40
0.38
  9
$DIMRND
 40
0.0
  9
$DIMDLE
 40
0.0
  9
$DIMEXE
 40
0.18
  9
$DIMTP
 40
0.0
  9
$DIMTM
 40
0.0
  9
$DIMTXT
 40
0.125
  9
$DIMCEN
 40
0.09
  9
$DIMTSZ
 40
0.0
  9
$DIMTOL
 70
     0
  9
$DIMLIM
 70
     0
  9
$DIMTIH
 70
     1
  9
$DIMTOH
 70
     1
  9
$DIMSE1
 70
     0
  9
$DIMSE2
 70
     0
  9
$DIMTAD
 70
     0
  9
$DIMZIN
 70
     0
  9
$DIMBLK
  1

  9
$DIMASO
 70
     0
  9
$DIMSHO
 70
     1
  9
$DIMPOST
  1

  9
$DIMAPOST
  1

  9
$DIMALT
 70
     0
  9
$DIMALTD
 70
     2
  9
$DIMALTF
 40
25.4
  9
$DIMLFAC
 40
1.0
  9
$DIMTOFL
 70
     0
  9
$DIMTVP
 40
0.0
  9
$DIMTIX
 70
     0
  9
$DIMSOXD
 70
     0
  9
$DIMSAH
 70
     0
  9
$DIMBLK1
  1

  9
$DIMBLK2
  1

  9
$DIMSTYLE
  2
STANDARD
  9
$DIMCLRD
 70
     1
  9
$DIMCLRE
 70
     1
  9
$DIMCLRT
 70
     7
  9
$DIMTFAC
 40
1.0
  9
$DIMGAP
 40
0.09
  9
$DIMJUST
 70
     0
  9
$DIMSD1
 70
     0
  9
$DIMSD2
 70
     0
  9
$DIMTOLJ
 70
     1
  9
$DIMTZIN
 70
     0
  9
$DIMALTZ
 70
     0
  9
$DIMALTTZ
 70
     0
  9
$DIMUPT
 70
     0
  9
$DIMDEC
 70
     4
  9
$DIMTDEC
 70
     4
  9
$DIMALTU
 70
     2
  9
$DIMALTTD
 70
     2
  9
$DIMTXSTY
  7
STANDARD
  9
$DIMAUNIT
 70
     0
  9
$DIMADEC
 70
     0
  9
$DIMALTRND
 40
0.0
  9
$DIMAZIN
 70
     0
  9
$DIMDSEP
 70
    46
  9
$DIMATFIT
 70
     3
  9
$DIMFRAC
 70
     0
  9
$DIMLDRBLK
  1

  9
$DIMLUNIT
 70
     2
  9
$DIMLWD
 70
    -2
  9
$DIMLWE
 70
    -2
  9
$DIMTMOVE
 70
     0
  9
$LUNITS
 70
     2
  9
$LUPREC
 70
     4
  9
$SKETCHINC
 40
0.1
  9
$FILLETRAD
 40
0.0
  9
$AUNITS
 70
     0
  9
$AUPREC
 70
     0
  9
$MENU
  1
acad
  9
$ELEVATION
 40
0.0
  9
$PELEVATION
 40
0.0
  9
$THICKNESS
 40
0.0
  9
$LIMCHECK
 70
     0
  9
$CHAMFERA
 40
0.0
  9
$CHAMFERB
 40
0.0
  9
$CHAMFERC
 40
0.0
  9
$CHAMFERD
 40
0.0
  9
$SKPOLY
 70
     0
  9
$TDCREATE
 40
2450156.494675000
  9
$TDUCREATE
 40
2450156.703008333
  9
$TDUPDATE
 40
2454821.743325023
  9
$TDUUPDATE
 40
2454821.951658356
  9
$TDINDWG
 40
0.3422424653
  9
$TDUSRTIMER
 40
0.3422424653
  9
$USRTIMER
 70
     1
  9
$ANGBASE
 50
0.0
  9
$ANGDIR
 70
     0
  9
$PDMODE
 70
     0
  9
$PDSIZE
 40
0.0
  9
$PLINEWID
 40
0.0
  9
$SPLFRAME
 70
     0
  9
$SPLINETYPE
 70
     6
  9
$SPLINESEGS
 70
     8
  9
$HANDSEED
  5
D9D
  9
$SURFTAB1
 70
     6
  9
$SURFTAB2
 70
     6
  9
$SURFTYPE
 70
     6
  9
$SURFU
 70
     6
  9
$SURFV
 70
     6
  9
$UCSBASE
  2

  9
$UCSNAME
  2

  9
$UCSORG
 10
0.0
 20
0.0
 30
0.0
  9
$UCSXDIR
 10
1.0
 20
0.0
 30
0.0
  9
$UCSYDIR
 10
0.0
 20
1.0
 30
0.0
  9
$UCSORTHOREF
  2

  9
$UCSORTHOVIEW
 70
     0
  9
$UCSORGTOP
 10
0.0
 20
0.0
 30
0.0
  9
$UCSORGBOTTOM
 10
0.0
 20
0.0
 30
0.0
  9
$UCSORGLEFT
 10
0.0
 20
0.0
 30
0.0
  9
$UCSORGRIGHT
 10
0.0
 20
0.0
 30
0.0
  9
$UCSORGFRONT
 10
0.0
 20
0.0
 30
0.0
  9
$UCSORGBACK
 10
0.0
 20
0.0
 30
0.0
  9
$PUCSBASE
  2

  9
$PUCSNAME
  2

  9
$PUCSORG
 10
0.0
 20
0.0
 30
0.0
  9
$PUCSXDIR
 10
1.0
 20
0.0
 30
0.0
  9
$PUCSYDIR
 10
0.0
 20
1.0
 30
0.0
  9
$PUCSORTHOREF
  2

  9
$PUCSORTHOVIEW
 70
     0
  9
$PUCSORGTOP
 10
0.0
 20
0.0
 30
0.0
  9
$PUCSORGBOTTOM
 10
0.0
 20
0.0
 30
0.0
  9
$PUCSORGLEFT
 10
0.0
 20
0.0
 30
0.0
  9
$PUCSORGRIGHT
 10
0.0
 20
0.0
 30
0.0
  9
$PUCSORGFRONT
 10
0.0
 20
0.0
 30
0.0
  9
$PUCSORGBACK
 10
0.0
 20
0.0
 30
0.0
  9
$USERI1
 70
     0
  9
$USERI2
 70
     0
  9
$USERI3
 70
     0
  9
$USERI4
 70
     0
  9
$USERI5
 70
     0
  9
$USERR1
 40
0.0
  9
$USERR2
 40
0.0
  9
$USERR3
 40
0.0
  9
$USERR4
 40
0.0
  9
$USERR5
 40
0.0
  9
$WORLDVIEW
 70
     1
  9
$SHADEDGE
 70
     3
  9
$SHADEDIF
 70
    70
  9
$TILEMODE
 70
     1
  9
$MAXACTVP
 70
    16
  9
$PINSBASE
 10
0.0
 20
0.0
 30
0.0
  9
$PLIMCHECK
 70
     0
  9
$PEXTMIN
 10
1.000000000000000E+20
 20
1.000000000000000E+20
 30
1.000000000000000E+20
  9
$PEXTMAX
 10
-1.000000000000000E+20
 20
-1.000000000000000E+20
 30
-1.000000000000000E+20
  9
$PLIMMIN
 10
0.0
 20
0.0
  9
$PLIMMAX
 10
12.0
 20
9.0
  9
$UNITMODE
 70
     0
  9
$VISRETAIN
 70
     0
  9
$PLINEGEN
 70
     0
  9
$PSLTSCALE
 70
     0
  9
$TREEDEPTH
 70
  3020
  9
$CMLSTYLE
  2
STANDARD
  9
$CMLJUST
 70
     0
  9
$CMLSCALE
 40
1.0
  9
$PROXYGRAPHICS
 70
     1
  9
$MEASUREMENT
 70
     0
  9
$CELWEIGHT
370
    -1
  9
$ENDCAPS
280
     0
  9
$JOINSTYLE
280
     0
  9
$LWDISPLAY
290
     0
  9
$INSUNITS
 70
     0
  9
$HYPERLINKBASE
  1

  9
$STYLESHEET
  1
standard.ctb
  9
$XEDIT
290
     1
  9
$CEPSNTYPE
380
     0
  9
$PSTYLEMODE
290
     1
  9
$FINGERPRINTGUID
  2
{CDC69AF4-8B14-4D42-886B-DF5E4F2CFA16}
  9
$VERSIONGUID
  2
{A508E5E9-AC07-40D8-BE49-4E4DAE0E29D4}
  9
$EXTNAMES
290
     1
  9
$PSVPSCALE
 40
0.0
  9
$OLESTARTUP
290
     0
  9
$SORTENTS
280
    96
  9
$INDEXCTL
280
     0
  9
$HIDETEXT
280
     0
  9
$XCLIPFRAME
290
     0
  9
$HALOGAP
280
     0
  9
$OBSCOLOR
 70
   257
  9
$OBSLTYPE
280
     0
  9
$INTERSECTIONDISPLAY
280
     0
  9
$INTERSECTIONCOLOR
 70
   257
  9
$DIMASSOC
280
     0
  9
$PROJECTNAME
  1

  0
ENDSEC
  0
SECTION
  2
CLASSES
  0
CLASS
  1
DICTIONARYVAR
  2
AcDbDictionaryVar
  3
ObjectDBX Classes
 90
        0
 91
        6
280
     0
281
     0
  0
CLASS
  1
ACDBDICTIONARYWDFLT
  2
AcDbDictionaryWithDefault
  3
ObjectDBX Classes
 90
        0
 91
        1
280
     0
281
     0
  0
CLASS
  1
MATERIAL
  2
AcDbMaterial
  3
ObjectDBX Classes
 90
     1153
 91
        3
280
     0
281
     0
  0
CLASS
  1
VISUALSTYLE
  2
AcDbVisualStyle
  3
ObjectDBX Classes
 90
     4095
 91
       16
280
     0
281
     0
  0
CLASS
  1
TABLESTYLE
  2
AcDbTableStyle
  3
ObjectDBX Classes
 90
     4095
 91
        1
280
     0
281
     0
  0
CLASS
  1
SCALE
  2
AcDbScale
  3
ObjectDBX Classes
 90
     1153
 91
       33
280
     0
281
     0
  0
CLASS
  1
MLEADERSTYLE
  2
AcDbMLeaderStyle
  3
ACDB_MLEADERSTYLE_CLASS
 90
     4095
 91
        1
280
     0
281
     0
  0
CLASS
  1
CELLSTYLEMAP
  2
AcDbCellStyleMap
  3
ObjectDBX Classes
 90
     1152
 91
        1
280
     0
281
     0
  0
ENDSEC
  0
SECTION
  2
TABLES
  0
TABLE
  2
VPORT
  5
8
330
0
100
AcDbSymbolTable
 70
     1
  0
VPORT
  5
D2C
330
8
100
AcDbSymbolTableRecord
100
AcDbViewportTableRecord
  2
*Active
 70
     0
 10
0.0
 20
0.0
 11
1.0
 21
1.0
 12
10.52642713153422
 22
4.25
 13
0.0
 23
0.0
 14
0.062
 24
0.062
 15
0.25
 25
0.25
 16
0.0
 26
0.0
 36
1.0
 17
0.0
 27
0.0
 37
0.0
 40
12.61505565370526
 41
1.680522565320664
 42
50.0
 43
0.0
 44
0.0
 50
0.0
 51
0.0
 71
     0
 72
   500
 73
     1
 74
     0
 75
     0
 76
     0
 77
     0
 78
     0
281
     0
 65
     1
110
0.0
120
0.0
130
0.0
111
1.0
121
0.0
131
0.0
112
0.0
122
1.0
132
0.0
 79
     0
146
0.0
  0
ENDTAB
  0
TABLE
  2
LTYPE
  5
5
330
0
100
AcDbSymbolTable
 70
     3
  0
LTYPE
  5
11
330
5
100
AcDbSymbolTableRecord
100
AcDbLinetypeTableRecord
  2
BYBLOCK
 70
     0
  3

 72
    65
 73
     0
 40
0.0
  0
LTYPE
  5
12
330
5
100
AcDbSymbolTableRecord
100
AcDbLinetypeTableRecord
  2
BYLAYER
 70
     0
  3

 72
    65
 73
     0
 40
0.0
  0
LTYPE
  5
13
330
5
100
AcDbSymbolTableRecord
100
AcDbLinetypeTableRecord
  2
CONTINUOUS
 70
     0
  3
Solid line
 72
    65
 73
     0
 40
0.0
  0
LTYPE
  5
1D
330
5
100
AcDbSymbolTableRecord
100
AcDbLinetypeTableRecord
  2
CENTER
 70
     0
  3
____ _ ____ _ ____ _ ____ _ ____ _ ____ _ ____ 
 72
    65
 73
     4
 40
2.0
 49
1.25
 74
     0
 49
-0.25
 74
     0
 49
0.25
 74
     0
 49
-0.25
 74
     0
  0
LTYPE
  5
1E
330
5
100
AcDbSymbolTableRecord
100
AcDbLinetypeTableRecord
  2
HIDDEN
 70
     0
  3
__ __ __ __ __ __ __ __ __ __ __ __ __ __ __ __
 72
    65
 73
     2
 40
0.375
 49
0.25
 74
     0
 49
-0.125
 74
     0
  0
ENDTAB
  0
TABLE
  2
LAYER
  5
2
330
0
100
AcDbSymbolTable
 70
     8
  0
LAYER
  5
E
102
{ACAD_XDICTIONARY
360
D83
102
}
330
2
100
AcDbSymbolTableRecord
100
AcDbLayerTableRecord
  2
0
 70
     0
 62
     7
  6
CONTINUOUS
370
    -3
390
D05
  0
LAYER
  5
21
102
{ACAD_XDICTIONARY
360
D85
102
}
330
2
100
AcDbSymbolTableRecord
100
AcDbLayerTableRecord
  2
FORM
 70
     0
 62
     7
  6
CONTINUOUS
370
    -3
390
D05
  0
LAYER
  5
22
102
{ACAD_XDICTIONARY
360
D87
102
}
330
2
100
AcDbSymbolTableRecord
100
AcDbLayerTableRecord
  2
CENTER
 70
     0
 62
     3
  6
CENTER
370
    -3
390
D05
  0
LAYER
  5
23
102
{ACAD_XDICTIONARY
360
D89
102
}
330
2
100
AcDbSymbolTableRecord
100
AcDbLayerTableRecord
  2
DIM
 70
     0
 62
     1
  6
CONTINUOUS
370
    -3
390
D05
  0
LAYER
  5
24
102
{ACAD_XDICTIONARY
360
D8B
102
}
330
2
100
AcDbSymbolTableRecord
100
AcDbLayerTableRecord
  2
HATCH
 70
     0
 62
     4
  6
CONTINUOUS
370
    -3
390
D05
  0
LAYER
  5
25
102
{ACAD_XDICTIONARY
360
D8D
102
}
330
2
100
AcDbSymbolTableRecord
100
AcDbLayerTableRecord
  2
HIDDEN
 70
     0
 62
     5
  6
HIDDEN
370
    -3
390
D05
  0
LAYER
  5
26
102
{ACAD_XDICTIONARY
360
D8F
102
}
330
2
100
AcDbSymbolTableRecord
100
AcDbLayerTableRecord
  2
OBJECT
 70
     0
 62
     7
  6
CONTINUOUS
370
    -3
390
D05
  0
LAYER
  5
27
102
{ACAD_XDICTIONARY
360
D91
102
}
330
2
100
AcDbSymbolTableRecord
100
AcDbLayerTableRecord
  2
TEXT
 70
     0
 62
     7
  6
CONTINUOUS
370
    -3
390
D05
  0
ENDTAB
  0
TABLE
  2
STYLE
  5
3
330
0
100
AcDbSymbolTable
 70
     4
  0
STYLE
  5
F
330
3
100
AcDbSymbolTableRecord
100
AcDbTextStyleTableRecord
  2
STANDARD
 70
     0
 40
0.0
 41
1.0
 50
0.0
 71
     0
 42
0.12
  3
ROMANS.SHX
  4

  0
STYLE
  5
1C
330
3
100
AcDbSymbolTableRecord
100
AcDbTextStyleTableRecord
  2
ROMANS
 70
     0
 40
0.0
 41
1.0
 50
0.0
 71
     0
 42
0.08
  3
romans
  4

  0
STYLE
  5
B79
330
3
100
AcDbSymbolTableRecord
100
AcDbTextStyleTableRecord
  2
HELV
 70
     0
 40
0.0
 41
1.0
 50
0.0
 71
     0
 42
0.15
  3
HELVMED
  4

  0
STYLE
  5
B7A
330
3
100
AcDbSymbolTableRecord
100
AcDbTextStyleTableRecord
  2
HELR
 70
     0
 40
0.0
 41
1.0
 50
0.0
 71
     0
 42
0.2
  3
HELV
  4

  0
ENDTAB
  0
TABLE
  2
VIEW
  5
6
330
0
100
AcDbSymbolTable
 70
     0
  0
ENDTAB
  0
TABLE
  2
UCS
  5
7
330
0
100
AcDbSymbolTable
 70
     0
  0
ENDTAB
  0
TABLE
  2
APPID
  5
9
330
0
100
AcDbSymbolTable
 70
     2
  0
APPID
  5
10
330
9
100
AcDbSymbolTableRecord
100
AcDbRegAppTableRecord
  2
ACAD
 70
     0
  0
APPID
  5
D80
330
9
100
AcDbSymbolTableRecord
100
AcDbRegAppTableRecord
  2
ACAD_MLEADERVER
 70
     0
  0
ENDTAB
  0
TABLE
  2
DIMSTYLE
  5
A
330
0
100
AcDbSymbolTable
 70
     1
100
AcDbDimStyleTable
 71
     0
  0
DIMSTYLE
105
FA
330
A
100
AcDbSymbolTableRecord
100
AcDbDimStyleTableRecord
  2
STANDARD
 70
     0
340
F
  0
ENDTAB
  0
TABLE
  2
BLOCK_RECORD
  5
1
330
0
100
AcDbSymbolTable
 70
     0
  0
BLOCK_RECORD
  5
17
330
1
100
AcDbSymbolTableRecord
100
AcDbBlockTableRecord
  2
*MODEL_SPACE
340
D08
  0
BLOCK_RECORD
  5
14
330
1
100
AcDbSymbolTableRecord
100
AcDbBlockTableRecord
  2
*PAPER_SPACE
340
D09
  0
ENDTAB
  0
ENDSEC
  0
SECTION
  2
BLOCKS
  0
BLOCK
  5
2A
330
17
100
AcDbEntity
  8
0
100
AcDbBlockBegin
  2
*MODEL_SPACE
 70
     0
 10
0.0
 20
0.0
 30
0.0
  3
*MODEL_SPACE
  1

  0
ENDBLK
  5
2B
330
17
100
AcDbEntity
  8
0
100
AcDbBlockEnd
  0
BLOCK
  5
28
330
14
100
AcDbEntity
 67
     1
  8
0
100
AcDbBlockBegin
  2
*PAPER_SPACE
 70
     0
 10
0.0
 20
0.0
 30
0.0
  3
*PAPER_SPACE
  1

  0
ENDBLK
  5
29
330
14
100
AcDbEntity
 67
     1
  8
0
100
AcDbBlockEnd
  0
ENDSEC
  0
SECTION
  2
ENTITIES
  0
LINE
  5
BC7
330
17
100
AcDbEntity
  8
FORM
100
AcDbLine
 10
2.695377489052576
 20
1.989130419728978
 30
0.0
 11
0.25
 21
1.989130419728978
 31
0.0
  0
TEXT
  5
BC8
330
17
100
AcDbEntity
  8
FORM
100
AcDbText
 10
0.9766218010942354
 20
1.831598449722397
 30
0.0
 40
0.09
  1
E.O. N.O.
 72
     4
 11
1.289478943951378
 21
1.876598449722397
 31
0.0
100
AcDbText
  0
TEXT
  5
BC9
330
17
100
AcDbEntity
  8
FORM
100
AcDbText
 10
0.2842857125303047
 20
1.831598449722397
 30
0.0
 40
0.09
  1
REV.
 72
     4
 11
0.4299999982445905
 21
1.876598449722397
 31
0.0
100
AcDbText
  0
TEXT
  5
BCA
330
17
100
AcDbEntity
  8
FORM
100
AcDbText
 10
2.727228862851443
 20
1.755392835964501
 30
0.0
 40
0.05
  1
DIMENSIONS ARE IN INCHES
 72
     1
 11
3.262943148565729
 21
1.755392835964501
 31
0.0
100
AcDbText
  0
TEXT
  5
BCB
330
17
100
AcDbEntity
  8
FORM
100
AcDbText
 10
2.727278038080573
 20
1.588726169297835
 30
0.0
 40
0.05
  1
FRACTION      DECIMALS      ANGLES
 72
     1
 11
3.517754228556763
 21
1.588726169297835
 31
0.0
100
AcDbText
  0
TEXT
  5
BCC
330
17
100
AcDbEntity
  8
FORM
100
AcDbText
 10
2.737399617384427
 20
1.672059502631168
 30
0.0
 40
0.05
  1
TOLERANCES ON
 72
     1
 11
3.043351998336809
 21
1.672059502631168
 31
0.0
100
AcDbText
  0
TEXT
  5
BCD
330
17
100
AcDbEntity
  8
FORM
100
AcDbText
 10
2.723850086181901
 20
0.5138388340507319
 30
0.0
 40
0.07
  1
SCALE
100
AcDbText
  0
TEXT
  5
BCE
330
17
100
AcDbEntity
  8
FORM
100
AcDbText
 10
4.458468624149955
 20
1.872959498187011
 30
0.0
 40
0.07
  1
DWN.
100
AcDbText
  0
TEXT
  5
BCF
330
17
100
AcDbEntity
  8
FORM
100
AcDbText
 10
4.458468624149955
 20
1.398258681090509
 30
0.0
 40
0.07
  1
DATE
100
AcDbText
  0
LINE
  5
BD0
330
17
100
AcDbEntity
  8
FORM
100
AcDbLine
 10
2.695377489052576
 20
1.989130419728978
 30
0.0
 11
4.415211632832586
 21
1.989130419728978
 31
0.0
  0
TEXT
  5
BD1
330
17
100
AcDbEntity
  8
FORM
100
AcDbText
 10
2.97231839781857
 20
1.892684021717673
 30
0.0
 40
0.05
  1
UNLESS OTHERWISE SPECIFIED
 72
     4
 11
3.554461254961427
 21
1.917684021717673
 31
0.0
100
AcDbText
  0
TEXT
  5
BD5
330
17
100
AcDbEntity
  8
FORM
100
AcDbText
 10
7.657869070352465
 20
0.4599197610249633
 30
0.0
 40
0.08
  1
NO.
100
AcDbText
  0
TEXT
  5
BD6
330
17
100
AcDbEntity
  8
FORM
100
AcDbText
 10
7.657869070352465
 20
0.5932530943582961
 30
0.0
 40
0.08
  1
DWG.
100
AcDbText
  0
TEXT
  5
BD8
330
17
100
AcDbEntity
  8
FORM
100
AcDbText
 10
2.030714285468466
 20
1.831598449722397
 30
0.0
 40
0.09
  1
DRAFTER
 72
     4
 11
2.31999999975418
 21
1.876598449722397
 31
0.0
100
AcDbText
  0
TEXT
  5
BD9
330
17
100
AcDbEntity
  8
FORM
100
AcDbText
 10
2.723850086181901
 20
0.8923554340507319
 30
0.0
 40
0.07
  1
FINISH
100
AcDbText
  0
TEXT
  5
BDA
330
17
100
AcDbEntity
  8
FORM
100
AcDbText
 10
2.723850086181901
 20
1.270872034050731
 30
0.0
 40
0.07
  1
MATERIAL
100
AcDbText
  0
TEXT
  5
BDB
330
17
100
AcDbEntity
  8
FORM
100
AcDbText
 10
6.232459418035633
 20
0.2814285576370099
 30
0.0
 40
0.08
  1
CHG LTR
 72
     4
 11
6.497221322797537
 21
0.3214285576370099
 31
0.0
100
AcDbText
  0
TEXT
  5
BDD
330
17
100
AcDbEntity
  8
FORM
100
AcDbText
 10
4.46209378020576
 20
0.8379779333667888
 30
0.0
 40
0.06
  1
THIS DRAWING IS PROPERTY OF THE
 72
     1
 11
5.303522351634332
 21
0.8379779333667888
 31
0.0
100
AcDbText
  0
TEXT
  5
BDF
330
17
100
AcDbEntity
  8
FORM
100
AcDbText
 10
4.686379494491474
 20
0.6436922190810746
 30
0.0
 40
0.06
  1
NOT BE COPIED, USED OR
 72
     1
 11
5.303522351634332
 21
0.6436922190810746
 31
0.0
100
AcDbText
  0
TEXT
  5
BE0
330
17
100
AcDbEntity
  8
FORM
100
AcDbText
 10
4.590665208777189
 20
0.5465493619382174
 30
0.0
 40
0.06
  1
DISCLOSED FOR ANY PURPOSE
 72
     1
 11
5.303522351634332
 21
0.5465493619382174
 31
0.0
100
AcDbText
  0
TEXT
  5
BE1
330
17
100
AcDbEntity
  8
FORM
100
AcDbText
 10
4.477808065920046
 20
0.4494065047953601
 30
0.0
 40
0.06
  1
EXCEPT AS AUTHORIZED IN WRITING
 72
     1
 11
5.303522351634332
 21
0.4494065047953601
 31
0.0
100
AcDbText
  0
TEXT
  5
BE3
330
17
100
AcDbEntity
  8
FORM
100
AcDbText
 10
7.661052896581039
 20
0.2814285576370099
 30
0.0
 40
0.08
  1
SIZE  A  SHEET     OF
 11
7.661052896581039
 21
0.3214285576370099
 31
0.0
100
AcDbText
 73
     2
  0
LINE
  5
BE4
330
17
100
AcDbEntity
  8
FORM
100
AcDbLine
 10
4.426533112099226
 20
1.498081847880708
 30
0.0
 11
6.182221322797538
 21
1.498081847880708
 31
0.0
  0
LINE
  5
BE5
330
17
100
AcDbEntity
  8
FORM
100
AcDbLine
 10
0.25
 20
1.007033276032438
 30
0.0
 11
6.182221322797538
 21
1.007033276032439
 31
0.0
  0
LINE
  5
BE6
330
17
100
AcDbEntity
  8
FORM
100
AcDbLine
 10
0.25
 20
1.989130419728978
 30
0.0
 11
10.71
 21
1.989130419728977
 31
0.0
  0
LINE
  5
BE7
330
17
100
AcDbEntity
  8
FORM
100
AcDbLine
 10
10.71
 20
8.209999999999999
 30
0.0
 11
0.25
 21
8.210016413185645
 31
0.0
  0
LINE
  5
BE8
330
17
100
AcDbEntity
  8
FORM
100
AcDbLine
 10
0.25
 20
8.210016413185645
 30
0.0
 11
0.25
 21
0.25
 31
0.0
  0
LINE
  5
BE9
330
17
100
AcDbEntity
  8
FORM
100
AcDbLine
 10
0.25
 20
0.25
 30
0.0
 11
10.71
 21
0.25
 31
0.0
  0
LINE
  5
BEA
330
17
100
AcDbEntity
  8
FORM
100
AcDbLine
 10
10.71
 20
0.25
 30
0.0
 11
10.71
 21
8.209999999999999
 31
0.0
  0
LINE
  5
BEB
330
17
100
AcDbEntity
  8
FORM
100
AcDbLine
 10
0.25
 20
1.385549876032439
 30
0.0
 11
4.428922508542364
 21
1.385549876032438
 31
0.0
  0
LINE
  5
BEC
330
17
100
AcDbEntity
  8
FORM
100
AcDbLine
 10
0.25
 20
1.764066479715818
 30
0.0
 11
2.68000000138049
 21
1.764066479715818
 31
0.0
  0
LINE
  5
BED
330
17
100
AcDbEntity
  8
FORM
100
AcDbLine
 10
0.25
 20
0.4392583760324392
 30
0.0
 11
2.68000000138049
 21
0.4392583760324389
 31
0.0
  0
LINE
  5
BEE
330
17
100
AcDbEntity
  8
FORM
100
AcDbLine
 10
0.25
 20
0.6285166760324392
 30
0.0
 11
4.428922508542364
 21
0.6285166760324388
 31
0.0
  0
LINE
  5
BEF
330
17
100
AcDbEntity
  8
FORM
100
AcDbLine
 10
0.25
 20
0.817774976032439
 30
0.0
 11
2.68000000138049
 21
0.8177749760324388
 31
0.0
  0
LINE
  5
BF0
330
17
100
AcDbEntity
  8
FORM
100
AcDbLine
 10
0.25
 20
1.196291576032439
 30
0.0
 11
2.68000000138049
 21
1.196291576032438
 31
0.0
  0
LINE
  5
BF1
330
17
100
AcDbEntity
  8
FORM
100
AcDbLine
 10
0.25
 20
1.574808176032439
 30
0.0
 11
2.68000000138049
 21
1.574808176032438
 31
0.0
  0
LINE
  5
BF2
330
17
100
AcDbEntity
  8
FORM
100
AcDbLine
 10
1.95999999812787
 20
1.989130419728978
 30
0.0
 11
1.95999999812787
 21
0.2483302711109045
 31
0.0
  0
LINE
  5
BF3
330
17
100
AcDbEntity
  8
FORM
100
AcDbLine
 10
0.609999996489181
 20
1.989130419728978
 30
0.0
 11
0.609999996489181
 21
0.25
 31
0.0
  0
LINE
  5
BF4
330
17
100
AcDbEntity
  8
FORM
100
AcDbLine
 10
2.68000000138049
 20
1.989130419728978
 30
0.0
 11
2.68000000138049
 21
0.2499999999999999
 31
0.0
  0
LINE
  5
BF5
330
17
100
AcDbEntity
  8
FORM
100
AcDbLine
 10
4.428922508542364
 20
1.989130419728978
 30
0.0
 11
4.428922508542364
 21
0.25
 31
0.0
  0
LINE
  5
BF6
330
17
100
AcDbEntity
  8
FORM
100
AcDbLine
 10
2.68000000138049
 20
1.846237623706368
 30
0.0
 11
4.428922508542364
 21
1.846237623706368
 31
0.0
  0
LINE
  5
BF7
330
17
100
AcDbEntity
  8
FORM
100
AcDbLine
 10
4.428922508542364
 20
1.846237623706368
 30
0.0
 11
4.428922508542364
 21
1.846237623706368
 31
0.0
  0
LINE
  5
BF8
330
17
100
AcDbEntity
  8
FORM
100
AcDbLine
 10
6.182221322797538
 20
0.3928571152740196
 30
0.0
 11
10.24124999999999
 21
0.3928571152740196
 31
0.0
  0
LINE
  5
BF9
330
17
100
AcDbEntity
  8
FORM
100
AcDbLine
 10
10.71
 20
0.739130419728978
 30
0.0
 11
6.182221322797538
 21
0.7391304197289781
 31
0.0
  0
LINE
  5
BFA
330
17
100
AcDbEntity
  8
FORM
100
AcDbLine
 10
6.182221322797538
 20
1.989130419728978
 30
0.0
 11
6.182221322797538
 21
0.25
 31
0.0
  0
LINE
  5
BFB
330
17
100
AcDbEntity
  8
FORM
100
AcDbLine
 10
6.812221322797538
 20
0.7391304197289781
 30
0.0
 11
6.812221322797537
 21
0.25
 31
0.0
  0
LINE
  5
BFC
330
17
100
AcDbEntity
  8
FORM
100
AcDbLine
 10
7.532221322797537
 20
0.7391304197289781
 30
0.0
 11
7.532221322797537
 21
0.25
 31
0.0
  0
LINE
  5
BFD
330
17
100
AcDbEntity
  8
FORM
100
AcDbLine
 10
9.21571735032967
 20
1.989130419728978
 30
0.0
 11
9.215717350329672
 21
0.7391304197289781
 31
0.0
  0
TEXT
  5
C06
330
17
100
AcDbEntity
  8
0
100
AcDbText
 10
10.34610119047619
 20
0.6164179222667118
 30
0.0
 40
0.08
  1
REV.
 72
     4
 11
10.475625
 21
0.6564179222667118
 31
0.0
100
AcDbText
  0
LINE
  5
C07
330
17
100
AcDbEntity
  8
0
100
AcDbLine
 10
10.24124999999999
 20
0.739130419728978
 30
0.0
 11
10.24124999999999
 21
0.25
 31
0.0
  0
LINE
  5
C08
330
17
100
AcDbEntity
  8
0
100
AcDbLine
 10
10.24124999999999
 20
0.5737054248044457
 30
0.0
 11
10.71
 21
0.5737054248044457
 31
0.0
  0
TEXT
  5
C09
330
17
100
AcDbEntity
  8
0
100
AcDbText
 10
10.41610119047619
 20
0.3683483051416797
 30
0.0
 40
0.125
  1
3
 72
     4
 11
10.475625
 21
0.4308483051416797
 31
0.0
100
AcDbText
  0
TEXT
  5
C0A
330
17
100
AcDbEntity
  8
0
100
AcDbText
 10
9.333896903985653
 20
0.2780634965791637
 30
0.0
 40
0.08
  1
1
 72
     4
 11
9.366277856366606
 21
0.3180634965791636
 31
0.0
100
AcDbText
  0
TEXT
  5
C0B
330
17
100
AcDbEntity
  8
0
100
AcDbText
 10
8.882304285335443
 20
0.2878708720998364
 30
0.0
 40
0.08
  1
1
 72
     4
 11
8.914685237716396
 21
0.3278708720998363
 31
0.0
100
AcDbText
  0
TEXT
  5
C0C
330
17
100
AcDbEntity
  8
FORM
100
AcDbText
 10
4.854687249223998
 20
1.650708437636254
 30
0.0
 40
0.09
  1
B. FORTIER
100
AcDbText
  0
TEXT
  5
C0F
330
17
100
AcDbEntity
  8
FORM
100
AcDbText
 10
7.020370346903886
 20
1.445152987055838
 30
0.0
 40
0.2
  1
REFLECTOR
100
AcDbText
  0
TEXT
  5
C10
330
17
100
AcDbEntity
  8
FORM
100
AcDbText
 10
8.227784726103505
 20
0.5041937141522688
 30
0.0
 40
0.15
  1
92-108
100
AcDbText
  0
TEXT
  5
C11
330
17
100
AcDbEntity
  8
FORM
100
AcDbText
 10
6.420036958669951
 20
0.5041937141522724
 30
0.0
 40
0.15
  1
C
100
AcDbText
  0
TEXT
  5
C12
330
17
100
AcDbEntity
  8
FORM
100
AcDbText
 10
4.854687249223998
 20
1.221741701840059
 30
0.0
 40
0.09
  1
1/5/99
100
AcDbText
  0
LINE
  5
C16
330
17
100
AcDbEntity
  8
OBJECT
100
AcDbLine
 10
3.495009112239273
 20
1.170760346989332
 30
0.0
 11
4.07495641081266
 21
1.170760346989332
 31
0.0
  0
LINE
  5
C17
330
17
100
AcDbEntity
  8
OBJECT
100
AcDbLine
 10
3.605686068576602
 20
1.095580614314133
 30
0.0
 11
3.694227675439805
 21
1.237095429071487
 31
0.0
  0
LINE
  5
C18
330
17
100
AcDbEntity
  8
OBJECT
100
AcDbLine
 10
3.773915017133347
 20
1.095580614314133
 30
0.0
 11
3.86245662399655
 21
1.237095429071487
 31
0.0
  0
LINE
  5
C19
330
17
100
AcDbEntity
  8
OBJECT
100
AcDbLine
 10
3.495009112239273
 20
0.825818028233769
 30
0.0
 11
4.07495641081266
 21
0.825818028233769
 31
0.0
  0
LINE
  5
C1A
330
17
100
AcDbEntity
  8
OBJECT
100
AcDbLine
 10
3.773915017133347
 20
0.75063829555857
 30
0.0
 11
3.86245662399655
 21
0.8921531103159239
 31
0.0
  0
LINE
  5
C1B
330
17
100
AcDbEntity
  8
OBJECT
100
AcDbLine
 10
3.605686068576602
 20
0.75063829555857
 30
0.0
 11
3.694227675439805
 21
0.8921531103159239
 31
0.0
  0
LINE
  5
C25
330
17
100
AcDbEntity
  8
OBJECT
100
AcDbLine
 10
4.343008927997184
 20
3.702182968240895
 30
0.0
 11
4.343008927997184
 21
6.654932968240895
 31
0.0
  0
LINE
  5
C26
330
17
100
AcDbEntity
  8
OBJECT
100
AcDbLine
 10
4.343008927997183
 20
3.702182968240895
 30
0.0
 11
7.295758927997184
 21
3.702182968240895
 31
0.0
  0
LINE
  5
C27
330
17
100
AcDbEntity
  8
OBJECT
100
AcDbLine
 10
7.295758927997184
 20
3.702182968240895
 30
0.0
 11
7.295758927997184
 21
6.654932968240895
 31
0.0
  0
LINE
  5
C29
330
17
100
AcDbEntity
  8
OBJECT
100
AcDbLine
 10
4.343008927997182
 20
6.654932968240895
 30
0.0
 11
7.295758927997182
 21
6.654932968240895
 31
0.0
  0
CIRCLE
  5
C30
330
17
100
AcDbEntity
  8
OBJECT
100
AcDbCircle
 10
4.461133927997185
 20
6.536807968240895
 30
0.0
 40
0.05175
  0
CIRCLE
  5
C31
330
17
100
AcDbEntity
  8
OBJECT
100
AcDbCircle
 10
7.177633927997183
 20
3.820307968240896
 30
0.0
 40
0.05175
  0
LINE
  5
C32
102
{ACAD_REACTORS
330
C3D
102
}
330
17
100
AcDbEntity
  8
OBJECT
100
AcDbLine
 10
7.229383927997183
 20
3.892107940555825
 30
0.0
 11
7.229383927997185
 21
6.588557968240895
 31
0.0
  0
LINE
  5
C33
102
{ACAD_REACTORS
330
C3D
102
}
330
17
100
AcDbEntity
  8
OBJECT
100
AcDbLine
 10
7.105833955682254
 20
3.768557968240895
 30
0.0
 11
4.409383927997184
 21
3.768557968240896
 31
0.0
  0
LINE
  5
C34
102
{ACAD_REACTORS
330
C3D
102
}
330
17
100
AcDbEntity
  8
OBJECT
100
AcDbLine
 10
4.409383927997184
 20
6.465007995925965
 30
0.0
 11
4.409383927997184
 21
3.768557968240895
 31
0.0
  0
LINE
  5
C35
102
{ACAD_REACTORS
330
C3D
102
}
330
17
100
AcDbEntity
  8
OBJECT
100
AcDbLine
 10
4.532933900312114
 20
6.588557968240895
 30
0.0
 11
7.229383927997183
 21
6.588557968240895
 31
0.0
  0
ARC
  5
C36
102
{ACAD_REACTORS
330
C3D
102
}
330
17
100
AcDbEntity
  8
OBJECT
100
AcDbCircle
 10
4.461133927997185
 20
6.536807968240895
 30
0.0
 40
0.0885059236685586
100
AcDbArc
 50
234.2177328196747
 51
35.78226718032519
  0
ARC
  5
C37
102
{ACAD_REACTORS
330
C3D
102
}
330
17
100
AcDbEntity
  8
OBJECT
100
AcDbCircle
 10
7.177633927997183
 20
3.820307968240896
 30
0.0
 40
0.0885059236685586
100
AcDbArc
 50
54.21773281967482
 51
215.7822671803253
  0
LINE
  5
C39
330
17
100
AcDbEntity
  8
OBJECT
100
AcDbLine
 10
2.870277762461581
 20
3.702182968240895
 30
0.0
 11
2.604777762461581
 21
3.702182968240895
 31
0.0
  0
LINE
  5
C3A
330
17
100
AcDbEntity
  8
OBJECT
100
AcDbLine
 10
2.870277762461581
 20
6.654932968240895
 30
0.0
 11
2.604777762461581
 21
6.654932968240895
 31
0.0
  0
LINE
  5
C3B
330
17
100
AcDbEntity
  8
OBJECT
100
AcDbLine
 10
2.870277762461581
 20
3.702182968240895
 30
0.0
 11
2.870277762461581
 21
6.654932968240895
 31
0.0
  0
LINE
  5
C3C
330
17
100
AcDbEntity
  8
OBJECT
100
AcDbLine
 10
2.604777762461581
 20
3.702182968240895
 30
0.0
 11
2.604777762461581
 21
6.654932968240895
 31
0.0
  0
HATCH
  5
C3D
330
17
100
AcDbEntity
  8
OBJECT
100
AcDbHatch
 10
0.0
 20
0.0
 30
0.0
210
0.0
220
0.0
230
1.0
  2
HONEY
 70
     0
 71
     1
 91
        1
 92
        1
 93
        6
 72
     1
 10
4.532933900312114
 20
6.588557968240895
 11
7.229383927997183
 21
6.588557968240895
 72
     1
 10
7.229383927997185
 20
6.588557968240895
 11
7.229383927997183
 21
3.892107940555825
 72
     2
 10
7.177633927997183
 20
3.820307968240896
 40
0.0885059236685586
 50
54.21773281967482
 51
215.7822671803253
 73
     1
 72
     1
 10
7.105833955682254
 20
3.768557968240895
 11
4.409383927997184
 21
3.768557968240896
 72
     1
 10
4.409383927997184
 20
3.768557968240895
 11
4.409383927997184
 21
6.465007995925965
 72
     2
 10
4.461133927997185
 20
6.536807968240895
 40
0.0885059236685586
 50
234.2177328196747
 51
395.7822671803252
 73
     1
 97
        6
330
C35
330
C32
330
C37
330
C33
330
C34
330
C36
 75
     0
 76
     1
 52
0.0
 41
0.375
 77
     0
 78
     3
 53
0.0
 43
0.0641279169363589
 44
1.031574837692978
 45
0.0703125
 46
0.040594940625
 79
     2
 49
0.046875
 49
-0.09375
 53
120.0
 43
0.0641279169363589
 44
1.031574837692978
 45
-0.0703124998463709
 46
0.0405949408910934
 79
     2
 49
0.046875
 49
-0.09375
 53
60.0
 43
0.0641279169363589
 44
1.031574837692978
 45
0.0000000001536291
 46
0.0811898815160934
 79
     2
 49
-0.09375
 49
0.046875
 98
        1
 10
0.0641279169363589
 20
1.031574837692978
  0
LINE
  5
C40
330
17
100
AcDbEntity
  8
CENTER
100
AcDbLine
 10
2.948974602241795
 20
6.536807968240895
 30
0.0
 11
2.5061980965207
 21
6.536807968240895
 31
0.0
  0
LINE
  5
C41
330
17
100
AcDbEntity
  8
CENTER
100
AcDbLine
 10
2.949277969573595
 20
3.820307968240896
 30
0.0
 11
2.506887686460379
 21
3.820307968240896
 31
0.0
  0
LINE
  5
C42
330
17
100
AcDbEntity
  8
HIDDEN
100
AcDbLine
 10
2.870277762461581
 20
6.588557968240895
 30
0.0
 11
2.604777762461581
 21
6.588557968240895
 31
0.0
  0
LINE
  5
C43
330
17
100
AcDbEntity
  8
HIDDEN
100
AcDbLine
 10
2.870277762461581
 20
6.485057968240894
 30
0.0
 11
2.604777762461581
 21
6.485057968240895
 31
0.0
  0
LINE
  5
C44
330
17
100
AcDbEntity
  8
HIDDEN
100
AcDbLine
 10
2.870277762461581
 20
3.768557968240896
 30
0.0
 11
2.604777762461581
 21
3.768557968240896
 31
0.0
  0
LINE
  5
C45
330
17
100
AcDbEntity
  8
HIDDEN
100
AcDbLine
 10
2.870277762461581
 20
3.872057968240895
 30
0.0
 11
2.604777762461581
 21
3.872057968240896
 31
0.0
  0
LINE
  5
C5E
330
17
100
AcDbEntity
  8
0
100
AcDbLine
 10
2.786542052079347
 20
5.160365830045387
 30
0.0
 11
2.664579908950962
 21
5.223855303503809
 31
0.0
  0
LINE
  5
C5F
330
17
100
AcDbEntity
  8
0
100
AcDbLine
 10
2.786542052159313
 20
5.347651775921826
 30
0.0
 11
2.664579909050628
 21
5.28416230323839
 31
0.0
  0
LINE
  5
C60
330
17
100
AcDbEntity
  8
0
100
AcDbLine
 10
2.786542052135407
 20
5.407958775695846
 30
0.0
 11
2.664579909038838
 21
5.471448248870199
 31
0.0
  0
LINE
  5
C61
330
17
100
AcDbEntity
  8
0
100
AcDbLine
 10
2.786542052217746
 20
5.595244721727097
 30
0.0
 11
2.664579909112235
 21
5.531755248618456
 31
0.0
  0
LINE
  5
C62
330
17
100
AcDbEntity
  8
0
100
AcDbLine
 10
2.786542052176372
 20
5.655551721492024
 30
0.0
 11
2.664579909187535
 21
5.719041194302415
 31
0.0
  0
ARC
  5
C63
330
17
100
AcDbEntity
  8
0
100
AcDbCircle
 10
2.770845133576115
 20
5.130212330152156
 30
0.0
 40
0.0339945114144657
100
AcDbArc
 50
297.5
 51
62.50000000000002
  0
ARC
  5
C64
330
17
100
AcDbEntity
  8
0
100
AcDbCircle
 10
2.680276827553861
 20
5.254008803345159
 30
0.0
 40
0.0339945114144657
100
AcDbArc
 50
117.5
 51
242.4999998106204
  0
ARC
  5
C65
330
17
100
AcDbEntity
  8
0
100
AcDbCircle
 10
2.770845133632175
 20
5.377805275802614
 30
0.0
 40
0.0339945114144657
100
AcDbArc
 50
297.5000000454226
 51
62.50000000000002
  0
ARC
  5
C66
330
17
100
AcDbEntity
  8
0
100
AcDbCircle
 10
2.680276827615466
 20
5.501601748725224
 30
0.0
 40
0.0339945114144657
100
AcDbArc
 50
117.5
 51
242.499999860538
  0
ARC
  5
C67
330
17
100
AcDbEntity
  8
0
100
AcDbCircle
 10
2.77084513367314
 20
5.625398221598792
 30
0.0
 40
0.0339945114144657
100
AcDbArc
 50
297.5000000786154
 51
62.50000000000002
  0
ARC
  5
C68
330
17
100
AcDbEntity
  8
0
100
AcDbCircle
 10
2.680276827719711
 20
5.006415857739233
 30
0.0
 40
0.0339945114144657
100
AcDbArc
 50
117.5
 51
242.499999945004
  0
LINE
  5
C69
330
17
100
AcDbEntity
  8
0
100
AcDbLine
 10
2.786542052252757
 20
5.100058830559715
 30
0.0
 11
2.664579909216479
 21
5.036569357632465
 31
0.0
  0
ARC
  5
C6A
330
17
100
AcDbEntity
  8
0
100
AcDbCircle
 10
2.77084513367314
 20
4.882619385157445
 30
0.0
 40
0.0339945114144657
100
AcDbArc
 50
297.5000000786154
 51
62.50000000000002
  0
LINE
  5
C6B
330
17
100
AcDbEntity
  8
0
100
AcDbLine
 10
2.786542052176372
 20
4.912772885050676
 30
0.0
 11
2.664579909187535
 21
4.976262357861068
 31
0.0
  0
LINE
  5
C6C
330
17
100
AcDbEntity
  8
0
100
AcDbLine
 10
2.786542052217746
 20
4.85246588528575
 30
0.0
 11
2.664579909112235
 21
4.78897641217711
 31
0.0
  0
ARC
  5
C6D
330
17
100
AcDbEntity
  8
0
100
AcDbCircle
 10
2.680276827719711
 20
4.758822912258784
 30
0.0
 40
0.0339945114144657
100
AcDbArc
 50
117.5
 51
180.0
  0
ARC
  5
C6E
330
17
100
AcDbEntity
  8
0
100
AcDbCircle
 10
2.680276827719711
 20
4.758822912258784
 30
0.0
 40
0.0339945114144657
100
AcDbArc
 50
180.0
 51
242.499999945004
  0
LINE
  5
C6F
330
17
100
AcDbEntity
  8
0
100
AcDbLine
 10
2.786542052079347
 20
4.169994048123591
 30
0.0
 11
2.664579908950962
 21
4.233483521582012
 31
0.0
  0
LINE
  5
C70
330
17
100
AcDbEntity
  8
0
100
AcDbLine
 10
2.786542052159312
 20
4.357279994000029
 30
0.0
 11
2.664579909050628
 21
4.293790521316593
 31
0.0
  0
LINE
  5
C71
330
17
100
AcDbEntity
  8
0
100
AcDbLine
 10
2.786542052135407
 20
4.417586993774049
 30
0.0
 11
2.664579909038838
 21
4.481076466948403
 31
0.0
  0
LINE
  5
C72
330
17
100
AcDbEntity
  8
0
100
AcDbLine
 10
2.786542052217746
 20
4.604872939805302
 30
0.0
 11
2.664579909112235
 21
4.541383466696659
 31
0.0
  0
LINE
  5
C73
330
17
100
AcDbEntity
  8
0
100
AcDbLine
 10
2.786542052176372
 20
4.665179939570228
 30
0.0
 11
2.664579909187535
 21
4.728669412380619
 31
0.0
  0
ARC
  5
C74
330
17
100
AcDbEntity
  8
0
100
AcDbCircle
 10
2.770845133576115
 20
4.139840548230359
 30
0.0
 40
0.0339945114144657
100
AcDbArc
 50
297.5
 51
62.50000000000002
  0
ARC
  5
C75
330
17
100
AcDbEntity
  8
0
100
AcDbCircle
 10
2.68027682755386
 20
4.263637021423361
 30
0.0
 40
0.0339945114144657
100
AcDbArc
 50
117.5
 51
242.4999998106204
  0
ARC
  5
C76
330
17
100
AcDbEntity
  8
0
100
AcDbCircle
 10
2.770845133632175
 20
4.387433493880818
 30
0.0
 40
0.0339945114144657
100
AcDbArc
 50
297.5000000454226
 51
62.50000000000002
  0
ARC
  5
C77
330
17
100
AcDbEntity
  8
0
100
AcDbCircle
 10
2.680276827615466
 20
4.511229966803427
 30
0.0
 40
0.0339945114144657
100
AcDbArc
 50
117.5
 51
242.499999860538
  0
ARC
  5
C78
330
17
100
AcDbEntity
  8
0
100
AcDbCircle
 10
2.77084513367314
 20
4.635026439676996
 30
0.0
 40
0.0339945114144657
100
AcDbArc
 50
297.5000000786154
 51
62.50000000000002
  0
ARC
  5
C79
330
17
100
AcDbEntity
  8
0
100
AcDbCircle
 10
2.680276827719711
 20
4.016044075817436
 30
0.0
 40
0.0339945114144657
100
AcDbArc
 50
117.5
 51
242.499999945004
  0
LINE
  5
C7A
330
17
100
AcDbEntity
  8
0
100
AcDbLine
 10
2.786542052252756
 20
4.109687048637919
 30
0.0
 11
2.664579909216479
 21
4.046197575710669
 31
0.0
  0
ARC
  5
C7B
330
17
100
AcDbEntity
  8
0
100
AcDbCircle
 10
2.77084513367314
 20
3.892247603235649
 30
0.0
 40
0.0339945114144657
100
AcDbArc
 50
297.5000000786154
 51
62.50000000000002
  0
LINE
  5
C7C
330
17
100
AcDbEntity
  8
0
100
AcDbLine
 10
2.786542052176372
 20
3.922401103128881
 30
0.0
 11
2.664579909187535
 21
3.985890575939271
 31
0.0
  0
LINE
  5
C7D
330
17
100
AcDbEntity
  8
0
100
AcDbLine
 10
2.786542052217746
 20
3.862094103363954
 30
0.0
 11
2.664579909112235
 21
3.798604630255312
 31
0.0
  0
ARC
  5
C7E
330
17
100
AcDbEntity
  8
0
100
AcDbCircle
 10
2.680276827719711
 20
3.768451130336988
 30
0.0
 40
0.0339945114144657
100
AcDbArc
 50
117.5
 51
180.0
  0
ARC
  5
C80
330
17
100
AcDbEntity
  8
0
100
AcDbCircle
 10
2.78914272655543
 20
5.842837667201077
 30
0.0
 40
0.0339945114144657
100
AcDbArc
 50
297.5000000786154
 51
62.50000000000002
  0
LINE
  5
C81
330
17
100
AcDbEntity
  8
0
100
AcDbLine
 10
2.804839645100036
 20
5.812684167329383
 30
0.0
 11
2.682877501994525
 21
5.74919469422074
 31
0.0
  0
ARC
  5
C82
330
17
100
AcDbEntity
  8
0
100
AcDbCircle
 10
2.698574420602001
 20
5.719041194302415
 30
0.0
 40
0.0339945114144657
100
AcDbArc
 50
117.5
 51
180.0
  0
LINE
  5
C83
330
17
100
AcDbEntity
  8
0
100
AcDbLine
 10
2.804839645041603
 20
6.307870057965457
 30
0.0
 11
2.682877501932918
 21
6.244380585282021
 31
0.0
  0
ARC
  5
C84
330
17
100
AcDbEntity
  8
0
100
AcDbCircle
 10
2.789142726458406
 20
6.090430612195786
 30
0.0
 40
0.0339945114144657
100
AcDbArc
 50
297.5
 51
62.50000000000002
  0
LINE
  5
C85
330
17
100
AcDbEntity
  8
0
100
AcDbLine
 10
2.804839645135047
 20
6.060277112603347
 30
0.0
 11
2.68287750209877
 21
5.996787639676097
 31
0.0
  0
LINE
  5
C86
330
17
100
AcDbEntity
  8
0
100
AcDbLine
 10
2.804839645058662
 20
5.872991167094308
 30
0.0
 11
2.682877502069827
 21
5.936480639904699
 31
0.0
  0
ARC
  5
C87
330
17
100
AcDbEntity
  8
0
100
AcDbCircle
 10
2.698574420602001
 20
5.966634139782865
 30
0.0
 40
0.0339945114144657
100
AcDbArc
 50
117.5
 51
242.499999945004
  0
LINE
  5
C88
330
17
100
AcDbEntity
  8
0
100
AcDbLine
 10
2.804839644961638
 20
6.120584112089018
 30
0.0
 11
2.682877501833252
 21
6.184073585547441
 31
0.0
  0
ARC
  5
C89
330
17
100
AcDbEntity
  8
0
100
AcDbCircle
 10
2.69857442043615
 20
6.21422708538879
 30
0.0
 40
0.0339945114144657
100
AcDbArc
 50
117.5
 51
242.4999998106204
  0
LINE
  5
C8A
330
17
100
AcDbEntity
  8
0
100
AcDbLine
 10
2.804839645100036
 20
6.555463003770729
 30
0.0
 11
2.682877501994525
 21
6.491973530662088
 31
0.0
  0
LINE
  5
C8B
330
17
100
AcDbEntity
  8
0
100
AcDbLine
 10
2.804839645017697
 20
6.368177057739478
 30
0.0
 11
2.682877501921129
 21
6.431666530913831
 31
0.0
  0
ARC
  5
C8C
330
17
100
AcDbEntity
  8
0
100
AcDbCircle
 10
2.698574420497757
 20
6.461820030768855
 30
0.0
 40
0.0339945114144657
100
AcDbArc
 50
117.5
 51
242.499999860538
  0
ARC
  5
C8D
330
17
100
AcDbEntity
  8
0
100
AcDbCircle
 10
2.789142726514466
 20
6.338023557846246
 30
0.0
 40
0.0339945114144657
100
AcDbArc
 50
297.5000000454226
 51
62.50000000000002
  0
ARC
  5
C90
330
17
100
AcDbEntity
  8
0
100
AcDbCircle
 10
2.78914272655543
 20
6.585616503642423
 30
0.0
 40
0.0339945114144657
100
AcDbArc
 50
297.5000000786154
 51
347.4373509878983
  0
LINE
  5
CA2
330
17
100
AcDbEntity
  8
OBJECT
100
AcDbLine
 10
2.817978739021397
 20
3.702182968240895
 30
0.0
 11
2.817978739021397
 21
6.654932968240895
 31
0.0
  0
LINE
  5
CA6
330
17
100
AcDbEntity
  8
DIM
 62
     1
100
AcDbLine
 10
4.343008927997184
 20
6.701807968240895
 30
0.0
 11
4.343008927997184
 21
7.508440759307239
 31
0.0
  0
LINE
  5
CA7
330
17
100
AcDbEntity
  8
DIM
 62
     1
100
AcDbLine
 10
7.295758927997184
 20
6.701807968240895
 30
0.0
 11
7.295758927997184
 21
7.508440759307239
 31
0.0
  0
LINE
  5
CA8
330
17
100
AcDbEntity
  8
DIM
 62
     1
100
AcDbLine
 10
4.455508927997184
 20
7.373440759307239
 30
0.0
 11
5.638044642282897
 21
7.373440759307239
 31
0.0
  0
LINE
  5
CA9
330
17
100
AcDbEntity
  8
DIM
 62
     1
100
AcDbLine
 10
7.183258927997183
 20
7.373440759307239
 30
0.0
 11
6.000723213711469
 21
7.373440759307239
 31
0.0
  0
SOLID
  5
CAA
330
17
100
AcDbEntity
  8
DIM
 62
     1
100
AcDbTrace
 10
4.455508927997184
 20
7.39219075930724
 30
0.0
 11
4.455508927997184
 21
7.354690759307239
 31
0.0
 12
4.343008927997184
 22
7.373440759307239
 32
0.0
 13
4.343008927997184
 23
7.373440759307239
 33
0.0
  0
SOLID
  5
CAB
330
17
100
AcDbEntity
  8
DIM
 62
     1
100
AcDbTrace
 10
7.183258927997183
 20
7.39219075930724
 30
0.0
 11
7.183258927997183
 21
7.354690759307239
 31
0.0
 12
7.295758927997184
 22
7.373440759307239
 32
0.0
 13
7.295758927997184
 23
7.373440759307239
 33
0.0
  0
MTEXT
  5
CAC
330
17
100
AcDbEntity
  8
DIM
 62
     7
100
AcDbMText
 10
5.819383927997183
 20
7.373440759307239
 30
0.0
 40
0.09375
 41
0.0
 71
     5
 72
     1
  1
\A1;100
 73
     1
 44
1.0
  0
LINE
  5
CAD
330
17
100
AcDbEntity
  8
DIM
 62
     1
100
AcDbLine
 10
4.461133927997185
 20
6.583682968240895
 30
0.0
 11
4.461133927997185
 21
7.137338889461666
 31
0.0
  0
LINE
  5
CAE
330
17
100
AcDbEntity
  8
DIM
 62
     1
100
AcDbLine
 10
7.177633927997183
 20
3.867182968240896
 30
0.0
 11
7.177633927997183
 21
7.137338889461666
 31
0.0
  0
LINE
  5
CAF
330
17
100
AcDbEntity
  8
DIM
 62
     1
100
AcDbLine
 10
4.573633927997184
 20
7.002338889461666
 30
0.0
 11
5.675991070854327
 21
7.002338889461666
 31
0.0
  0
LINE
  5
CB0
330
17
100
AcDbEntity
  8
DIM
 62
     1
100
AcDbLine
 10
7.065133927997182
 20
7.002338889461666
 30
0.0
 11
5.962776785140041
 21
7.002338889461666
 31
0.0
  0
SOLID
  5
CB1
330
17
100
AcDbEntity
  8
DIM
 62
     1
100
AcDbTrace
 10
4.573633927997184
 20
7.021088889461667
 30
0.0
 11
4.573633927997184
 21
6.983588889461666
 31
0.0
 12
4.461133927997185
 22
7.002338889461666
 32
0.0
 13
4.461133927997185
 23
7.002338889461666
 33
0.0
  0
SOLID
  5
CB2
330
17
100
AcDbEntity
  8
DIM
 62
     1
100
AcDbTrace
 10
7.065133927997182
 20
7.021088889461667
 30
0.0
 11
7.065133927997182
 21
6.983588889461666
 31
0.0
 12
7.177633927997183
 22
7.002338889461666
 32
0.0
 13
7.177633927997183
 23
7.002338889461666
 33
0.0
  0
MTEXT
  5
CB3
330
17
100
AcDbEntity
  8
DIM
 62
     7
100
AcDbMText
 10
5.819383927997183
 20
7.002338889461666
 30
0.0
 40
0.09375
 41
0.0
 71
     5
 72
     1
  1
\A1;92
 73
     1
 44
1.0
  0
MTEXT
  5
CB4
330
17
100
AcDbEntity
  8
DIM
 62
     7
100
AcDbMText
 10
5.819383927997183
 20
7.214397104420465
 30
0.0
 40
0.09375
 41
0.0
 71
     5
 72
     1
  1
(3.937)
 73
     1
 44
1.0
  0
MTEXT
  5
CB5
330
17
100
AcDbEntity
  8
DIM
 62
     7
100
AcDbMText
 10
5.819383927997183
 20
6.843295234574892
 30
0.0
 40
0.09375
 41
0.0
 71
     5
 72
     1
  1
(3.622)
 73
     1
 44
1.0
  0
LINE
  5
CB6
330
17
100
AcDbEntity
  8
DIM
 62
     1
100
AcDbLine
 10
4.508008927997185
 20
6.536807968240895
 30
0.0
 11
7.901113797830156
 21
6.536807968240894
 31
0.0
  0
LINE
  5
CB7
330
17
100
AcDbEntity
  8
DIM
 62
     1
100
AcDbLine
 10
7.224508927997183
 20
3.820307968240896
 30
0.0
 11
7.901113797830156
 21
3.820307968240896
 31
0.0
  0
LINE
  5
CB8
330
17
100
AcDbEntity
  8
DIM
 62
     1
100
AcDbLine
 10
7.766113797830156
 20
6.424307968240894
 30
0.0
 11
7.766113797830156
 21
5.611020278014443
 31
0.0
  0
LINE
  5
CB9
330
17
100
AcDbEntity
  8
DIM
 62
     1
100
AcDbLine
 10
7.766113797830156
 20
3.932807968240895
 30
0.0
 11
7.766113797830156
 21
5.064182968240894
 31
0.0
  0
SOLID
  5
CBA
330
17
100
AcDbEntity
  8
DIM
 62
     1
100
AcDbTrace
 10
7.747363797830155
 20
6.424307968240894
 30
0.0
 11
7.784863797830157
 21
6.424307968240894
 31
0.0
 12
7.766113797830156
 22
6.536807968240894
 32
0.0
 13
7.766113797830156
 23
6.536807968240894
 33
0.0
  0
SOLID
  5
CBB
330
17
100
AcDbEntity
  8
DIM
 62
     1
100
AcDbTrace
 10
7.747363797830155
 20
3.932807968240895
 30
0.0
 11
7.784863797830157
 21
3.932807968240895
 31
0.0
 12
7.766113797830156
 22
3.820307968240896
 32
0.0
 13
7.766113797830156
 23
3.820307968240896
 33
0.0
  0
MTEXT
  5
CBC
330
17
100
AcDbEntity
  8
DIM
 62
     7
100
AcDbMText
 10
7.766113797830156
 20
5.456884370625075
 30
0.0
 40
0.09375
 41
0.0
 71
     5
 72
     1
  1
\A1;92
 73
     1
 44
1.0
  0
LINE
  5
CBD
330
17
100
AcDbEntity
  8
DIM
 62
     1
100
AcDbLine
 10
7.342633927997184
 20
3.702182968240895
 30
0.0
 11
8.484899117178798
 21
3.702182968240895
 31
0.0
  0
LINE
  5
CBE
330
17
100
AcDbEntity
  8
DIM
 62
     1
100
AcDbLine
 10
7.342633927997184
 20
6.654932968240895
 30
0.0
 11
8.484899117178798
 21
6.654932968240895
 31
0.0
  0
LINE
  5
CBF
330
17
100
AcDbEntity
  8
DIM
 62
     1
100
AcDbLine
 10
8.349899117178798
 20
3.814682968240895
 30
0.0
 11
8.349899117178798
 21
4.812363845892729
 31
0.0
  0
LINE
  5
CC0
330
17
100
AcDbEntity
  8
DIM
 62
     1
100
AcDbLine
 10
8.349899117178798
 20
6.542432968240896
 30
0.0
 11
8.349899117178798
 21
5.292932968240895
 31
0.0
  0
SOLID
  5
CC1
330
17
100
AcDbEntity
  8
DIM
 62
     1
100
AcDbTrace
 10
8.331149117178798
 20
3.814682968240895
 30
0.0
 11
8.368649117178799
 21
3.814682968240895
 31
0.0
 12
8.349899117178798
 22
3.702182968240895
 32
0.0
 13
8.349899117178798
 23
3.702182968240895
 33
0.0
  0
SOLID
  5
CC2
330
17
100
AcDbEntity
  8
DIM
 62
     1
100
AcDbTrace
 10
8.331149117178798
 20
6.542432968240896
 30
0.0
 11
8.368649117178799
 21
6.542432968240896
 31
0.0
 12
8.349899117178798
 22
6.654932968240895
 32
0.0
 13
8.349899117178798
 23
6.654932968240895
 33
0.0
  0
MTEXT
  5
CC3
330
17
100
AcDbEntity
  8
DIM
 62
     7
100
AcDbMText
 10
8.349899117178798
 20
5.178557968240895
 30
0.0
 40
0.09375
 41
0.0
 71
     5
 72
     1
  1
\A1;100
 73
     1
 44
1.0
  0
MTEXT
  5
CC4
330
17
100
AcDbEntity
  8
DIM
 62
     7
100
AcDbMText
 10
8.366810766565524
 20
4.974532232664389
 30
0.0
 40
0.09375
 41
0.0
 71
     5
 72
     1
  1
(3.937)
 73
     1
 44
1.0
  0
MTEXT
  5
CC5
330
17
100
AcDbEntity
  8
DIM
 62
     7
100
AcDbMText
 10
7.769757580052885
 20
5.239604982365909
 30
0.0
 40
0.09375
 41
0.0
 71
     5
 72
     1
  1
(3.622)
 73
     1
 44
1.0
  0
LINE
  5
CC6
330
17
100
AcDbEntity
  8
DIM
 62
     1
100
AcDbLine
 10
4.414258927997185
 20
6.485057968240894
 30
0.0
 11
4.111479135652437
 21
6.485057968240894
 31
0.0
  0
LINE
  5
CC7
330
17
100
AcDbEntity
  8
DIM
 62
     1
100
AcDbLine
 10
4.414258927997185
 20
6.588557968240895
 30
0.0
 11
4.111479135652437
 21
6.588557968240895
 31
0.0
  0
LINE
  5
CC8
330
17
100
AcDbEntity
  8
DIM
 62
     1
100
AcDbLine
 10
4.165244604894281
 20
6.372557968240895
 30
0.0
 11
4.165244604894281
 21
6.260057968240895
 31
0.0
  0
LINE
  5
CC9
330
17
100
AcDbEntity
  8
DIM
 62
     1
100
AcDbLine
 10
4.165244604894281
 20
6.701057968240895
 30
0.0
 11
4.165244604894281
 21
6.813557968240894
 31
0.0
  0
LINE
  5
CCA
330
17
100
AcDbEntity
  8
DIM
 62
     1
100
AcDbLine
 10
4.052744604894281
 20
6.813557968240894
 30
0.0
 11
4.165244604894281
 21
6.813557968240894
 31
0.0
  0
SOLID
  5
CCB
330
17
100
AcDbEntity
  8
DIM
 62
     1
100
AcDbTrace
 10
4.146494604894281
 20
6.372557968240895
 30
0.0
 11
4.183994604894282
 21
6.372557968240895
 31
0.0
 12
4.165244604894281
 22
6.485057968240894
 32
0.0
 13
4.165244604894281
 23
6.485057968240894
 33
0.0
  0
SOLID
  5
CCC
330
17
100
AcDbEntity
  8
DIM
 62
     1
100
AcDbTrace
 10
4.146494604894281
 20
6.701057968240895
 30
0.0
 11
4.183994604894282
 21
6.701057968240895
 31
0.0
 12
4.165244604894281
 22
6.588557968240895
 32
0.0
 13
4.165244604894281
 23
6.588557968240895
 33
0.0
  0
MTEXT
  5
CCD
330
17
100
AcDbEntity
  8
DIM
 62
     7
100
AcDbMText
 10
3.841854358252553
 20
6.813557968240894
 30
0.0
 40
0.09375
 41
0.0
 71
     5
 72
     1
  1
3.5
 73
     1
 44
1.0
  0
MTEXT
  5
CCE
330
17
100
AcDbEntity
  8
DIM
 62
     7
100
AcDbMText
 10
3.846129868120086
 20
6.655947140671159
 30
0.0
 40
0.09375
 41
0.0
 71
     5
 72
     1
  1
(.138)
 73
     1
 44
1.0
  0
LINE
  5
CCF
330
17
100
AcDbEntity
  8
DIM
 62
     1
100
AcDbLine
 10
2.604777762461581
 20
6.701807968240895
 30
0.0
 11
2.604777762461581
 21
7.309636171701805
 31
0.0
  0
LINE
  5
CD0
330
17
100
AcDbEntity
  8
DIM
 62
     1
100
AcDbLine
 10
2.870277762461581
 20
6.701807968240895
 30
0.0
 11
2.870277762461581
 21
7.309636171701805
 31
0.0
  0
LINE
  5
CD1
330
17
100
AcDbEntity
  8
DIM
 62
     1
100
AcDbLine
 10
2.492277762461581
 20
7.174636171701806
 30
0.0
 11
2.379777762461581
 21
7.174636171701806
 31
0.0
  0
LINE
  5
CD2
330
17
100
AcDbEntity
  8
DIM
 62
     1
100
AcDbLine
 10
2.982777762461581
 20
7.174636171701806
 30
0.0
 11
3.095277762461581
 21
7.174636171701806
 31
0.0
  0
SOLID
  5
CD3
330
17
100
AcDbEntity
  8
DIM
 62
     1
100
AcDbTrace
 10
2.492277762461581
 20
7.193386171701806
 30
0.0
 11
2.492277762461581
 21
7.155886171701805
 31
0.0
 12
2.604777762461581
 22
7.174636171701806
 32
0.0
 13
2.604777762461581
 23
7.174636171701806
 33
0.0
  0
SOLID
  5
CD4
330
17
100
AcDbEntity
  8
DIM
 62
     1
100
AcDbTrace
 10
2.982777762461581
 20
7.193386171701806
 30
0.0
 11
2.982777762461581
 21
7.155886171701805
 31
0.0
 12
2.870277762461581
 22
7.174636171701806
 32
0.0
 13
2.870277762461581
 23
7.174636171701806
 33
0.0
  0
MTEXT
  5
CD5
330
17
100
AcDbEntity
  8
DIM
 62
     7
100
AcDbMText
 10
2.208064288711891
 20
7.174636171701806
 30
0.0
 40
0.09375
 41
0.0
 71
     5
 72
     1
  1
\A1;9
 73
     1
 44
1.0
  0
MTEXT
  5
CD6
330
17
100
AcDbEntity
  8
DIM
 62
     7
100
AcDbMText
 10
2.207352888433599
 20
7.012390114114625
 30
0.0
 40
0.09375
 41
0.0
 71
     5
 72
     1
  1
(.354)
 73
     1
 44
1.0
  0
TEXT
  5
CE0
330
17
100
AcDbEntity
  8
FORM
100
AcDbText
 10
6.865853666167602
 20
1.032637035605933
 30
0.0
 40
0.2
  1
RECTANGULAR
100
AcDbText
  0
LINE
  5
CE1
330
17
100
AcDbEntity
  8
OBJECT
100
AcDbLine
 10
3.495009112239273
 20
0.437044620550271
 30
0.0
 11
4.07495641081266
 21
0.437044620550271
 31
0.0
  0
LINE
  5
CE2
330
17
100
AcDbEntity
  8
OBJECT
100
AcDbLine
 10
3.773915017133347
 20
0.3618648878750719
 30
0.0
 11
3.86245662399655
 21
0.5033797026324259
 31
0.0
  0
LINE
  5
CE3
330
17
100
AcDbEntity
  8
OBJECT
100
AcDbLine
 10
3.605686068576602
 20
0.3618648878750719
 30
0.0
 11
3.694227675439805
 21
0.5033797026324259
 31
0.0
  0
LINE
  5
CEE
330
17
100
AcDbEntity
  8
DIM
 62
     1
100
AcDbLine
 10
4.371133927997185
 20
6.536807968240895
 30
0.0
 11
4.551133927997184
 21
6.536807968240895
 31
0.0
  0
LINE
  5
CEF
330
17
100
AcDbEntity
  8
DIM
 62
     1
100
AcDbLine
 10
4.461133927997185
 20
6.446807968240895
 30
0.0
 11
4.461133927997185
 21
6.626807968240894
 31
0.0
  0
LINE
  5
CF0
330
17
100
AcDbEntity
  8
DIM
 62
     1
100
AcDbLine
 10
7.087633927997183
 20
3.820307968240896
 30
0.0
 11
7.267633927997183
 21
3.820307968240896
 31
0.0
  0
LINE
  5
CF1
330
17
100
AcDbEntity
  8
DIM
 62
     1
100
AcDbLine
 10
7.177633927997183
 20
3.730307968240896
 30
0.0
 11
7.177633927997183
 21
3.910307968240895
 31
0.0
  0
TEXT
  5
D12
330
17
100
AcDbEntity
  8
FORM
100
AcDbText
 10
4.536379494491475
 20
0.7408350762239318
 30
0.0
 40
0.06
  1
ROCKWELL AUTOMATION AND MAY
 72
     1
 11
5.303522351634332
 21
0.7408350762239318
 31
0.0
100
AcDbText
  0
TEXT
  5
D13
330
17
100
AcDbEntity
  8
FORM
100
AcDbText
 10
4.673522351634332
 20
0.3522636476525029
 30
0.0
 40
0.06
  1
BY ROCKWELL AUTOMATION.
 72
     1
 11
5.303522351634332
 21
0.3522636476525029
 31
0.0
100
AcDbText
  0
MTEXT
  5
D22
330
17
100
AcDbEntity
  8
DIM
 62
     7
100
AcDbMText
 10
3.798686020378342
 20
3.051283364039961
 30
0.0
 40
0.125
 41
0.0
 71
     1
 72
     1
  1
2. UNLESS OTHERWISE SPECIFIED ALL\PDIMENSIONS ARE mm (INCHES)\PAND ARE FOR REFERENCE ONLY.
 73
     1
 44
1.0
  0
MTEXT
  5
D24
330
17
100
AcDbEntity
  8
DIM
 62
     7
100
AcDbMText
 10
3.387518287728079
 20
3.54486408911027
 30
0.0
 40
0.125
 41
0.0
 71
     1
 72
     1
  1
NOTES:
 73
     1
 44
1.0
  0
TEXT
  5
D25
330
17
100
AcDbEntity
  8
FORM
100
AcDbText
 10
9.294506914046444
 20
1.041900775029183
 30
0.0
 40
0.07
  1
CHELMSFORD, MA. 01824
100
AcDbText
  0
TEXT
  5
D26
330
17
100
AcDbEntity
  8
FORM
100
AcDbText
 10
9.418841673999887
 20
1.199271220002631
 30
0.0
 40
0.07
  1
2 EXECUTIVE DRIVE
100
AcDbText
  0
TEXT
  5
D27
330
17
100
AcDbEntity
  8
FORM
100
AcDbText
 10
9.266258142847716
 20
1.406147490675127
 30
0.0
 40
0.15
  1
AUTOMATION
100
AcDbText
  0
TEXT
  5
D28
330
17
100
AcDbEntity
  8
FORM
100
AcDbText
 10
9.266258142847716
 20
1.619433408912847
 30
0.0
 40
0.15
  1
ROCKWELL
100
AcDbText
  0
ENDSEC
  0
SECTION
  2
OBJECTS
  0
DICTIONARY
  5
C
330
0
100
AcDbDictionary
281
     1
  3
ACAD_COLOR
350
D59
  3
ACAD_GROUP
350
D
  3
ACAD_LAYOUT
350
D06
  3
ACAD_MATERIAL
350
D2F
  3
ACAD_MLEADERSTYLE
350
D7E
  3
ACAD_MLINESTYLE
350
1A
  3
ACAD_PLOTSETTINGS
350
D07
  3
ACAD_PLOTSTYLENAME
350
D04
  3
ACAD_SCALELIST
350
D5C
  3
ACAD_TABLESTYLE
350
D5A
  3
ACAD_VISUALSTYLE
350
D48
  3
ACDB_RECOMPOSE_DATA
350
D98
  3
ACDBVARIABLEDICTIONARY
350
2C
  0
DICTIONARY
  5
D83
330
E
100
AcDbDictionary
280
     1
281
     1
  3
ADSK_XREC_LAYER_RECONCILED
360
D84
  0
DICTIONARY
  5
D85
330
21
100
AcDbDictionary
280
     1
281
     1
  3
ADSK_XREC_LAYER_RECONCILED
360
D86
  0
DICTIONARY
  5
D87
330
22
100
AcDbDictionary
280
     1
281
     1
  3
ADSK_XREC_LAYER_RECONCILED
360
D88
  0
DICTIONARY
  5
D89
330
23
100
AcDbDictionary
280
     1
281
     1
  3
ADSK_XREC_LAYER_RECONCILED
360
D8A
  0
DICTIONARY
  5
D8B
330
24
100
AcDbDictionary
280
     1
281
     1
  3
ADSK_XREC_LAYER_RECONCILED
360
D8C
  0
DICTIONARY
  5
D8D
330
25
100
AcDbDictionary
280
     1
281
     1
  3
ADSK_XREC_LAYER_RECONCILED
360
D8E
  0
DICTIONARY
  5
D8F
330
26
100
AcDbDictionary
280
     1
281
     1
  3
ADSK_XREC_LAYER_RECONCILED
360
D90
  0
DICTIONARY
  5
D91
330
27
100
AcDbDictionary
280
     1
281
     1
  3
ADSK_XREC_LAYER_RECONCILED
360
D92
  0
DICTIONARY
  5
D59
102
{ACAD_REACTORS
330
C
102
}
330
C
100
AcDbDictionary
281
     1
  0
DICTIONARY
  5
D
102
{ACAD_REACTORS
330
C
102
}
330
C
100
AcDbDictionary
281
     1
  0
DICTIONARY
  5
D06
102
{ACAD_REACTORS
330
C
102
}
330
C
100
AcDbDictionary
281
     1
  3
Layout1
350
D09
  3
Model
350
D08
  0
DICTIONARY
  5
D2F
102
{ACAD_REACTORS
330
C
102
}
330
C
100
AcDbDictionary
281
     1
  3
ByBlock
350
D38
  3
ByLayer
350
D30
  3
Global
350
D40
  0
DICTIONARY
  5
D7E
102
{ACAD_REACTORS
330
C
102
}
330
C
100
AcDbDictionary
281
     1
  3
Standard
350
D7F
  0
DICTIONARY
  5
1A
102
{ACAD_REACTORS
330
C
102
}
330
C
100
AcDbDictionary
281
     1
  3
STANDARD
350
1B
  0
DICTIONARY
  5
D07
102
{ACAD_REACTORS
330
C
102
}
330
C
100
AcDbDictionary
281
     1
  0
ACDBDICTIONARYWDFLT
  5
D04
102
{ACAD_REACTORS
330
C
102
}
330
C
100
AcDbDictionary
281
     1
  3
Normal
350
D05
100
AcDbDictionaryWithDefault
340
D05
  0
DICTIONARY
  5
D5C
102
{ACAD_REACTORS
330
C
102
}
330
C
100
AcDbDictionary
281
     1
  3
A0
350
D5D
  3
A1
350
D5E
  3
A2
350
D5F
  3
A3
350
D60
  3
A4
350
D61
  3
A5
350
D62
  3
A6
350
D63
  3
A7
350
D64
  3
A8
350
D65
  3
A9
350
D66
  3
B0
350
D67
  3
B1
350
D68
  3
B2
350
D69
  3
B3
350
D6A
  3
B4
350
D6B
  3
B5
350
D6C
  3
B6
350
D6D
  3
B7
350
D6E
  3
B8
350
D6F
  3
B9
350
D70
  3
C0
350
D71
  3
C1
350
D72
  3
C2
350
D73
  3
C3
350
D74
  3
C4
350
D75
  3
C5
350
D76
  3
C6
350
D77
  3
C7
350
D78
  3
C8
350
D79
  3
C9
350
D7A
  3
D0
350
D7B
  3
D1
350
D7C
  3
D2
350
D7D
  0
DICTIONARY
  5
D5A
102
{ACAD_REACTORS
330
C
102
}
330
C
100
AcDbDictionary
281
     1
  3
Standard
350
D5B
  0
DICTIONARY
  5
D48
102
{ACAD_REACTORS
330
C
102
}
330
C
100
AcDbDictionary
281
     1
  3
2dWireframe
350
D4E
  3
3D Hidden
350
D50
  3
3dWireframe
350
D4F
  3
Basic
350
D4D
  3
Brighten
350
D54
  3
ColorChange
350
D58
  3
Conceptual
350
D51
  3
Dim
350
D53
  3
Facepattern
350
D57
  3
Flat
350
D49
  3
FlatWithEdges
350
D4A
  3
Gouraud
350
D4B
  3
GouraudWithEdges
350
D4C
  3
Linepattern
350
D56
  3
Realistic
350
D52
  3
Thicken
350
D55
  0
XRECORD
  5
D98
102
{ACAD_REACTORS
330
C
102
}
330
C
100
AcDbXrecord
280
     1
 90
        1
330
D5B
  0
DICTIONARY
  5
2C
102
{ACAD_REACTORS
330
C
102
}
330
C
100
AcDbDictionary
281
     1
  3
CANNOSCALE
350
D95
  3
CMLEADERSTYLE
350
D94
  3
CTABLESTYLE
350
D93
  3
DIMADEC
350
2D
  3
DIMASSOC
350
D2D
  3
SORTENTS
350
18C
  0
XRECORD
  5
D84
102
{ACAD_REACTORS
330
D83
102
}
330
D83
100
AcDbXrecord
280
     1
290
     1
  0
XRECORD
  5
D86
102
{ACAD_REACTORS
330
D85
102
}
330
D85
100
AcDbXrecord
280
     1
290
     1
  0
XRECORD
  5
D88
102
{ACAD_REACTORS
330
D87
102
}
330
D87
100
AcDbXrecord
280
     1
290
     1
  0
XRECORD
  5
D8A
102
{ACAD_REACTORS
330
D89
102
}
330
D89
100
AcDbXrecord
280
     1
290
     1
  0
XRECORD
  5
D8C
102
{ACAD_REACTORS
330
D8B
102
}
330
D8B
100
AcDbXrecord
280
     1
290
     1
  0
XRECORD
  5
D8E
102
{ACAD_REACTORS
330
D8D
102
}
330
D8D
100
AcDbXrecord
280
     1
290
     1
  0
XRECORD
  5
D90
102
{ACAD_REACTORS
330
D8F
102
}
330
D8F
100
AcDbXrecord
280
     1
290
     1
  0
XRECORD
  5
D92
102
{ACAD_REACTORS
330
D91
102
}
330
D91
100
AcDbXrecord
280
     1
290
     1
  0
LAYOUT
  5
D09
102
{ACAD_REACTORS
330
D06
102
}
330
D06
100
AcDbPlotSettings
  1

  2
Fax
  4

  6

 40
0.0
 41
0.0
 42
0.0
 43
0.0
 44
0.0
 45
0.0
 46
0.0
 47
0.0
 48
0.0
 49
0.0
140
0.0
141
0.0
142
1.0
143
1.0
 70
   688
 72
     0
 73
     0
 74
     5
  7
standard.ctb
 75
    16
147
1.0
 76
     0
 77
     2
 78
   300
148
0.0
149
0.0
100
AcDbLayout
  1
Layout1
 70
     0
 71
     1
 10
0.0
 20
0.0
 11
12.0
 21
9.0
 12
0.0
 22
0.0
 32
0.0
 14
1.000000000000000E+20
 24
1.000000000000000E+20
 34
1.000000000000000E+20
 15
-1.000000000000000E+20
 25
-1.000000000000000E+20
 35
-1.000000000000000E+20
146
0.0
 13
0.0
 23
0.0
 33
0.0
 16
1.0
 26
0.0
 36
0.0
 17
0.0
 27
1.0
 37
0.0
 76
     0
330
14
  0
LAYOUT
  5
D08
102
{ACAD_REACTORS
330
D06
102
}
330
D06
100
AcDbPlotSettings
  1

  2
\\PRINT\LJ4P
  4
Letter
  6

 40
7.143749713897705
 41
6.127734661102294
 42
7.14373779296875
 43
7.14373779296875
 44
215.8999938964844
 45
279.3999938964844
 46
0.0
 47
0.0
 48
0.0
 49
0.0
140
0.0
141
0.0
142
1.0
143
1.003119969975157
 70
 11952
 72
     0
 73
     1
 74
     1
  7
standard.ctb
 75
     0
147
0.9968897339614974
 76
     0
 77
     2
 78
   300
148
-6.343799486039062
149
-6.302135214607808
100
AcDbLayout
  1
Model
 70
     1
 71
     0
 10
0.0
 20
0.0
 11
12.0
 21
9.0
 12
0.0
 22
0.0
 32
0.0
 14
0.0
 24
0.0
 34
0.0
 15
0.0
 25
0.0
 35
0.0
146
0.0
 13
0.0
 23
0.0
 33
0.0
 16
1.0
 26
0.0
 36
0.0
 17
0.0
 27
1.0
 37
0.0
 76
     0
330
17
331
D2C
  0
MATERIAL
  5
D38
102
{ACAD_XDICTIONARY
360
D39
102
}
102
{ACAD_REACTORS
330
D2F
102
}
330
D2F
100
AcDbMaterial
  1
ByBlock
 72
     0
 43
0.0208333333333333
 43
0.0
 43
0.0
 43
0.0
 43
0.0
 43
0.0208333333333333
 43
0.0
 43
0.0
 43
0.0
 43
0.0
 43
1.0
 43
0.0
 43
0.0
 43
0.0
 43
0.0
 43
1.0
 77
     0
 47
0.0208333333333333
 47
0.0
 47
0.0
 47
0.0
 47
0.0
 47
0.0208333333333333
 47
0.0
 47
0.0
 47
0.0
 47
0.0
 47
1.0
 47
0.0
 47
0.0
 47
0.0
 47
0.0
 47
1.0
171
     0
 49
0.0208333333333333
 49
0.0
 49
0.0
 49
0.0
 49
0.0
 49
0.0208333333333333
 49
0.0
 49
0.0
 49
0.0
 49
0.0
 49
1.0
 49
0.0
 49
0.0
 49
0.0
 49
0.0
 49
1.0
175
     0
142
0.0208333333333333
142
0.0
142
0.0
142
0.0
142
0.0
142
0.0208333333333333
142
0.0
142
0.0
142
0.0
142
0.0
142
1.0
142
0.0
142
0.0
142
0.0
142
0.0
142
1.0
179
     0
144
0.0208333333333333
144
0.0
144
0.0
144
0.0
144
0.0
144
0.0208333333333333
144
0.0
144
0.0
144
0.0
144
0.0
144
1.0
144
0.0
144
0.0
144
0.0
144
0.0
144
1.0
147
0.0208333333333333
147
0.0
147
0.0
147
0.0
147
0.0
147
0.0208333333333333
147
0.0
147
0.0
147
0.0
147
0.0
147
1.0
147
0.0
147
0.0
147
0.0
147
0.0
147
1.0
  0
MATERIAL
  5
D30
102
{ACAD_XDICTIONARY
360
D31
102
}
102
{ACAD_REACTORS
330
D2F
102
}
330
D2F
100
AcDbMaterial
  1
ByLayer
 72
     0
 43
0.0208333333333333
 43
0.0
 43
0.0
 43
0.0
 43
0.0
 43
0.0208333333333333
 43
0.0
 43
0.0
 43
0.0
 43
0.0
 43
1.0
 43
0.0
 43
0.0
 43
0.0
 43
0.0
 43
1.0
 77
     0
 47
0.0208333333333333
 47
0.0
 47
0.0
 47
0.0
 47
0.0
 47
0.0208333333333333
 47
0.0
 47
0.0
 47
0.0
 47
0.0
 47
1.0
 47
0.0
 47
0.0
 47
0.0
 47
0.0
 47
1.0
171
     0
 49
0.0208333333333333
 49
0.0
 49
0.0
 49
0.0
 49
0.0
 49
0.0208333333333333
 49
0.0
 49
0.0
 49
0.0
 49
0.0
 49
1.0
 49
0.0
 49
0.0
 49
0.0
 49
0.0
 49
1.0
175
     0
142
0.0208333333333333
142
0.0
142
0.0
142
0.0
142
0.0
142
0.0208333333333333
142
0.0
142
0.0
142
0.0
142
0.0
142
1.0
142
0.0
142
0.0
142
0.0
142
0.0
142
1.0
179
     0
144
0.0208333333333333
144
0.0
144
0.0
144
0.0
144
0.0
144
0.0208333333333333
144
0.0
144
0.0
144
0.0
144
0.0
144
1.0
144
0.0
144
0.0
144
0.0
144
0.0
144
1.0
147
0.0208333333333333
147
0.0
147
0.0
147
0.0
147
0.0
147
0.0208333333333333
147
0.0
147
0.0
147
0.0
147
0.0
147
1.0
147
0.0
147
0.0
147
0.0
147
0.0
147
1.0
  0
MATERIAL
  5
D40
102
{ACAD_XDICTIONARY
360
D41
102
}
102
{ACAD_REACTORS
330
D2F
102
}
330
D2F
100
AcDbMaterial
  1
Global
 72
     0
 43
0.0208333333333333
 43
0.0
 43
0.0
 43
0.0
 43
0.0
 43
0.0208333333333333
 43
0.0
 43
0.0
 43
0.0
 43
0.0
 43
1.0
 43
0.0
 43
0.0
 43
0.0
 43
0.0
 43
1.0
 77
     0
 47
0.0208333333333333
 47
0.0
 47
0.0
 47
0.0
 47
0.0
 47
0.0208333333333333
 47
0.0
 47
0.0
 47
0.0
 47
0.0
 47
1.0
 47
0.0
 47
0.0
 47
0.0
 47
0.0
 47
1.0
171
     0
 49
0.0208333333333333
 49
0.0
 49
0.0
 49
0.0
 49
0.0
 49
0.0208333333333333
 49
0.0
 49
0.0
 49
0.0
 49
0.0
 49
1.0
 49
0.0
 49
0.0
 49
0.0
 49
0.0
 49
1.0
175
     0
142
0.0208333333333333
142
0.0
142
0.0
142
0.0
142
0.0
142
0.0208333333333333
142
0.0
142
0.0
142
0.0
142
0.0
142
1.0
142
0.0
142
0.0
142
0.0
142
0.0
142
1.0
179
     0
144
0.0208333333333333
144
0.0
144
0.0
144
0.0
144
0.0
144
0.0208333333333333
144
0.0
144
0.0
144
0.0
144
0.0
144
1.0
144
0.0
144
0.0
144
0.0
144
0.0
144
1.0
147
0.0208333333333333
147
0.0
147
0.0
147
0.0
147
0.0
147
0.0208333333333333
147
0.0
147
0.0
147
0.0
147
0.0
147
1.0
147
0.0
147
0.0
147
0.0
147
0.0
147
1.0
  0
MLEADERSTYLE
  5
D7F
102
{ACAD_REACTORS
330
D7E
102
}
330
D7E
100
AcDbMLeaderStyle
170
     2
171
     1
172
     0
 90
        2
 40
0.0
 41
0.0
173
     1
 91
-1056964608
340
11
 92
       -2
290
     1
 42
0.09
291
     1
 43
0.36
  3
Standard
 44
0.18
300

342
F
174
     1
178
     6
175
     1
176
     0
 93
-1056964608
 45
0.18
292
     0
297
     0
 46
0.18
 94
-1056964608
 47
1.0
 49
1.0
140
1.0
293
     1
141
0.0
294
     1
177
     0
142
1.0
295
     0
296
     0
143
0.125
1001
ACAD_MLEADERVER
1070
     2
  0
MLINESTYLE
  5
1B
102
{ACAD_REACTORS
330
1A
102
}
330
1A
100
AcDbMlineStyle
  2
STANDARD
 70
     0
  3

 62
   256
 51
90.0
 52
90.0
 71
     2
 49
0.5
 62
   256
  6
BYLAYER
 49
-0.5
 62
   256
  6
BYLAYER
  0
ACDBPLACEHOLDER
  5
D05
102
{ACAD_REACTORS
330
D04
102
}
330
D04
  0
SCALE
  5
D5D
102
{ACAD_REACTORS
330
D5C
102
}
330
D5C
100
AcDbScale
 70
     0
300
1:1
140
1.0
141
1.0
290
     1
  0
SCALE
  5
D5E
102
{ACAD_REACTORS
330
D5C
102
}
330
D5C
100
AcDbScale
 70
     0
300
1:2
140
1.0
141
2.0
290
     0
  0
SCALE
  5
D5F
102
{ACAD_REACTORS
330
D5C
102
}
330
D5C
100
AcDbScale
 70
     0
300
1:4
140
1.0
141
4.0
290
     0
  0
SCALE
  5
D60
102
{ACAD_REACTORS
330
D5C
102
}
330
D5C
100
AcDbScale
 70
     0
300
1:5
140
1.0
141
5.0
290
     0
  0
SCALE
  5
D61
102
{ACAD_REACTORS
330
D5C
102
}
330
D5C
100
AcDbScale
 70
     0
300
1:8
140
1.0
141
8.0
290
     0
  0
SCALE
  5
D62
102
{ACAD_REACTORS
330
D5C
102
}
330
D5C
100
AcDbScale
 70
     0
300
1:10
140
1.0
141
10.0
290
     0
  0
SCALE
  5
D63
102
{ACAD_REACTORS
330
D5C
102
}
330
D5C
100
AcDbScale
 70
     0
300
1:16
140
1.0
141
16.0
290
     0
  0
SCALE
  5
D64
102
{ACAD_REACTORS
330
D5C
102
}
330
D5C
100
AcDbScale
 70
     0
300
1:20
140
1.0
141
20.0
290
     0
  0
SCALE
  5
D65
102
{ACAD_REACTORS
330
D5C
102
}
330
D5C
100
AcDbScale
 70
     0
300
1:30
140
1.0
141
30.0
290
     0
  0
SCALE
  5
D66
102
{ACAD_REACTORS
330
D5C
102
}
330
D5C
100
AcDbScale
 70
     0
300
1:40
140
1.0
141
40.0
290
     0
  0
SCALE
  5
D67
102
{ACAD_REACTORS
330
D5C
102
}
330
D5C
100
AcDbScale
 70
     0
300
1:50
140
1.0
141
50.0
290
     0
  0
SCALE
  5
D68
102
{ACAD_REACTORS
330
D5C
102
}
330
D5C
100
AcDbScale
 70
     0
300
1:100
140
1.0
141
100.0
290
     0
  0
SCALE
  5
D69
102
{ACAD_REACTORS
330
D5C
102
}
330
D5C
100
AcDbScale
 70
     0
300
2:1
140
2.0
141
1.0
290
     0
  0
SCALE
  5
D6A
102
{ACAD_REACTORS
330
D5C
102
}
330
D5C
100
AcDbScale
 70
     0
300
4:1
140
4.0
141
1.0
290
     0
  0
SCALE
  5
D6B
102
{ACAD_REACTORS
330
D5C
102
}
330
D5C
100
AcDbScale
 70
     0
300
8:1
140
8.0
141
1.0
290
     0
  0
SCALE
  5
D6C
102
{ACAD_REACTORS
330
D5C
102
}
330
D5C
100
AcDbScale
 70
     0
300
10:1
140
10.0
141
1.0
290
     0
  0
SCALE
  5
D6D
102
{ACAD_REACTORS
330
D5C
102
}
330
D5C
100
AcDbScale
 70
     0
300
100:1
140
100.0
141
1.0
290
     0
  0
SCALE
  5
D6E
102
{ACAD_REACTORS
330
D5C
102
}
330
D5C
100
AcDbScale
 70
     0
300
1/128" = 1'-0"
140
0.0078125
141
12.0
290
     0
  0
SCALE
  5
D6F
102
{ACAD_REACTORS
330
D5C
102
}
330
D5C
100
AcDbScale
 70
     0
300
1/64" = 1'-0"
140
0.015625
141
12.0
290
     0
  0
SCALE
  5
D70
102
{ACAD_REACTORS
330
D5C
102
}
330
D5C
100
AcDbScale
 70
     0
300
1/32" = 1'-0"
140
0.03125
141
12.0
290
     0
  0
SCALE
  5
D71
102
{ACAD_REACTORS
330
D5C
102
}
330
D5C
100
AcDbScale
 70
     0
300
1/16" = 1'-0"
140
0.0625
141
12.0
290
     0
  0
SCALE
  5
D72
102
{ACAD_REACTORS
330
D5C
102
}
330
D5C
100
AcDbScale
 70
     0
300
3/32" = 1'-0"
140
0.09375
141
12.0
290
     0
  0
SCALE
  5
D73
102
{ACAD_REACTORS
330
D5C
102
}
330
D5C
100
AcDbScale
 70
     0
300
1/8" = 1'-0"
140
0.125
141
12.0
290
     0
  0
SCALE
  5
D74
102
{ACAD_REACTORS
330
D5C
102
}
330
D5C
100
AcDbScale
 70
     0
300
3/16" = 1'-0"
140
0.1875
141
12.0
290
     0
  0
SCALE
  5
D75
102
{ACAD_REACTORS
330
D5C
102
}
330
D5C
100
AcDbScale
 70
     0
300
1/4" = 1'-0"
140
0.25
141
12.0
290
     0
  0
SCALE
  5
D76
102
{ACAD_REACTORS
330
D5C
102
}
330
D5C
100
AcDbScale
 70
     0
300
3/8" = 1'-0"
140
0.375
141
12.0
290
     0
  0
SCALE
  5
D77
102
{ACAD_REACTORS
330
D5C
102
}
330
D5C
100
AcDbScale
 70
     0
300
1/2" = 1'-0"
140
0.5
141
12.0
290
     0
  0
SCALE
  5
D78
102
{ACAD_REACTORS
330
D5C
102
}
330
D5C
100
AcDbScale
 70
     0
300
3/4" = 1'-0"
140
0.75
141
12.0
290
     0
  0
SCALE
  5
D79
102
{ACAD_REACTORS
330
D5C
102
}
330
D5C
100
AcDbScale
 70
     0
300
1" = 1'-0"
140
1.0
141
12.0
290
     0
  0
SCALE
  5
D7A
102
{ACAD_REACTORS
330
D5C
102
}
330
D5C
100
AcDbScale
 70
     0
300
1-1/2" = 1'-0"
140
1.5
141
12.0
290
     0
  0
SCALE
  5
D7B
102
{ACAD_REACTORS
330
D5C
102
}
330
D5C
100
AcDbScale
 70
     0
300
3" = 1'-0"
140
3.0
141
12.0
290
     0
  0
SCALE
  5
D7C
102
{ACAD_REACTORS
330
D5C
102
}
330
D5C
100
AcDbScale
 70
     0
300
6" = 1'-0"
140
6.0
141
12.0
290
     0
  0
SCALE
  5
D7D
102
{ACAD_REACTORS
330
D5C
102
}
330
D5C
100
AcDbScale
 70
     0
300
1'-0" = 1'-0"
140
12.0
141
12.0
290
     0
  0
TABLESTYLE
  5
D5B
102
{ACAD_XDICTIONARY
360
D96
102
}
102
{ACAD_REACTORS
330
D5A
102
}
330
D5A
100
AcDbTableStyle
  3
Standard
 70
     0
 71
     0
 40
0.06
 41
0.06
280
     0
281
     0
  7
STANDARD
140
0.18
170
     2
 62
     0
 63
     7
283
     0
274
    -2
284
     1
 64
     0
275
    -2
285
     1
 65
     0
276
    -2
286
     1
 66
     0
277
    -2
287
     1
 67
     0
278
    -2
288
     1
 68
     0
279
    -2
289
     1
 69
     0
  7
STANDARD
140
0.25
170
     5
 62
     0
 63
     7
283
     0
274
    -2
284
     1
 64
     0
275
    -2
285
     1
 65
     0
276
    -2
286
     1
 66
     0
277
    -2
287
     1
 67
     0
278
    -2
288
     1
 68
     0
279
    -2
289
     1
 69
     0
  7
STANDARD
140
0.18
170
     5
 62
     0
 63
     7
283
     0
274
    -2
284
     1
 64
     0
275
    -2
285
     1
 65
     0
276
    -2
286
     1
 66
     0
277
    -2
287
     1
 67
     0
278
    -2
288
     1
 68
     0
279
    -2
289
     1
 69
     0
  0
VISUALSTYLE
  5
D4E
102
{ACAD_REACTORS
330
D48
102
}
330
D48
100
AcDbVisualStyle
  2
2dWireframe
 70
     4
 71
     0
 72
     2
 73
     0
 90
        0
 40
-0.6
 41
-30.0
 62
     5
 63
     7
421
 16777215
 74
     1
 91
        4
 64
     7
 65
   257
 75
     1
175
     1
 42
1.0
 92
        0
 66
   257
 43
1.0
 76
     1
 77
     6
 78
     2
 67
     7
 79
     5
170
     0
171
     0
290
     0
174
     0
 93
        1
 44
0.0
173
     0
291
     0
 45
0.0
1001
ACAD
1000
AcDbSavedByObjectVersion
1070
     0
  0
VISUALSTYLE
  5
D50
102
{ACAD_REACTORS
330
D48
102
}
330
D48
100
AcDbVisualStyle
  2
3D Hidden
 70
     6
 71
     1
 72
     2
 73
     2
 90
        0
 40
-0.6
 41
-30.0
 62
     5
 63
     7
421
 16777215
 74
     2
 91
        2
 64
     7
 65
   257
 75
     2
175
     1
 42
40.0
 92
        0
 66
   257
 43
1.0
 76
     1
 77
     6
 78
     2
 67
     7
 79
     3
170
     0
171
     0
290
     0
174
     0
 93
        1
 44
0.0
173
     0
291
     0
 45
0.0
1001
ACAD
1000
AcDbSavedByObjectVersion
1070
     0
  0
VISUALSTYLE
  5
D4F
102
{ACAD_REACTORS
330
D48
102
}
330
D48
100
AcDbVisualStyle
  2
3dWireframe
 70
     5
 71
     0
 72
     2
 73
     0
 90
        0
 40
-0.6
 41
-30.0
 62
     5
 63
     7
421
 16777215
 74
     1
 91
        4
 64
     7
 65
   257
 75
     1
175
     1
 42
1.0
 92
        0
 66
   257
 43
1.0
 76
     1
 77
     6
 78
     2
 67
     7
 79
     5
170
     0
171
     0
290
     0
174
     0
 93
        1
 44
0.0
173
     0
291
     0
 45
0.0
1001
ACAD
1000
AcDbSavedByObjectVersion
1070
     0
  0
VISUALSTYLE
  5
D4D
102
{ACAD_REACTORS
330
D48
102
}
330
D48
100
AcDbVisualStyle
  2
Basic
 70
     7
 71
     1
 72
     0
 73
     1
 90
        0
 40
-0.6
 41
-30.0
 62
     5
 63
     7
421
 16777215
 74
     0
 91
        4
 64
     7
 65
   257
 75
     1
175
     1
 42
1.0
 92
        8
 66
     7
 43
1.0
 76
     1
 77
     6
 78
     2
 67
     7
 79
     5
170
     0
171
     0
290
     0
174
     0
 93
        1
 44
0.0
173
     0
291
     1
 45
0.0
1001
ACAD
1000
AcDbSavedByObjectVersion
1070
     0
  0
VISUALSTYLE
  5
D54
102
{ACAD_REACTORS
330
D48
102
}
330
D48
100
AcDbVisualStyle
  2
Brighten
 70
    12
 71
     2
 72
     2
 73
     0
 90
        0
 40
-0.6
 41
-30.0
 62
     5
 63
     7
421
 16777215
 74
     1
 91
        4
 64
     7
 65
   257
 75
     1
175
     1
 42
1.0
 92
        8
 66
     7
 43
1.0
 76
     1
 77
     6
 78
     2
 67
     7
 79
     5
170
     0
171
     0
290
     0
174
     0
 93
        1
 44
50.0
173
     0
291
     1
 45
0.0
1001
ACAD
1000
AcDbSavedByObjectVersion
1070
     0
  0
VISUALSTYLE
  5
D58
102
{ACAD_REACTORS
330
D48
102
}
330
D48
100
AcDbVisualStyle
  2
ColorChange
 70
    16
 71
     2
 72
     2
 73
     3
 90
        0
 40
-0.6
 41
-30.0
 62
     5
 63
     8
421
  8421504
 74
     1
 91
        4
 64
     7
 65
   257
 75
     1
175
     1
 42
1.0
 92
        8
 66
     8
424
  8421504
 43
1.0
 76
     1
 77
     6
 78
     2
 67
     7
 79
     5
170
     0
171
     0
290
     0
174
     0
 93
        1
 44
0.0
173
     0
291
     1
 45
0.0
1001
ACAD
1000
AcDbSavedByObjectVersion
1070
     0
  0
VISUALSTYLE
  5
D51
102
{ACAD_REACTORS
330
D48
102
}
330
D48
100
AcDbVisualStyle
  2
Conceptual
 70
     9
 71
     3
 72
     2
 73
     0
 90
        0
 40
-0.6
 41
-30.0
 62
     5
 63
     7
421
 16777215
 74
     2
 91
        2
 64
     7
 65
   257
 75
     1
175
     1
 42
40.0
 92
        8
 66
     7
 43
1.0
 76
     1
 77
     6
 78
     2
 67
     7
 79
     3
170
     0
171
     0
290
     0
174
     0
 93
        1
 44
0.0
173
     0
291
     0
 45
0.0
1001
ACAD
1000
AcDbSavedByObjectVersion
1070
     0
  0
VISUALSTYLE
  5
D53
102
{ACAD_REACTORS
330
D48
102
}
330
D48
100
AcDbVisualStyle
  2
Dim
 70
    11
 71
     2
 72
     2
 73
     0
 90
        0
 40
-0.6
 41
-30.0
 62
     5
 63
     7
421
 16777215
 74
     1
 91
        4
 64
     7
 65
   257
 75
     1
175
     1
 42
1.0
 92
        8
 66
     7
 43
1.0
 76
     1
 77
     6
 78
     2
 67
     7
 79
     5
170
     0
171
     0
290
     0
174
     0
 93
        1
 44
-50.0
173
     0
291
     1
 45
0.0
1001
ACAD
1000
AcDbSavedByObjectVersion
1070
     0
  0
VISUALSTYLE
  5
D57
102
{ACAD_REACTORS
330
D48
102
}
330
D48
100
AcDbVisualStyle
  2
Facepattern
 70
    15
 71
     2
 72
     2
 73
     0
 90
        0
 40
-0.6
 41
-30.0
 62
     5
 63
     7
421
 16777215
 74
     1
 91
        4
 64
     7
 65
   257
 75
     1
175
     1
 42
1.0
 92
        8
 66
     7
 43
1.0
 76
     1
 77
     6
 78
     2
 67
     7
 79
     5
170
     0
171
     0
290
     0
174
     0
 93
        1
 44
0.0
173
     0
291
     1
 45
0.0
1001
ACAD
1000
AcDbSavedByObjectVersion
1070
     0
  0
VISUALSTYLE
  5
D49
102
{ACAD_REACTORS
330
D48
102
}
330
D48
100
AcDbVisualStyle
  2
Flat
 70
     0
 71
     2
 72
     1
 73
     1
 90
        2
 40
-0.6
 41
30.0
 62
     5
 63
     7
421
 16777215
 74
     0
 91
        4
 64
     7
 65
   257
 75
     1
175
     1
 42
1.0
 92
        8
 66
     7
 43
1.0
 76
     1
 77
     6
 78
     2
 67
     7
 79
     5
170
     0
171
     0
290
     0
174
     0
 93
       13
 44
0.0
173
     0
291
     1
 45
0.0
1001
ACAD
1000
AcDbSavedByObjectVersion
1070
     0
  0
VISUALSTYLE
  5
D4A
102
{ACAD_REACTORS
330
D48
102
}
330
D48
100
AcDbVisualStyle
  2
FlatWithEdges
 70
     1
 71
     2
 72
     1
 73
     1
 90
        2
 40
-0.6
 41
30.0
 62
     5
 63
     7
421
 16777215
 74
     1
 91
        4
 64
     7
 65
   257
 75
     1
175
     1
 42
1.0
 92
        0
 66
   257
 43
1.0
 76
     1
 77
     6
 78
     2
 67
     7
 79
     5
170
     0
171
     0
290
     0
174
     0
 93
       13
 44
0.0
173
     0
291
     1
 45
0.0
1001
ACAD
1000
AcDbSavedByObjectVersion
1070
     0
  0
VISUALSTYLE
  5
D4B
102
{ACAD_REACTORS
330
D48
102
}
330
D48
100
AcDbVisualStyle
  2
Gouraud
 70
     2
 71
     2
 72
     2
 73
     1
 90
        2
 40
-0.6
 41
30.0
 62
     5
 63
     7
421
 16777215
 74
     0
 91
        4
 64
     7
 65
   257
 75
     1
175
     1
 42
1.0
 92
        0
 66
     7
 43
1.0
 76
     1
 77
     6
 78
     2
 67
     7
 79
     5
170
     0
171
     0
290
     0
174
     0
 93
       13
 44
0.0
173
     0
291
     1
 45
0.0
1001
ACAD
1000
AcDbSavedByObjectVersion
1070
     0
  0
VISUALSTYLE
  5
D4C
102
{ACAD_REACTORS
330
D48
102
}
330
D48
100
AcDbVisualStyle
  2
GouraudWithEdges
 70
     3
 71
     2
 72
     2
 73
     1
 90
        2
 40
-0.6
 41
30.0
 62
     5
 63
     7
421
 16777215
 74
     1
 91
        4
 64
     7
 65
   257
 75
     1
175
     1
 42
1.0
 92
        0
 66
   257
 43
1.0
 76
     1
 77
     6
 78
     2
 67
     7
 79
     5
170
     0
171
     0
290
     0
174
     0
 93
       13
 44
0.0
173
     0
291
     1
 45
0.0
1001
ACAD
1000
AcDbSavedByObjectVersion
1070
     0
  0
VISUALSTYLE
  5
D56
102
{ACAD_REACTORS
330
D48
102
}
330
D48
100
AcDbVisualStyle
  2
Linepattern
 70
    14
 71
     2
 72
     2
 73
     0
 90
        0
 40
-0.6
 41
-30.0
 62
     5
 63
     7
421
 16777215
 74
     1
 91
        4
 64
     7
 65
   257
 75
     7
175
     7
 42
1.0
 92
        8
 66
     7
 43
1.0
 76
     1
 77
     6
 78
     2
 67
     7
 79
     5
170
     0
171
     0
290
     0
174
     0
 93
        1
 44
0.0
173
     0
291
     1
 45
0.0
1001
ACAD
1000
AcDbSavedByObjectVersion
1070
     0
  0
VISUALSTYLE
  5
D52
102
{ACAD_REACTORS
330
D48
102
}
330
D48
100
AcDbVisualStyle
  2
Realistic
 70
     8
 71
     2
 72
     2
 73
     0
 90
        0
 40
-0.6
 41
-30.0
 62
     5
 63
     7
421
 16777215
 74
     1
 91
        0
 64
     7
 65
   257
 75
     1
175
     1
 42
1.0
 92
        8
 66
     8
424
  7895160
 43
1.0
 76
     1
 77
     6
 78
     2
 67
     7
 79
     5
170
     0
171
     0
290
     0
174
     0
 93
       13
 44
0.0
173
     0
291
     0
 45
0.0
1001
ACAD
1000
AcDbSavedByObjectVersion
1070
     0
  0
VISUALSTYLE
  5
D55
102
{ACAD_REACTORS
330
D48
102
}
330
D48
100
AcDbVisualStyle
  2
Thicken
 70
    13
 71
     2
 72
     2
 73
     0
 90
        0
 40
-0.6
 41
-30.0
 62
     5
 63
     7
421
 16777215
 74
     1
 91
        4
 64
     7
 65
   257
 75
     1
175
     1
 42
1.0
 92
       12
 66
     7
 43
1.0
 76
     1
 77
     6
 78
     2
 67
     7
 79
     5
170
     0
171
     0
290
     0
174
     0
 93
        1
 44
0.0
173
     0
291
     1
 45
0.0
1001
ACAD
1000
AcDbSavedByObjectVersion
1070
     0
  0
DICTIONARYVAR
  5
D95
102
{ACAD_REACTORS
330
2C
102
}
330
2C
100
DictionaryVariables
280
     0
  1
1:1
  0
DICTIONARYVAR
  5
D94
102
{ACAD_REACTORS
330
2C
102
}
330
2C
100
DictionaryVariables
280
     0
  1
STANDARD
  0
DICTIONARYVAR
  5
D93
102
{ACAD_REACTORS
330
2C
102
}
330
2C
100
DictionaryVariables
280
     0
  1
STANDARD
  0
DICTIONARYVAR
  5
2D
102
{ACAD_REACTORS
330
2C
102
}
330
2C
100
DictionaryVariables
280
     0
  1
0
  0
DICTIONARYVAR
  5
D2D
102
{ACAD_REACTORS
330
2C
102
}
330
2C
100
DictionaryVariables
280
     0
  1
0
  0
DICTIONARYVAR
  5
18C
102
{ACAD_REACTORS
330
2C
102
}
330
2C
100
DictionaryVariables
280
     0
  1
96
  0
DICTIONARY
  5
D39
330
D38
100
AcDbDictionary
280
     1
281
     1
  3
ACAD_XREC_ROUNDTRIP
360
D9A
  3
BUMPTILE
360
D3B
  3
DIFFUSETILE
360
D3A
  3
OPACITYTILE
360
D3E
  3
REFLECTIONTILE
360
D3D
  3
REFRACTIONTILE
360
D3F
  3
SPECULARTILE
360
D3C
  0
DICTIONARY
  5
D31
330
D30
100
AcDbDictionary
280
     1
281
     1
  3
ACAD_XREC_ROUNDTRIP
360
D99
  3
BUMPTILE
360
D33
  3
DIFFUSETILE
360
D32
  3
OPACITYTILE
360
D36
  3
REFLECTIONTILE
360
D35
  3
REFRACTIONTILE
360
D37
  3
SPECULARTILE
360
D34
  0
DICTIONARY
  5
D41
330
D40
100
AcDbDictionary
280
     1
281
     1
  3
ACAD_XREC_ROUNDTRIP
360
D9B
  3
BUMPTILE
360
D43
  3
DIFFUSETILE
360
D42
  3
OPACITYTILE
360
D46
  3
REFLECTIONTILE
360
D45
  3
REFRACTIONTILE
360
D47
  3
SPECULARTILE
360
D44
  0
DICTIONARY
  5
D96
330
D5B
100
AcDbDictionary
280
     1
281
     1
  3
ACAD_ROUNDTRIP_2008_TABLESTYLE_CELLSTYLEMAP
360
D97
  3
ACAD_XREC_ROUNDTRIP
360
D9C
  0
XRECORD
  5
D9A
102
{ACAD_REACTORS
330
D39
102
}
330
D39
100
AcDbXrecord
280
     1
102
MATERIAL
148
0.0
149
0.0
149
0.0
 93
        0
 94
      127
282
     0
 72
     0
 77
     0
171
     0
175
     0
179
     0
273
     0
  0
XRECORD
  5
D3B
102
{ACAD_REACTORS
330
D39
102
}
330
D39
100
AcDbXrecord
280
     1
270
     1
271
     1
  0
XRECORD
  5
D3A
102
{ACAD_REACTORS
330
D39
102
}
330
D39
100
AcDbXrecord
280
     1
270
     1
271
     1
  0
XRECORD
  5
D3E
102
{ACAD_REACTORS
330
D39
102
}
330
D39
100
AcDbXrecord
280
     1
270
     1
271
     1
  0
XRECORD
  5
D3D
102
{ACAD_REACTORS
330
D39
102
}
330
D39
100
AcDbXrecord
280
     1
270
     1
271
     1
  0
XRECORD
  5
D3F
102
{ACAD_REACTORS
330
D39
102
}
330
D39
100
AcDbXrecord
280
     1
270
     1
271
     1
  0
XRECORD
  5
D3C
102
{ACAD_REACTORS
330
D39
102
}
330
D39
100
AcDbXrecord
280
     1
270
     1
271
     1
  0
XRECORD
  5
D99
102
{ACAD_REACTORS
330
D31
102
}
330
D31
100
AcDbXrecord
280
     1
102
MATERIAL
148
0.0
149
0.0
149
0.0
 93
        0
 94
      127
282
     0
 72
     0
 77
     0
171
     0
175
     0
179
     0
273
     0
  0
XRECORD
  5
D33
102
{ACAD_REACTORS
330
D31
102
}
330
D31
100
AcDbXrecord
280
     1
270
     1
271
     1
  0
XRECORD
  5
D32
102
{ACAD_REACTORS
330
D31
102
}
330
D31
100
AcDbXrecord
280
     1
270
     1
271
     1
  0
XRECORD
  5
D36
102
{ACAD_REACTORS
330
D31
102
}
330
D31
100
AcDbXrecord
280
     1
270
     1
271
     1
  0
XRECORD
  5
D35
102
{ACAD_REACTORS
330
D31
102
}
330
D31
100
AcDbXrecord
280
     1
270
     1
271
     1
  0
XRECORD
  5
D37
102
{ACAD_REACTORS
330
D31
102
}
330
D31
100
AcDbXrecord
280
     1
270
     1
271
     1
  0
XRECORD
  5
D34
102
{ACAD_REACTORS
330
D31
102
}
330
D31
100
AcDbXrecord
280
     1
270
     1
271
     1
  0
XRECORD
  5
D9B
102
{ACAD_REACTORS
330
D41
102
}
330
D41
100
AcDbXrecord
280
     1
102
MATERIAL
148
0.0
149
0.0
149
0.0
 93
        0
 94
      127
282
     0
 72
     0
 77
     0
171
     0
175
     0
179
     0
273
     0
  0
XRECORD
  5
D43
102
{ACAD_REACTORS
330
D41
102
}
330
D41
100
AcDbXrecord
280
     1
270
     1
271
     1
  0
XRECORD
  5
D42
102
{ACAD_REACTORS
330
D41
102
}
330
D41
100
AcDbXrecord
280
     1
270
     1
271
     1
  0
XRECORD
  5
D46
102
{ACAD_REACTORS
330
D41
102
}
330
D41
100
AcDbXrecord
280
     1
270
     1
271
     1
  0
XRECORD
  5
D45
102
{ACAD_REACTORS
330
D41
102
}
330
D41
100
AcDbXrecord
280
     1
270
     1
271
     1
  0
XRECORD
  5
D47
102
{ACAD_REACTORS
330
D41
102
}
330
D41
100
AcDbXrecord
280
     1
270
     1
271
     1
  0
XRECORD
  5
D44
102
{ACAD_REACTORS
330
D41
102
}
330
D41
100
AcDbXrecord
280
     1
270
     1
271
     1
  0
CELLSTYLEMAP
  5
D97
102
{ACAD_REACTORS
330
D96
102
}
330
D96
100
AcDbCellStyleMap
 90
        3
300
CELLSTYLE
  1
TABLEFORMAT_BEGIN
 90
        5
170
     1
 91
        0
 92
    32768
 62
   257
 93
        1
300
CONTENTFORMAT
  1
CONTENTFORMAT_BEGIN
 90
        0
 91
        0
 92
      512
 93
        0
300

 40
0.0
140
1.0
 94
        5
 62
     0
340
F
144
0.25
309
CONTENTFORMAT_END
171
     0
 94
        0
309
TABLEFORMAT_END
  1
CELLSTYLE_BEGIN
 90
        1
 91
        1
300
_TITLE
309
CELLSTYLE_END
300
CELLSTYLE
  1
TABLEFORMAT_BEGIN
 90
        5
170
     1
 91
        0
 92
        0
 62
   257
 93
        1
300
CONTENTFORMAT
  1
CONTENTFORMAT_BEGIN
 90
        0
 91
        0
 92
      512
 93
        0
300

 40
0.0
140
1.0
 94
        5
 62
     0
340
F
144
0.18
309
CONTENTFORMAT_END
171
     0
 94
        0
309
TABLEFORMAT_END
  1
CELLSTYLE_BEGIN
 90
        2
 91
        1
300
_HEADER
309
CELLSTYLE_END
300
CELLSTYLE
  1
TABLEFORMAT_BEGIN
 90
        5
170
     1
 91
        0
 92
        0
 62
   257
 93
        1
300
CONTENTFORMAT
  1
CONTENTFORMAT_BEGIN
 90
        0
 91
        0
 92
      512
 93
        0
300

 40
0.0
140
1.0
 94
        2
 62
     0
340
F
144
0.18
309
CONTENTFORMAT_END
171
     0
 94
        0
309
TABLEFORMAT_END
  1
CELLSTYLE_BEGIN
 90
        3
 91
        2
300
_DATA
309
CELLSTYLE_END
  0
XRECORD
  5
D9C
102
{ACAD_REACTORS
330
D96
102
}
330
D96
100
AcDbXrecord
280
     1
102
ACAD_ROUNDTRIP_PRE2007_TABLESTYLE
 90
      512
 91
        0
  1

 92
      512
 93
        0
  2

 94
      512
 95
        0
  3

  0
ENDSEC
  0
EOF
