  0
SECTION
  2
HEADER
  9
$ACADVER
  1
AC1018
  9
$ACADMAINTVER
 70
   104
  9
$DWGCODEPAGE
  3
ANSI_1252
  9
$LASTSAVEDBY
  1
aereyes
  9
$INSBASE
 10
0.0
 20
0.0
 30
0.0
  9
$EXTMIN
 10
0.25
 20
0.2483302711109045
 30
0.0
  9
$EXTMAX
 10
10.71
 20
8.210016413185645
 30
0.0
  9
$LIMMIN
 10
0.0
 20
0.0
  9
$LIMMAX
 10
11.0
 20
8.5
  9
$ORTHOMODE
 70
     0
  9
$REGENMODE
 70
     1
  9
$FILLMODE
 70
     1
  9
$QTEXTMODE
 70
     0
  9
$MIRRTEXT
 70
     1
  9
$LTSCALE
 40
0.25
  9
$ATTMODE
 70
     1
  9
$TEXTSIZE
 40
0.12
  9
$TRACEWID
 40
0.05
  9
$TEXTSTYLE
  7
STANDARD
  9
$CLAYER
  8
OBJECT
  9
$CELTYPE
  6
BYLAYER
  9
$CECOLOR
 62
   256
  9
$CELTSCALE
 40
1.0
  9
$DISPSILH
 70
     0
  9
$DIMSCALE
 40
0.0
  9
$DIMASZ
 40
0.18
  9
$DIMEXO
 40
0.0625
  9
$DIMDLI
 40
0.38
  9
$DIMRND
 40
0.0
  9
$DIMDLE
 40
0.0
  9
$DIMEXE
 40
0.18
  9
$DIMTP
 40
0.0
  9
$DIMTM
 40
0.0
  9
$DIMTXT
 40
0.125
  9
$DIMCEN
 40
0.09
  9
$DIMTSZ
 40
0.0
  9
$DIMTOL
 70
     0
  9
$DIMLIM
 70
     0
  9
$DIMTIH
 70
     1
  9
$DIMTOH
 70
     1
  9
$DIMSE1
 70
     0
  9
$DIMSE2
 70
     0
  9
$DIMTAD
 70
     0
  9
$DIMZIN
 70
     0
  9
$DIMBLK
  1

  9
$DIMASO
 70
     0
  9
$DIMSHO
 70
     1
  9
$DIMPOST
  1

  9
$DIMAPOST
  1

  9
$DIMALT
 70
     0
  9
$DIMALTD
 70
     2
  9
$DIMALTF
 40
25.4
  9
$DIMLFAC
 40
1.0
  9
$DIMTOFL
 70
     0
  9
$DIMTVP
 40
0.0
  9
$DIMTIX
 70
     0
  9
$DIMSOXD
 70
     0
  9
$DIMSAH
 70
     0
  9
$DIMBLK1
  1

  9
$DIMBLK2
  1

  9
$DIMSTYLE
  2
STANDARD
  9
$DIMCLRD
 70
     1
  9
$DIMCLRE
 70
     1
  9
$DIMCLRT
 70
     7
  9
$DIMTFAC
 40
1.0
  9
$DIMGAP
 40
0.09
  9
$DIMJUST
 70
     0
  9
$DIMSD1
 70
     0
  9
$DIMSD2
 70
     0
  9
$DIMTOLJ
 70
     1
  9
$DIMTZIN
 70
     0
  9
$DIMALTZ
 70
     0
  9
$DIMALTTZ
 70
     0
  9
$DIMUPT
 70
     0
  9
$DIMDEC
 70
     4
  9
$DIMTDEC
 70
     4
  9
$DIMALTU
 70
     2
  9
$DIMALTTD
 70
     2
  9
$DIMTXSTY
  7
STANDARD
  9
$DIMAUNIT
 70
     0
  9
$DIMADEC
 70
     0
  9
$DIMALTRND
 40
0.0
  9
$DIMAZIN
 70
     0
  9
$DIMDSEP
 70
    46
  9
$DIMATFIT
 70
     3
  9
$DIMFRAC
 70
     0
  9
$DIMLDRBLK
  1

  9
$DIMLUNIT
 70
     2
  9
$DIMLWD
 70
    -2
  9
$DIMLWE
 70
    -2
  9
$DIMTMOVE
 70
     0
  9
$LUNITS
 70
     2
  9
$LUPREC
 70
     4
  9
$SKETCHINC
 40
0.1
  9
$FILLETRAD
 40
0.0
  9
$AUNITS
 70
     0
  9
$AUPREC
 70
     0
  9
$MENU
  1
acad
  9
$ELEVATION
 40
0.0
  9
$PELEVATION
 40
0.0
  9
$THICKNESS
 40
0.0
  9
$LIMCHECK
 70
     0
  9
$CHAMFERA
 40
0.0
  9
$CHAMFERB
 40
0.0
  9
$CHAMFERC
 40
0.0
  9
$CHAMFERD
 40
0.0
  9
$SKPOLY
 70
     0
  9
$TDCREATE
 40
2450156.494675000
  9
$TDUCREATE
 40
2450156.703008333
  9
$TDUPDATE
 40
2454821.739740012
  9
$TDUUPDATE
 40
2454821.948073345
  9
$TDINDWG
 40
0.2850566551
  9
$TDUSRTIMER
 40
0.2850566551
  9
$USRTIMER
 70
     1
  9
$ANGBASE
 50
0.0
  9
$ANGDIR
 70
     0
  9
$PDMODE
 70
     0
  9
$PDSIZE
 40
0.0
  9
$PLINEWID
 40
0.0
  9
$SPLFRAME
 70
     0
  9
$SPLINETYPE
 70
     6
  9
$SPLINESEGS
 70
     8
  9
$HANDSEED
  5
CDC
  9
$SURFTAB1
 70
     6
  9
$SURFTAB2
 70
     6
  9
$SURFTYPE
 70
     6
  9
$SURFU
 70
     6
  9
$SURFV
 70
     6
  9
$UCSBASE
  2

  9
$UCSNAME
  2

  9
$UCSORG
 10
0.0
 20
0.0
 30
0.0
  9
$UCSXDIR
 10
1.0
 20
0.0
 30
0.0
  9
$UCSYDIR
 10
0.0
 20
1.0
 30
0.0
  9
$UCSORTHOREF
  2

  9
$UCSORTHOVIEW
 70
     0
  9
$UCSORGTOP
 10
0.0
 20
0.0
 30
0.0
  9
$UCSORGBOTTOM
 10
0.0
 20
0.0
 30
0.0
  9
$UCSORGLEFT
 10
0.0
 20
0.0
 30
0.0
  9
$UCSORGRIGHT
 10
0.0
 20
0.0
 30
0.0
  9
$UCSORGFRONT
 10
0.0
 20
0.0
 30
0.0
  9
$UCSORGBACK
 10
0.0
 20
0.0
 30
0.0
  9
$PUCSBASE
  2

  9
$PUCSNAME
  2

  9
$PUCSORG
 10
0.0
 20
0.0
 30
0.0
  9
$PUCSXDIR
 10
1.0
 20
0.0
 30
0.0
  9
$PUCSYDIR
 10
0.0
 20
1.0
 30
0.0
  9
$PUCSORTHOREF
  2

  9
$PUCSORTHOVIEW
 70
     0
  9
$PUCSORGTOP
 10
0.0
 20
0.0
 30
0.0
  9
$PUCSORGBOTTOM
 10
0.0
 20
0.0
 30
0.0
  9
$PUCSORGLEFT
 10
0.0
 20
0.0
 30
0.0
  9
$PUCSORGRIGHT
 10
0.0
 20
0.0
 30
0.0
  9
$PUCSORGFRONT
 10
0.0
 20
0.0
 30
0.0
  9
$PUCSORGBACK
 10
0.0
 20
0.0
 30
0.0
  9
$USERI1
 70
     0
  9
$USERI2
 70
     0
  9
$USERI3
 70
     0
  9
$USERI4
 70
     0
  9
$USERI5
 70
     0
  9
$USERR1
 40
0.0
  9
$USERR2
 40
0.0
  9
$USERR3
 40
0.0
  9
$USERR4
 40
0.0
  9
$USERR5
 40
0.0
  9
$WORLDVIEW
 70
     1
  9
$SHADEDGE
 70
     3
  9
$SHADEDIF
 70
    70
  9
$TILEMODE
 70
     1
  9
$MAXACTVP
 70
    16
  9
$PINSBASE
 10
0.0
 20
0.0
 30
0.0
  9
$PLIMCHECK
 70
     0
  9
$PEXTMIN
 10
1.000000000000000E+20
 20
1.000000000000000E+20
 30
1.000000000000000E+20
  9
$PEXTMAX
 10
-1.000000000000000E+20
 20
-1.000000000000000E+20
 30
-1.000000000000000E+20
  9
$PLIMMIN
 10
0.0
 20
0.0
  9
$PLIMMAX
 10
12.0
 20
9.0
  9
$UNITMODE
 70
     0
  9
$VISRETAIN
 70
     0
  9
$PLINEGEN
 70
     0
  9
$PSLTSCALE
 70
     0
  9
$TREEDEPTH
 70
  3020
  9
$CMLSTYLE
  2
STANDARD
  9
$CMLJUST
 70
     0
  9
$CMLSCALE
 40
1.0
  9
$PROXYGRAPHICS
 70
     1
  9
$MEASUREMENT
 70
     0
  9
$CELWEIGHT
370
    -1
  9
$ENDCAPS
280
     0
  9
$JOINSTYLE
280
     0
  9
$LWDISPLAY
290
     0
  9
$INSUNITS
 70
     0
  9
$HYPERLINKBASE
  1

  9
$STYLESHEET
  1
standard.ctb
  9
$XEDIT
290
     1
  9
$CEPSNTYPE
380
     0
  9
$PSTYLEMODE
290
     1
  9
$FINGERPRINTGUID
  2
{1023E565-FB7D-48E1-AB85-C08DF9347934}
  9
$VERSIONGUID
  2
{19AB1DB2-B4F8-427E-A816-DB9329390E1A}
  9
$EXTNAMES
290
     1
  9
$PSVPSCALE
 40
0.0
  9
$OLESTARTUP
290
     0
  9
$SORTENTS
280
    96
  9
$INDEXCTL
280
     0
  9
$HIDETEXT
280
     0
  9
$XCLIPFRAME
290
     0
  9
$HALOGAP
280
     0
  9
$OBSCOLOR
 70
   257
  9
$OBSLTYPE
280
     0
  9
$INTERSECTIONDISPLAY
280
     0
  9
$INTERSECTIONCOLOR
 70
   257
  9
$DIMASSOC
280
     0
  9
$PROJECTNAME
  1

  0
ENDSEC
  0
SECTION
  2
CLASSES
  0
CLASS
  1
DICTIONARYVAR
  2
AcDbDictionaryVar
  3
ObjectDBX Classes
 90
        0
 91
       11
280
     0
281
     0
  0
CLASS
  1
ACDBDICTIONARYWDFLT
  2
AcDbDictionaryWithDefault
  3
ObjectDBX Classes
 90
        0
 91
        1
280
     0
281
     0
  0
CLASS
  1
MATERIAL
  2
AcDbMaterial
  3
ObjectDBX Classes
 90
     1153
 91
        3
280
     0
281
     0
  0
CLASS
  1
VISUALSTYLE
  2
AcDbVisualStyle
  3
ObjectDBX Classes
 90
     4095
 91
       16
280
     0
281
     0
  0
CLASS
  1
TABLESTYLE
  2
AcDbTableStyle
  3
ObjectDBX Classes
 90
     4095
 91
        1
280
     0
281
     0
  0
CLASS
  1
SCALE
  2
AcDbScale
  3
ObjectDBX Classes
 90
     1153
 91
       33
280
     0
281
     0
  0
CLASS
  1
MLEADERSTYLE
  2
AcDbMLeaderStyle
  3
ACDB_MLEADERSTYLE_CLASS
 90
     4095
 91
        1
280
     0
281
     0
  0
CLASS
  1
CELLSTYLEMAP
  2
AcDbCellStyleMap
  3
ObjectDBX Classes
 90
     1152
 91
        2
280
     0
281
     0
  0
ENDSEC
  0
SECTION
  2
TABLES
  0
TABLE
  2
VPORT
  5
8
330
0
100
AcDbSymbolTable
 70
     1
  0
VPORT
  5
C63
330
8
100
AcDbSymbolTableRecord
100
AcDbViewportTableRecord
  2
*Active
 70
     0
 10
0.0
 20
0.0
 11
1.0
 21
1.0
 12
11.63198207151701
 22
3.529756915891577
 13
0.0
 23
0.0
 14
0.062
 24
0.062
 15
0.25
 25
0.25
 16
0.0
 26
0.0
 36
1.0
 17
0.0
 27
0.0
 37
0.0
 40
14.13699827661123
 41
1.680522565320664
 42
50.0
 43
0.0
 44
0.0
 50
0.0
 51
0.0
 71
     0
 72
   500
 73
     1
 74
     0
 75
     0
 76
     0
 77
     0
 78
     0
281
     0
 65
     1
110
0.0
120
0.0
130
0.0
111
1.0
121
0.0
131
0.0
112
0.0
122
1.0
132
0.0
 79
     0
146
0.0
  0
ENDTAB
  0
TABLE
  2
LTYPE
  5
5
330
0
100
AcDbSymbolTable
 70
     3
  0
LTYPE
  5
11
330
5
100
AcDbSymbolTableRecord
100
AcDbLinetypeTableRecord
  2
BYBLOCK
 70
     0
  3

 72
    65
 73
     0
 40
0.0
  0
LTYPE
  5
12
330
5
100
AcDbSymbolTableRecord
100
AcDbLinetypeTableRecord
  2
BYLAYER
 70
     0
  3

 72
    65
 73
     0
 40
0.0
  0
LTYPE
  5
13
330
5
100
AcDbSymbolTableRecord
100
AcDbLinetypeTableRecord
  2
CONTINUOUS
 70
     0
  3
Solid line
 72
    65
 73
     0
 40
0.0
  0
LTYPE
  5
1D
330
5
100
AcDbSymbolTableRecord
100
AcDbLinetypeTableRecord
  2
CENTER
 70
     0
  3
____ _ ____ _ ____ _ ____ _ ____ _ ____ _ ____ 
 72
    65
 73
     4
 40
2.0
 49
1.25
 74
     0
 49
-0.25
 74
     0
 49
0.25
 74
     0
 49
-0.25
 74
     0
  0
LTYPE
  5
1E
330
5
100
AcDbSymbolTableRecord
100
AcDbLinetypeTableRecord
  2
HIDDEN
 70
     0
  3
__ __ __ __ __ __ __ __ __ __ __ __ __ __ __ __
 72
    65
 73
     2
 40
0.375
 49
0.25
 74
     0
 49
-0.125
 74
     0
  0
ENDTAB
  0
TABLE
  2
LAYER
  5
2
330
0
100
AcDbSymbolTable
 70
     8
  0
LAYER
  5
E
102
{ACAD_XDICTIONARY
360
CBA
102
}
330
2
100
AcDbSymbolTableRecord
100
AcDbLayerTableRecord
  2
0
 70
     0
 62
     7
  6
CONTINUOUS
370
    -3
390
C3C
  0
LAYER
  5
21
102
{ACAD_XDICTIONARY
360
CBC
102
}
330
2
100
AcDbSymbolTableRecord
100
AcDbLayerTableRecord
  2
FORM
 70
     0
 62
     7
  6
CONTINUOUS
370
    -3
390
C3C
  0
LAYER
  5
22
102
{ACAD_XDICTIONARY
360
CBE
102
}
330
2
100
AcDbSymbolTableRecord
100
AcDbLayerTableRecord
  2
CENTER
 70
     0
 62
     3
  6
CENTER
370
    -3
390
C3C
  0
LAYER
  5
23
102
{ACAD_XDICTIONARY
360
CC0
102
}
330
2
100
AcDbSymbolTableRecord
100
AcDbLayerTableRecord
  2
DIM
 70
     0
 62
     1
  6
CONTINUOUS
370
    -3
390
C3C
  0
LAYER
  5
24
102
{ACAD_XDICTIONARY
360
CC2
102
}
330
2
100
AcDbSymbolTableRecord
100
AcDbLayerTableRecord
  2
HATCH
 70
     0
 62
     4
  6
CONTINUOUS
370
    -3
390
C3C
  0
LAYER
  5
25
102
{ACAD_XDICTIONARY
360
CC4
102
}
330
2
100
AcDbSymbolTableRecord
100
AcDbLayerTableRecord
  2
HIDDEN
 70
     0
 62
     5
  6
HIDDEN
370
    -3
390
C3C
  0
LAYER
  5
26
102
{ACAD_XDICTIONARY
360
CC6
102
}
330
2
100
AcDbSymbolTableRecord
100
AcDbLayerTableRecord
  2
OBJECT
 70
     0
 62
     7
  6
CONTINUOUS
370
    -3
390
C3C
  0
LAYER
  5
27
102
{ACAD_XDICTIONARY
360
CC8
102
}
330
2
100
AcDbSymbolTableRecord
100
AcDbLayerTableRecord
  2
TEXT
 70
     0
 62
     7
  6
CONTINUOUS
370
    -3
390
C3C
  0
ENDTAB
  0
TABLE
  2
STYLE
  5
3
330
0
100
AcDbSymbolTable
 70
     4
  0
STYLE
  5
F
330
3
100
AcDbSymbolTableRecord
100
AcDbTextStyleTableRecord
  2
STANDARD
 70
     0
 40
0.0
 41
1.0
 50
0.0
 71
     0
 42
0.12
  3
ROMANS.SHX
  4

  0
STYLE
  5
1C
330
3
100
AcDbSymbolTableRecord
100
AcDbTextStyleTableRecord
  2
ROMANS
 70
     0
 40
0.0
 41
1.0
 50
0.0
 71
     0
 42
0.08
  3
romans
  4

  0
STYLE
  5
B79
330
3
100
AcDbSymbolTableRecord
100
AcDbTextStyleTableRecord
  2
HELV
 70
     0
 40
0.0
 41
1.0
 50
0.0
 71
     0
 42
0.15
  3
HELVMED
  4

  0
STYLE
  5
B7A
330
3
100
AcDbSymbolTableRecord
100
AcDbTextStyleTableRecord
  2
HELR
 70
     0
 40
0.0
 41
1.0
 50
0.0
 71
     0
 42
0.2
  3
HELV
  4

  0
ENDTAB
  0
TABLE
  2
VIEW
  5
6
330
0
100
AcDbSymbolTable
 70
     0
  0
ENDTAB
  0
TABLE
  2
UCS
  5
7
330
0
100
AcDbSymbolTable
 70
     0
  0
ENDTAB
  0
TABLE
  2
APPID
  5
9
330
0
100
AcDbSymbolTable
 70
     2
  0
APPID
  5
10
330
9
100
AcDbSymbolTableRecord
100
AcDbRegAppTableRecord
  2
ACAD
 70
     0
  0
APPID
  5
CB7
330
9
100
AcDbSymbolTableRecord
100
AcDbRegAppTableRecord
  2
ACAD_MLEADERVER
 70
     0
  0
ENDTAB
  0
TABLE
  2
DIMSTYLE
  5
A
330
0
100
AcDbSymbolTable
 70
     1
100
AcDbDimStyleTable
 71
     0
  0
DIMSTYLE
105
FA
330
A
100
AcDbSymbolTableRecord
100
AcDbDimStyleTableRecord
  2
STANDARD
 70
     0
340
F
  0
ENDTAB
  0
TABLE
  2
BLOCK_RECORD
  5
1
330
0
100
AcDbSymbolTable
 70
     0
  0
BLOCK_RECORD
  5
17
330
1
100
AcDbSymbolTableRecord
100
AcDbBlockTableRecord
  2
*MODEL_SPACE
340
C3F
  0
BLOCK_RECORD
  5
14
330
1
100
AcDbSymbolTableRecord
100
AcDbBlockTableRecord
  2
*PAPER_SPACE
340
C40
  0
ENDTAB
  0
ENDSEC
  0
SECTION
  2
BLOCKS
  0
BLOCK
  5
2A
330
17
100
AcDbEntity
  8
0
100
AcDbBlockBegin
  2
*MODEL_SPACE
 70
     0
 10
0.0
 20
0.0
 30
0.0
  3
*MODEL_SPACE
  1

  0
ENDBLK
  5
2B
330
17
100
AcDbEntity
  8
0
100
AcDbBlockEnd
  0
BLOCK
  5
28
330
14
100
AcDbEntity
 67
     1
  8
0
100
AcDbBlockBegin
  2
*PAPER_SPACE
 70
     0
 10
0.0
 20
0.0
 30
0.0
  3
*PAPER_SPACE
  1

  0
ENDBLK
  5
29
330
14
100
AcDbEntity
 67
     1
  8
0
100
AcDbBlockEnd
  0
ENDSEC
  0
SECTION
  2
ENTITIES
  0
LINE
  5
14B
330
17
100
AcDbEntity
  8
OBJECT
100
AcDbLine
 10
5.028430699208236
 20
4.39168272321368
 30
0.0
 11
5.028430699208236
 21
6.793682723213678
 31
0.0
  0
LINE
  5
14C
330
17
100
AcDbEntity
  8
OBJECT
100
AcDbLine
 10
5.028430699208236
 20
4.39168272321368
 30
0.0
 11
7.055430699208233
 21
4.39168272321368
 31
0.0
  0
LINE
  5
14D
330
17
100
AcDbEntity
  8
OBJECT
100
AcDbLine
 10
5.028430699208236
 20
6.793682723213679
 30
0.0
 11
7.055430699208233
 21
6.793682723213678
 31
0.0
  0
LINE
  5
14E
330
17
100
AcDbEntity
  8
OBJECT
100
AcDbLine
 10
7.055430699208233
 20
4.39168272321368
 30
0.0
 11
7.055430699208233
 21
6.793682723213678
 31
0.0
  0
LINE
  5
14F
330
17
100
AcDbEntity
  8
OBJECT
100
AcDbLine
 10
5.028430699208236
 20
4.785682723213679
 30
0.0
 11
7.055430699208233
 21
4.785682723213678
 31
0.0
  0
LINE
  5
16D
330
17
100
AcDbEntity
  8
OBJECT
100
AcDbLine
 10
2.83583826832686
 20
4.39168272321368
 30
0.0
 11
2.835838268326859
 21
6.793682723213678
 31
0.0
  0
LINE
  5
16E
330
17
100
AcDbEntity
  8
OBJECT
100
AcDbLine
 10
2.69783826832686
 20
4.39168272321368
 30
0.0
 11
2.83583826832686
 21
4.391682723213679
 31
0.0
  0
LINE
  5
16F
330
17
100
AcDbEntity
  8
OBJECT
100
AcDbLine
 10
2.69783826832686
 20
4.39168272321368
 30
0.0
 11
2.69783826832686
 21
4.785682723213679
 31
0.0
  0
LINE
  5
170
330
17
100
AcDbEntity
  8
OBJECT
100
AcDbLine
 10
2.83583826832686
 20
4.785682723213678
 30
0.0
 11
2.52083826832686
 21
4.785682723213681
 31
0.0
  0
LINE
  5
178
330
17
100
AcDbEntity
  8
OBJECT
100
AcDbLine
 10
5.253930699208234
 20
4.681182723213679
 30
0.0
 11
5.647930699208234
 21
4.681182723213679
 31
0.0
  0
LINE
  5
179
330
17
100
AcDbEntity
  8
OBJECT
100
AcDbLine
 10
5.253930699208234
 20
4.512182723213681
 30
0.0
 11
5.647930699208234
 21
4.51218272321368
 31
0.0
  0
ARC
  5
17A
330
17
100
AcDbEntity
  8
OBJECT
100
AcDbCircle
 10
5.253930699208234
 20
4.59668272321368
 30
0.0
 40
0.0845000000000003
100
AcDbArc
 50
90.0
 51
269.9999999999998
  0
ARC
  5
17B
330
17
100
AcDbEntity
  8
OBJECT
100
AcDbCircle
 10
5.647930699208234
 20
4.59668272321368
 30
0.0
 40
0.0845000000000003
100
AcDbArc
 50
270.0
 51
90.0
  0
ARC
  5
17C
330
17
100
AcDbEntity
  8
OBJECT
100
AcDbCircle
 10
6.435930699208235
 20
4.59668272321368
 30
0.0
 40
0.0845000000000003
100
AcDbArc
 50
90.0
 51
269.9999999999998
  0
ARC
  5
17D
330
17
100
AcDbEntity
  8
OBJECT
100
AcDbCircle
 10
6.829930699208235
 20
4.59668272321368
 30
0.0
 40
0.0845000000000003
100
AcDbArc
 50
270.0
 51
90.0
  0
LINE
  5
17E
330
17
100
AcDbEntity
  8
HIDDEN
 62
     3
100
AcDbLine
 10
2.590457930750198
 20
4.59668272321368
 30
0.0
 11
2.907710739716886
 21
4.59668272321368
 31
0.0
  0
LINE
  5
17F
330
17
100
AcDbEntity
  8
OBJECT
100
AcDbLine
 10
6.435930699208235
 20
4.681182723213679
 30
0.0
 11
6.829930699208235
 21
4.681182723213679
 31
0.0
  0
LINE
  5
180
330
17
100
AcDbEntity
  8
OBJECT
100
AcDbLine
 10
6.435930699208235
 20
4.51218272321368
 30
0.0
 11
6.829930699208235
 21
4.51218272321368
 31
0.0
  0
LINE
  5
181
330
17
100
AcDbEntity
  8
OBJECT
 62
     1
100
AcDbLine
 10
6.739930699208235
 20
4.59668272321368
 30
0.0
 11
6.919930699208235
 21
4.59668272321368
 31
0.0
  0
LINE
  5
182
330
17
100
AcDbEntity
  8
OBJECT
 62
     1
100
AcDbLine
 10
6.829930699208235
 20
4.50668272321368
 30
0.0
 11
6.829930699208235
 21
4.68668272321368
 31
0.0
  0
LINE
  5
183
330
17
100
AcDbEntity
  8
OBJECT
 62
     1
100
AcDbLine
 10
6.345930699208235
 20
4.59668272321368
 30
0.0
 11
6.525930699208235
 21
4.59668272321368
 31
0.0
  0
LINE
  5
184
330
17
100
AcDbEntity
  8
OBJECT
 62
     1
100
AcDbLine
 10
6.435930699208235
 20
4.50668272321368
 30
0.0
 11
6.435930699208235
 21
4.68668272321368
 31
0.0
  0
LINE
  5
185
330
17
100
AcDbEntity
  8
OBJECT
 62
     1
100
AcDbLine
 10
5.557930699208235
 20
4.59668272321368
 30
0.0
 11
5.737930699208234
 21
4.59668272321368
 31
0.0
  0
LINE
  5
186
330
17
100
AcDbEntity
  8
OBJECT
 62
     1
100
AcDbLine
 10
5.647930699208234
 20
4.50668272321368
 30
0.0
 11
5.647930699208234
 21
4.68668272321368
 31
0.0
  0
LINE
  5
187
330
17
100
AcDbEntity
  8
OBJECT
 62
     1
100
AcDbLine
 10
5.163930699208234
 20
4.59668272321368
 30
0.0
 11
5.343930699208234
 21
4.59668272321368
 31
0.0
  0
LINE
  5
188
330
17
100
AcDbEntity
  8
OBJECT
 62
     1
100
AcDbLine
 10
5.253930699208234
 20
4.50668272321368
 30
0.0
 11
5.253930699208234
 21
4.68668272321368
 31
0.0
  0
LINE
  5
189
330
17
100
AcDbEntity
  8
OBJECT
100
AcDbLine
 10
2.520838268326858
 20
6.793682723213677
 30
0.0
 11
2.835838268326859
 21
6.793682723213678
 31
0.0
  0
LINE
  5
18A
330
17
100
AcDbEntity
  8
OBJECT
100
AcDbLine
 10
2.52083826832686
 20
4.78568272321368
 30
0.0
 11
2.520838268326858
 21
6.793682723213678
 31
0.0
  0
LINE
  5
18B
330
17
100
AcDbEntity
  8
OBJECT
100
AcDbLine
 10
2.766838268326859
 20
4.785682723213679
 30
0.0
 11
2.766838268326859
 21
6.793682723213678
 31
0.0
  0
LINE
  5
19E
330
17
100
AcDbEntity
  8
OBJECT
100
AcDbLine
 10
5.087265029037482
 20
6.706402793447552
 30
0.0
 11
5.149765029037482
 21
6.706402793447552
 31
0.0
  0
LINE
  5
19F
330
17
100
AcDbEntity
  8
OBJECT
100
AcDbLine
 10
5.274765029037482
 20
6.706402793447552
 30
0.0
 11
5.337265029037482
 21
6.706402793447552
 31
0.0
  0
LINE
  5
1A0
330
17
100
AcDbEntity
  8
OBJECT
100
AcDbLine
 10
5.462265029037482
 20
6.706402793447552
 30
0.0
 11
5.524765029037482
 21
6.706402793447552
 31
0.0
  0
LINE
  5
1A1
330
17
100
AcDbEntity
  8
OBJECT
100
AcDbLine
 10
5.649765029037482
 20
6.706402793447552
 30
0.0
 11
5.712265029037482
 21
6.706402793447552
 31
0.0
  0
LINE
  5
1A2
330
17
100
AcDbEntity
  8
OBJECT
100
AcDbLine
 10
5.837265029037482
 20
6.706402793447552
 30
0.0
 11
5.899765029037482
 21
6.706402793447552
 31
0.0
  0
LINE
  5
1A3
330
17
100
AcDbEntity
  8
OBJECT
100
AcDbLine
 10
6.024765029037482
 20
6.706402793447552
 30
0.0
 11
6.087265029037482
 21
6.706402793447552
 31
0.0
  0
LINE
  5
1A4
330
17
100
AcDbEntity
  8
OBJECT
100
AcDbLine
 10
6.212265029037482
 20
6.706402793447552
 30
0.0
 11
6.274765029037482
 21
6.706402793447552
 31
0.0
  0
LINE
  5
1A5
330
17
100
AcDbEntity
  8
OBJECT
100
AcDbLine
 10
6.399765029037482
 20
6.706402793447552
 30
0.0
 11
6.462265029037482
 21
6.706402793447552
 31
0.0
  0
LINE
  5
1A6
330
17
100
AcDbEntity
  8
OBJECT
100
AcDbLine
 10
6.587265029037482
 20
6.706402793447552
 30
0.0
 11
6.649765029037482
 21
6.706402793447552
 31
0.0
  0
LINE
  5
1A7
330
17
100
AcDbEntity
  8
OBJECT
100
AcDbLine
 10
6.774765029037482
 20
6.706402793447552
 30
0.0
 11
6.837265029037482
 21
6.706402793447552
 31
0.0
  0
LINE
  5
1A8
330
17
100
AcDbEntity
  8
OBJECT
100
AcDbLine
 10
6.962265029037482
 20
6.706402793447552
 30
0.0
 11
7.005430699208233
 21
6.706402793447552
 31
0.0
  0
LINE
  5
1AA
330
17
100
AcDbEntity
  8
OBJECT
100
AcDbLine
 10
5.181015029037482
 20
6.652276205947552
 30
0.0
 11
5.243515029037482
 21
6.652276205947552
 31
0.0
  0
LINE
  5
1AB
330
17
100
AcDbEntity
  8
OBJECT
100
AcDbLine
 10
5.368515029037482
 20
6.652276205947552
 30
0.0
 11
5.431015029037482
 21
6.652276205947552
 31
0.0
  0
LINE
  5
1AC
330
17
100
AcDbEntity
  8
OBJECT
100
AcDbLine
 10
5.556015029037482
 20
6.652276205947552
 30
0.0
 11
5.618515029037482
 21
6.652276205947552
 31
0.0
  0
LINE
  5
1AD
330
17
100
AcDbEntity
  8
OBJECT
100
AcDbLine
 10
5.743515029037482
 20
6.652276205947552
 30
0.0
 11
5.806015029037482
 21
6.652276205947552
 31
0.0
  0
LINE
  5
1AE
330
17
100
AcDbEntity
  8
OBJECT
100
AcDbLine
 10
5.931015029037482
 20
6.652276205947552
 30
0.0
 11
5.993515029037482
 21
6.652276205947552
 31
0.0
  0
LINE
  5
1AF
330
17
100
AcDbEntity
  8
OBJECT
100
AcDbLine
 10
6.118515029037482
 20
6.652276205947552
 30
0.0
 11
6.181015029037482
 21
6.652276205947552
 31
0.0
  0
LINE
  5
1B0
330
17
100
AcDbEntity
  8
OBJECT
100
AcDbLine
 10
6.306015029037482
 20
6.652276205947552
 30
0.0
 11
6.368515029037482
 21
6.652276205947552
 31
0.0
  0
LINE
  5
1B1
330
17
100
AcDbEntity
  8
OBJECT
100
AcDbLine
 10
6.493515029037482
 20
6.652276205947552
 30
0.0
 11
6.556015029037482
 21
6.652276205947552
 31
0.0
  0
LINE
  5
1B2
330
17
100
AcDbEntity
  8
OBJECT
100
AcDbLine
 10
6.681015029037482
 20
6.652276205947552
 30
0.0
 11
6.743515029037482
 21
6.652276205947552
 31
0.0
  0
LINE
  5
1B3
330
17
100
AcDbEntity
  8
OBJECT
100
AcDbLine
 10
6.868515029037482
 20
6.652276205947552
 30
0.0
 11
6.931015029037482
 21
6.652276205947552
 31
0.0
  0
LINE
  5
1B4
330
17
100
AcDbEntity
  8
OBJECT
100
AcDbLine
 10
5.087265029037482
 20
6.598149618447552
 30
0.0
 11
5.149765029037482
 21
6.598149618447552
 31
0.0
  0
LINE
  5
1B5
330
17
100
AcDbEntity
  8
OBJECT
100
AcDbLine
 10
5.274765029037482
 20
6.598149618447552
 30
0.0
 11
5.337265029037482
 21
6.598149618447552
 31
0.0
  0
LINE
  5
1B6
330
17
100
AcDbEntity
  8
OBJECT
100
AcDbLine
 10
5.462265029037482
 20
6.598149618447552
 30
0.0
 11
5.524765029037482
 21
6.598149618447552
 31
0.0
  0
LINE
  5
1B7
330
17
100
AcDbEntity
  8
OBJECT
100
AcDbLine
 10
5.649765029037482
 20
6.598149618447552
 30
0.0
 11
5.712265029037482
 21
6.598149618447552
 31
0.0
  0
LINE
  5
1B8
330
17
100
AcDbEntity
  8
OBJECT
100
AcDbLine
 10
5.837265029037482
 20
6.598149618447552
 30
0.0
 11
5.899765029037482
 21
6.598149618447552
 31
0.0
  0
LINE
  5
1B9
330
17
100
AcDbEntity
  8
OBJECT
100
AcDbLine
 10
6.024765029037482
 20
6.598149618447552
 30
0.0
 11
6.087265029037482
 21
6.598149618447552
 31
0.0
  0
LINE
  5
1BA
330
17
100
AcDbEntity
  8
OBJECT
100
AcDbLine
 10
6.212265029037482
 20
6.598149618447552
 30
0.0
 11
6.274765029037482
 21
6.598149618447552
 31
0.0
  0
LINE
  5
1BB
330
17
100
AcDbEntity
  8
OBJECT
100
AcDbLine
 10
6.399765029037482
 20
6.598149618447552
 30
0.0
 11
6.462265029037482
 21
6.598149618447552
 31
0.0
  0
LINE
  5
1BC
330
17
100
AcDbEntity
  8
OBJECT
100
AcDbLine
 10
6.587265029037482
 20
6.598149618447552
 30
0.0
 11
6.649765029037482
 21
6.598149618447552
 31
0.0
  0
LINE
  5
1BD
330
17
100
AcDbEntity
  8
OBJECT
100
AcDbLine
 10
6.774765029037482
 20
6.598149618447552
 30
0.0
 11
6.837265029037482
 21
6.598149618447552
 31
0.0
  0
LINE
  5
1BE
330
17
100
AcDbEntity
  8
OBJECT
100
AcDbLine
 10
6.962265029037482
 20
6.598149618447552
 30
0.0
 11
7.005430699208233
 21
6.598149618447552
 31
0.0
  0
LINE
  5
1C0
330
17
100
AcDbEntity
  8
OBJECT
100
AcDbLine
 10
5.181015029037482
 20
6.544023030947553
 30
0.0
 11
5.243515029037482
 21
6.544023030947553
 31
0.0
  0
LINE
  5
1C1
330
17
100
AcDbEntity
  8
OBJECT
100
AcDbLine
 10
5.368515029037482
 20
6.544023030947553
 30
0.0
 11
5.431015029037482
 21
6.544023030947553
 31
0.0
  0
LINE
  5
1C2
330
17
100
AcDbEntity
  8
OBJECT
100
AcDbLine
 10
5.556015029037482
 20
6.544023030947553
 30
0.0
 11
5.618515029037482
 21
6.544023030947553
 31
0.0
  0
LINE
  5
1C3
330
17
100
AcDbEntity
  8
OBJECT
100
AcDbLine
 10
5.743515029037482
 20
6.544023030947553
 30
0.0
 11
5.806015029037482
 21
6.544023030947553
 31
0.0
  0
LINE
  5
1C4
330
17
100
AcDbEntity
  8
OBJECT
100
AcDbLine
 10
5.931015029037482
 20
6.544023030947553
 30
0.0
 11
5.993515029037482
 21
6.544023030947553
 31
0.0
  0
LINE
  5
1C5
330
17
100
AcDbEntity
  8
OBJECT
100
AcDbLine
 10
6.118515029037482
 20
6.544023030947553
 30
0.0
 11
6.181015029037482
 21
6.544023030947553
 31
0.0
  0
LINE
  5
1C6
330
17
100
AcDbEntity
  8
OBJECT
100
AcDbLine
 10
6.306015029037482
 20
6.544023030947553
 30
0.0
 11
6.368515029037482
 21
6.544023030947553
 31
0.0
  0
LINE
  5
1C7
330
17
100
AcDbEntity
  8
OBJECT
100
AcDbLine
 10
6.493515029037482
 20
6.544023030947553
 30
0.0
 11
6.556015029037482
 21
6.544023030947553
 31
0.0
  0
LINE
  5
1C8
330
17
100
AcDbEntity
  8
OBJECT
100
AcDbLine
 10
6.681015029037482
 20
6.544023030947553
 30
0.0
 11
6.743515029037482
 21
6.544023030947553
 31
0.0
  0
LINE
  5
1C9
330
17
100
AcDbEntity
  8
OBJECT
100
AcDbLine
 10
6.868515029037482
 20
6.544023030947553
 30
0.0
 11
6.931015029037482
 21
6.544023030947553
 31
0.0
  0
LINE
  5
1CA
330
17
100
AcDbEntity
  8
OBJECT
100
AcDbLine
 10
5.087265029037482
 20
6.489896443447553
 30
0.0
 11
5.149765029037482
 21
6.489896443447553
 31
0.0
  0
LINE
  5
1CB
330
17
100
AcDbEntity
  8
OBJECT
100
AcDbLine
 10
5.274765029037482
 20
6.489896443447553
 30
0.0
 11
5.337265029037482
 21
6.489896443447553
 31
0.0
  0
LINE
  5
1CC
330
17
100
AcDbEntity
  8
OBJECT
100
AcDbLine
 10
5.462265029037482
 20
6.489896443447553
 30
0.0
 11
5.524765029037482
 21
6.489896443447553
 31
0.0
  0
LINE
  5
1CD
330
17
100
AcDbEntity
  8
OBJECT
100
AcDbLine
 10
5.649765029037482
 20
6.489896443447553
 30
0.0
 11
5.712265029037482
 21
6.489896443447553
 31
0.0
  0
LINE
  5
1CE
330
17
100
AcDbEntity
  8
OBJECT
100
AcDbLine
 10
5.837265029037482
 20
6.489896443447553
 30
0.0
 11
5.899765029037482
 21
6.489896443447553
 31
0.0
  0
LINE
  5
1CF
330
17
100
AcDbEntity
  8
OBJECT
100
AcDbLine
 10
6.024765029037482
 20
6.489896443447553
 30
0.0
 11
6.087265029037482
 21
6.489896443447553
 31
0.0
  0
LINE
  5
1D0
330
17
100
AcDbEntity
  8
OBJECT
100
AcDbLine
 10
6.212265029037482
 20
6.489896443447553
 30
0.0
 11
6.274765029037482
 21
6.489896443447553
 31
0.0
  0
LINE
  5
1D1
330
17
100
AcDbEntity
  8
OBJECT
100
AcDbLine
 10
6.399765029037482
 20
6.489896443447553
 30
0.0
 11
6.462265029037482
 21
6.489896443447553
 31
0.0
  0
LINE
  5
1D2
330
17
100
AcDbEntity
  8
OBJECT
100
AcDbLine
 10
6.587265029037482
 20
6.489896443447553
 30
0.0
 11
6.649765029037482
 21
6.489896443447553
 31
0.0
  0
LINE
  5
1D3
330
17
100
AcDbEntity
  8
OBJECT
100
AcDbLine
 10
6.774765029037482
 20
6.489896443447553
 30
0.0
 11
6.837265029037482
 21
6.489896443447553
 31
0.0
  0
LINE
  5
1D4
330
17
100
AcDbEntity
  8
OBJECT
100
AcDbLine
 10
6.962265029037482
 20
6.489896443447553
 30
0.0
 11
7.005430699208233
 21
6.489896443447554
 31
0.0
  0
LINE
  5
1D6
330
17
100
AcDbEntity
  8
OBJECT
100
AcDbLine
 10
5.181015029037482
 20
6.435769855947553
 30
0.0
 11
5.243515029037482
 21
6.435769855947553
 31
0.0
  0
LINE
  5
1D7
330
17
100
AcDbEntity
  8
OBJECT
100
AcDbLine
 10
5.368515029037482
 20
6.435769855947553
 30
0.0
 11
5.431015029037482
 21
6.435769855947553
 31
0.0
  0
LINE
  5
1D8
330
17
100
AcDbEntity
  8
OBJECT
100
AcDbLine
 10
5.556015029037482
 20
6.435769855947553
 30
0.0
 11
5.618515029037482
 21
6.435769855947553
 31
0.0
  0
LINE
  5
1D9
330
17
100
AcDbEntity
  8
OBJECT
100
AcDbLine
 10
5.743515029037482
 20
6.435769855947553
 30
0.0
 11
5.806015029037482
 21
6.435769855947553
 31
0.0
  0
LINE
  5
1DA
330
17
100
AcDbEntity
  8
OBJECT
100
AcDbLine
 10
5.931015029037482
 20
6.435769855947553
 30
0.0
 11
5.993515029037482
 21
6.435769855947553
 31
0.0
  0
LINE
  5
1DB
330
17
100
AcDbEntity
  8
OBJECT
100
AcDbLine
 10
6.118515029037482
 20
6.435769855947553
 30
0.0
 11
6.181015029037482
 21
6.435769855947553
 31
0.0
  0
LINE
  5
1DC
330
17
100
AcDbEntity
  8
OBJECT
100
AcDbLine
 10
6.306015029037482
 20
6.435769855947553
 30
0.0
 11
6.368515029037482
 21
6.435769855947553
 31
0.0
  0
LINE
  5
1DD
330
17
100
AcDbEntity
  8
OBJECT
100
AcDbLine
 10
6.493515029037482
 20
6.435769855947553
 30
0.0
 11
6.556015029037482
 21
6.435769855947553
 31
0.0
  0
LINE
  5
1DE
330
17
100
AcDbEntity
  8
OBJECT
100
AcDbLine
 10
6.681015029037482
 20
6.435769855947553
 30
0.0
 11
6.743515029037482
 21
6.435769855947553
 31
0.0
  0
LINE
  5
1DF
330
17
100
AcDbEntity
  8
OBJECT
100
AcDbLine
 10
6.868515029037482
 20
6.435769855947553
 30
0.0
 11
6.931015029037482
 21
6.435769855947553
 31
0.0
  0
LINE
  5
1E0
330
17
100
AcDbEntity
  8
OBJECT
100
AcDbLine
 10
5.087265029037482
 20
6.381643268447552
 30
0.0
 11
5.149765029037482
 21
6.381643268447552
 31
0.0
  0
LINE
  5
1E1
330
17
100
AcDbEntity
  8
OBJECT
100
AcDbLine
 10
5.274765029037482
 20
6.381643268447552
 30
0.0
 11
5.337265029037482
 21
6.381643268447552
 31
0.0
  0
LINE
  5
1E2
330
17
100
AcDbEntity
  8
OBJECT
100
AcDbLine
 10
5.462265029037482
 20
6.381643268447552
 30
0.0
 11
5.524765029037482
 21
6.381643268447552
 31
0.0
  0
LINE
  5
1E3
330
17
100
AcDbEntity
  8
OBJECT
100
AcDbLine
 10
5.649765029037482
 20
6.381643268447552
 30
0.0
 11
5.712265029037482
 21
6.381643268447552
 31
0.0
  0
LINE
  5
1E4
330
17
100
AcDbEntity
  8
OBJECT
100
AcDbLine
 10
5.837265029037482
 20
6.381643268447552
 30
0.0
 11
5.899765029037482
 21
6.381643268447552
 31
0.0
  0
LINE
  5
1E5
330
17
100
AcDbEntity
  8
OBJECT
100
AcDbLine
 10
6.024765029037482
 20
6.381643268447552
 30
0.0
 11
6.087265029037482
 21
6.381643268447552
 31
0.0
  0
LINE
  5
1E6
330
17
100
AcDbEntity
  8
OBJECT
100
AcDbLine
 10
6.212265029037482
 20
6.381643268447552
 30
0.0
 11
6.274765029037482
 21
6.381643268447552
 31
0.0
  0
LINE
  5
1E7
330
17
100
AcDbEntity
  8
OBJECT
100
AcDbLine
 10
6.399765029037482
 20
6.381643268447552
 30
0.0
 11
6.462265029037482
 21
6.381643268447552
 31
0.0
  0
LINE
  5
1E8
330
17
100
AcDbEntity
  8
OBJECT
100
AcDbLine
 10
6.587265029037482
 20
6.381643268447552
 30
0.0
 11
6.649765029037482
 21
6.381643268447552
 31
0.0
  0
LINE
  5
1E9
330
17
100
AcDbEntity
  8
OBJECT
100
AcDbLine
 10
6.774765029037482
 20
6.381643268447552
 30
0.0
 11
6.837265029037482
 21
6.381643268447552
 31
0.0
  0
LINE
  5
1EA
330
17
100
AcDbEntity
  8
OBJECT
100
AcDbLine
 10
6.962265029037482
 20
6.381643268447552
 30
0.0
 11
7.005430699208233
 21
6.381643268447551
 31
0.0
  0
LINE
  5
1EC
330
17
100
AcDbEntity
  8
OBJECT
100
AcDbLine
 10
5.181015029037482
 20
6.327516680947552
 30
0.0
 11
5.243515029037482
 21
6.327516680947552
 31
0.0
  0
LINE
  5
1ED
330
17
100
AcDbEntity
  8
OBJECT
100
AcDbLine
 10
5.368515029037482
 20
6.327516680947552
 30
0.0
 11
5.431015029037482
 21
6.327516680947552
 31
0.0
  0
LINE
  5
1EE
330
17
100
AcDbEntity
  8
OBJECT
100
AcDbLine
 10
5.556015029037482
 20
6.327516680947552
 30
0.0
 11
5.618515029037482
 21
6.327516680947552
 31
0.0
  0
LINE
  5
1EF
330
17
100
AcDbEntity
  8
OBJECT
100
AcDbLine
 10
5.743515029037482
 20
6.327516680947552
 30
0.0
 11
5.806015029037482
 21
6.327516680947552
 31
0.0
  0
LINE
  5
1F0
330
17
100
AcDbEntity
  8
OBJECT
100
AcDbLine
 10
5.931015029037482
 20
6.327516680947552
 30
0.0
 11
5.993515029037482
 21
6.327516680947552
 31
0.0
  0
LINE
  5
1F1
330
17
100
AcDbEntity
  8
OBJECT
100
AcDbLine
 10
6.118515029037482
 20
6.327516680947552
 30
0.0
 11
6.181015029037482
 21
6.327516680947552
 31
0.0
  0
LINE
  5
1F2
330
17
100
AcDbEntity
  8
OBJECT
100
AcDbLine
 10
6.306015029037482
 20
6.327516680947552
 30
0.0
 11
6.368515029037482
 21
6.327516680947552
 31
0.0
  0
LINE
  5
1F3
330
17
100
AcDbEntity
  8
OBJECT
100
AcDbLine
 10
6.493515029037482
 20
6.327516680947552
 30
0.0
 11
6.556015029037482
 21
6.327516680947552
 31
0.0
  0
LINE
  5
1F4
330
17
100
AcDbEntity
  8
OBJECT
100
AcDbLine
 10
6.681015029037482
 20
6.327516680947552
 30
0.0
 11
6.743515029037482
 21
6.327516680947552
 31
0.0
  0
LINE
  5
1F5
330
17
100
AcDbEntity
  8
OBJECT
100
AcDbLine
 10
6.868515029037482
 20
6.327516680947552
 30
0.0
 11
6.931015029037482
 21
6.327516680947552
 31
0.0
  0
LINE
  5
1F6
330
17
100
AcDbEntity
  8
OBJECT
100
AcDbLine
 10
5.087265029037482
 20
6.273390093447552
 30
0.0
 11
5.149765029037482
 21
6.273390093447552
 31
0.0
  0
LINE
  5
1F7
330
17
100
AcDbEntity
  8
OBJECT
100
AcDbLine
 10
5.274765029037482
 20
6.273390093447552
 30
0.0
 11
5.337265029037482
 21
6.273390093447552
 31
0.0
  0
LINE
  5
1F8
330
17
100
AcDbEntity
  8
OBJECT
100
AcDbLine
 10
5.462265029037482
 20
6.273390093447552
 30
0.0
 11
5.524765029037482
 21
6.273390093447552
 31
0.0
  0
LINE
  5
1F9
330
17
100
AcDbEntity
  8
OBJECT
100
AcDbLine
 10
5.649765029037482
 20
6.273390093447552
 30
0.0
 11
5.712265029037482
 21
6.273390093447552
 31
0.0
  0
LINE
  5
1FA
330
17
100
AcDbEntity
  8
OBJECT
100
AcDbLine
 10
5.837265029037482
 20
6.273390093447552
 30
0.0
 11
5.899765029037482
 21
6.273390093447552
 31
0.0
  0
LINE
  5
1FB
330
17
100
AcDbEntity
  8
OBJECT
100
AcDbLine
 10
6.024765029037482
 20
6.273390093447552
 30
0.0
 11
6.087265029037482
 21
6.273390093447552
 31
0.0
  0
LINE
  5
1FC
330
17
100
AcDbEntity
  8
OBJECT
100
AcDbLine
 10
6.212265029037482
 20
6.273390093447552
 30
0.0
 11
6.274765029037482
 21
6.273390093447552
 31
0.0
  0
LINE
  5
1FD
330
17
100
AcDbEntity
  8
OBJECT
100
AcDbLine
 10
6.399765029037482
 20
6.273390093447552
 30
0.0
 11
6.462265029037482
 21
6.273390093447552
 31
0.0
  0
LINE
  5
1FE
330
17
100
AcDbEntity
  8
OBJECT
100
AcDbLine
 10
6.587265029037482
 20
6.273390093447552
 30
0.0
 11
6.649765029037482
 21
6.273390093447552
 31
0.0
  0
LINE
  5
1FF
330
17
100
AcDbEntity
  8
OBJECT
100
AcDbLine
 10
6.774765029037482
 20
6.273390093447552
 30
0.0
 11
6.837265029037482
 21
6.273390093447552
 31
0.0
  0
LINE
  5
200
330
17
100
AcDbEntity
  8
OBJECT
100
AcDbLine
 10
6.962265029037482
 20
6.273390093447552
 30
0.0
 11
7.005430699208234
 21
6.273390093447553
 31
0.0
  0
LINE
  5
202
330
17
100
AcDbEntity
  8
OBJECT
100
AcDbLine
 10
5.181015029037482
 20
6.219263505947552
 30
0.0
 11
5.243515029037482
 21
6.219263505947552
 31
0.0
  0
LINE
  5
203
330
17
100
AcDbEntity
  8
OBJECT
100
AcDbLine
 10
5.368515029037482
 20
6.219263505947552
 30
0.0
 11
5.431015029037482
 21
6.219263505947552
 31
0.0
  0
LINE
  5
204
330
17
100
AcDbEntity
  8
OBJECT
100
AcDbLine
 10
5.556015029037482
 20
6.219263505947552
 30
0.0
 11
5.618515029037482
 21
6.219263505947552
 31
0.0
  0
LINE
  5
205
330
17
100
AcDbEntity
  8
OBJECT
100
AcDbLine
 10
5.743515029037482
 20
6.219263505947552
 30
0.0
 11
5.806015029037482
 21
6.219263505947552
 31
0.0
  0
LINE
  5
206
330
17
100
AcDbEntity
  8
OBJECT
100
AcDbLine
 10
5.931015029037482
 20
6.219263505947552
 30
0.0
 11
5.993515029037482
 21
6.219263505947552
 31
0.0
  0
LINE
  5
207
330
17
100
AcDbEntity
  8
OBJECT
100
AcDbLine
 10
6.118515029037482
 20
6.219263505947552
 30
0.0
 11
6.181015029037482
 21
6.219263505947552
 31
0.0
  0
LINE
  5
208
330
17
100
AcDbEntity
  8
OBJECT
100
AcDbLine
 10
6.306015029037482
 20
6.219263505947552
 30
0.0
 11
6.368515029037482
 21
6.219263505947552
 31
0.0
  0
LINE
  5
209
330
17
100
AcDbEntity
  8
OBJECT
100
AcDbLine
 10
6.493515029037482
 20
6.219263505947552
 30
0.0
 11
6.556015029037482
 21
6.219263505947552
 31
0.0
  0
LINE
  5
20A
330
17
100
AcDbEntity
  8
OBJECT
100
AcDbLine
 10
6.681015029037482
 20
6.219263505947552
 30
0.0
 11
6.743515029037482
 21
6.219263505947552
 31
0.0
  0
LINE
  5
20B
330
17
100
AcDbEntity
  8
OBJECT
100
AcDbLine
 10
6.868515029037482
 20
6.219263505947552
 30
0.0
 11
6.931015029037482
 21
6.219263505947552
 31
0.0
  0
LINE
  5
20C
330
17
100
AcDbEntity
  8
OBJECT
100
AcDbLine
 10
5.087265029037482
 20
6.165136918447553
 30
0.0
 11
5.149765029037482
 21
6.165136918447553
 31
0.0
  0
LINE
  5
20D
330
17
100
AcDbEntity
  8
OBJECT
100
AcDbLine
 10
5.274765029037482
 20
6.165136918447553
 30
0.0
 11
5.337265029037482
 21
6.165136918447553
 31
0.0
  0
LINE
  5
20E
330
17
100
AcDbEntity
  8
OBJECT
100
AcDbLine
 10
5.462265029037482
 20
6.165136918447553
 30
0.0
 11
5.524765029037482
 21
6.165136918447553
 31
0.0
  0
LINE
  5
20F
330
17
100
AcDbEntity
  8
OBJECT
100
AcDbLine
 10
5.649765029037482
 20
6.165136918447553
 30
0.0
 11
5.712265029037482
 21
6.165136918447553
 31
0.0
  0
LINE
  5
210
330
17
100
AcDbEntity
  8
OBJECT
100
AcDbLine
 10
5.837265029037482
 20
6.165136918447553
 30
0.0
 11
5.899765029037482
 21
6.165136918447553
 31
0.0
  0
LINE
  5
211
330
17
100
AcDbEntity
  8
OBJECT
100
AcDbLine
 10
6.024765029037482
 20
6.165136918447553
 30
0.0
 11
6.087265029037482
 21
6.165136918447553
 31
0.0
  0
LINE
  5
212
330
17
100
AcDbEntity
  8
OBJECT
100
AcDbLine
 10
6.212265029037482
 20
6.165136918447553
 30
0.0
 11
6.274765029037482
 21
6.165136918447553
 31
0.0
  0
LINE
  5
213
330
17
100
AcDbEntity
  8
OBJECT
100
AcDbLine
 10
6.399765029037482
 20
6.165136918447553
 30
0.0
 11
6.462265029037482
 21
6.165136918447553
 31
0.0
  0
LINE
  5
214
330
17
100
AcDbEntity
  8
OBJECT
100
AcDbLine
 10
6.587265029037482
 20
6.165136918447553
 30
0.0
 11
6.649765029037482
 21
6.165136918447553
 31
0.0
  0
LINE
  5
215
330
17
100
AcDbEntity
  8
OBJECT
100
AcDbLine
 10
6.774765029037482
 20
6.165136918447553
 30
0.0
 11
6.837265029037482
 21
6.165136918447553
 31
0.0
  0
LINE
  5
216
330
17
100
AcDbEntity
  8
OBJECT
100
AcDbLine
 10
6.962265029037482
 20
6.165136918447553
 30
0.0
 11
7.005430699208234
 21
6.165136918447553
 31
0.0
  0
LINE
  5
218
330
17
100
AcDbEntity
  8
OBJECT
100
AcDbLine
 10
5.181015029037482
 20
6.111010330947553
 30
0.0
 11
5.243515029037482
 21
6.111010330947553
 31
0.0
  0
LINE
  5
219
330
17
100
AcDbEntity
  8
OBJECT
100
AcDbLine
 10
5.368515029037482
 20
6.111010330947553
 30
0.0
 11
5.431015029037482
 21
6.111010330947553
 31
0.0
  0
LINE
  5
21A
330
17
100
AcDbEntity
  8
OBJECT
100
AcDbLine
 10
5.556015029037482
 20
6.111010330947553
 30
0.0
 11
5.618515029037482
 21
6.111010330947553
 31
0.0
  0
LINE
  5
21B
330
17
100
AcDbEntity
  8
OBJECT
100
AcDbLine
 10
5.743515029037482
 20
6.111010330947553
 30
0.0
 11
5.806015029037482
 21
6.111010330947553
 31
0.0
  0
LINE
  5
21C
330
17
100
AcDbEntity
  8
OBJECT
100
AcDbLine
 10
5.931015029037482
 20
6.111010330947553
 30
0.0
 11
5.993515029037482
 21
6.111010330947553
 31
0.0
  0
LINE
  5
21D
330
17
100
AcDbEntity
  8
OBJECT
100
AcDbLine
 10
6.118515029037482
 20
6.111010330947553
 30
0.0
 11
6.181015029037482
 21
6.111010330947553
 31
0.0
  0
LINE
  5
21E
330
17
100
AcDbEntity
  8
OBJECT
100
AcDbLine
 10
6.306015029037482
 20
6.111010330947553
 30
0.0
 11
6.368515029037482
 21
6.111010330947553
 31
0.0
  0
LINE
  5
21F
330
17
100
AcDbEntity
  8
OBJECT
100
AcDbLine
 10
6.493515029037482
 20
6.111010330947553
 30
0.0
 11
6.556015029037482
 21
6.111010330947553
 31
0.0
  0
LINE
  5
220
330
17
100
AcDbEntity
  8
OBJECT
100
AcDbLine
 10
6.681015029037482
 20
6.111010330947553
 30
0.0
 11
6.743515029037482
 21
6.111010330947553
 31
0.0
  0
LINE
  5
221
330
17
100
AcDbEntity
  8
OBJECT
100
AcDbLine
 10
6.868515029037482
 20
6.111010330947553
 30
0.0
 11
6.931015029037482
 21
6.111010330947553
 31
0.0
  0
LINE
  5
222
330
17
100
AcDbEntity
  8
OBJECT
100
AcDbLine
 10
5.087265029037482
 20
6.056883743447553
 30
0.0
 11
5.149765029037482
 21
6.056883743447553
 31
0.0
  0
LINE
  5
223
330
17
100
AcDbEntity
  8
OBJECT
100
AcDbLine
 10
5.274765029037482
 20
6.056883743447553
 30
0.0
 11
5.337265029037482
 21
6.056883743447553
 31
0.0
  0
LINE
  5
224
330
17
100
AcDbEntity
  8
OBJECT
100
AcDbLine
 10
5.462265029037482
 20
6.056883743447553
 30
0.0
 11
5.524765029037482
 21
6.056883743447553
 31
0.0
  0
LINE
  5
225
330
17
100
AcDbEntity
  8
OBJECT
100
AcDbLine
 10
5.649765029037482
 20
6.056883743447553
 30
0.0
 11
5.712265029037482
 21
6.056883743447553
 31
0.0
  0
LINE
  5
226
330
17
100
AcDbEntity
  8
OBJECT
100
AcDbLine
 10
5.837265029037482
 20
6.056883743447553
 30
0.0
 11
5.899765029037482
 21
6.056883743447553
 31
0.0
  0
LINE
  5
227
330
17
100
AcDbEntity
  8
OBJECT
100
AcDbLine
 10
6.024765029037482
 20
6.056883743447553
 30
0.0
 11
6.087265029037482
 21
6.056883743447553
 31
0.0
  0
LINE
  5
228
330
17
100
AcDbEntity
  8
OBJECT
100
AcDbLine
 10
6.212265029037482
 20
6.056883743447553
 30
0.0
 11
6.274765029037482
 21
6.056883743447553
 31
0.0
  0
LINE
  5
229
330
17
100
AcDbEntity
  8
OBJECT
100
AcDbLine
 10
6.399765029037482
 20
6.056883743447553
 30
0.0
 11
6.462265029037482
 21
6.056883743447553
 31
0.0
  0
LINE
  5
22A
330
17
100
AcDbEntity
  8
OBJECT
100
AcDbLine
 10
6.587265029037482
 20
6.056883743447553
 30
0.0
 11
6.649765029037482
 21
6.056883743447553
 31
0.0
  0
LINE
  5
22B
330
17
100
AcDbEntity
  8
OBJECT
100
AcDbLine
 10
6.774765029037482
 20
6.056883743447553
 30
0.0
 11
6.837265029037482
 21
6.056883743447553
 31
0.0
  0
LINE
  5
22C
330
17
100
AcDbEntity
  8
OBJECT
100
AcDbLine
 10
6.962265029037482
 20
6.056883743447553
 30
0.0
 11
7.005430699208234
 21
6.056883743447553
 31
0.0
  0
LINE
  5
22E
330
17
100
AcDbEntity
  8
OBJECT
100
AcDbLine
 10
5.181015029037482
 20
6.002757155947552
 30
0.0
 11
5.243515029037482
 21
6.002757155947552
 31
0.0
  0
LINE
  5
22F
330
17
100
AcDbEntity
  8
OBJECT
100
AcDbLine
 10
5.368515029037482
 20
6.002757155947552
 30
0.0
 11
5.431015029037482
 21
6.002757155947552
 31
0.0
  0
LINE
  5
230
330
17
100
AcDbEntity
  8
OBJECT
100
AcDbLine
 10
5.556015029037482
 20
6.002757155947552
 30
0.0
 11
5.618515029037482
 21
6.002757155947552
 31
0.0
  0
LINE
  5
231
330
17
100
AcDbEntity
  8
OBJECT
100
AcDbLine
 10
5.743515029037482
 20
6.002757155947552
 30
0.0
 11
5.806015029037482
 21
6.002757155947552
 31
0.0
  0
LINE
  5
232
330
17
100
AcDbEntity
  8
OBJECT
100
AcDbLine
 10
5.931015029037482
 20
6.002757155947552
 30
0.0
 11
5.993515029037482
 21
6.002757155947552
 31
0.0
  0
LINE
  5
233
330
17
100
AcDbEntity
  8
OBJECT
100
AcDbLine
 10
6.118515029037482
 20
6.002757155947552
 30
0.0
 11
6.181015029037482
 21
6.002757155947552
 31
0.0
  0
LINE
  5
234
330
17
100
AcDbEntity
  8
OBJECT
100
AcDbLine
 10
6.306015029037482
 20
6.002757155947552
 30
0.0
 11
6.368515029037482
 21
6.002757155947552
 31
0.0
  0
LINE
  5
235
330
17
100
AcDbEntity
  8
OBJECT
100
AcDbLine
 10
6.493515029037482
 20
6.002757155947552
 30
0.0
 11
6.556015029037482
 21
6.002757155947552
 31
0.0
  0
LINE
  5
236
330
17
100
AcDbEntity
  8
OBJECT
100
AcDbLine
 10
6.681015029037482
 20
6.002757155947552
 30
0.0
 11
6.743515029037482
 21
6.002757155947552
 31
0.0
  0
LINE
  5
237
330
17
100
AcDbEntity
  8
OBJECT
100
AcDbLine
 10
6.868515029037482
 20
6.002757155947552
 30
0.0
 11
6.931015029037482
 21
6.002757155947552
 31
0.0
  0
LINE
  5
238
330
17
100
AcDbEntity
  8
OBJECT
100
AcDbLine
 10
5.087265029037482
 20
5.948630568447552
 30
0.0
 11
5.149765029037482
 21
5.948630568447552
 31
0.0
  0
LINE
  5
239
330
17
100
AcDbEntity
  8
OBJECT
100
AcDbLine
 10
5.274765029037482
 20
5.948630568447552
 30
0.0
 11
5.337265029037482
 21
5.948630568447552
 31
0.0
  0
LINE
  5
23A
330
17
100
AcDbEntity
  8
OBJECT
100
AcDbLine
 10
5.462265029037482
 20
5.948630568447552
 30
0.0
 11
5.524765029037482
 21
5.948630568447552
 31
0.0
  0
LINE
  5
23B
330
17
100
AcDbEntity
  8
OBJECT
100
AcDbLine
 10
5.649765029037482
 20
5.948630568447552
 30
0.0
 11
5.712265029037482
 21
5.948630568447552
 31
0.0
  0
LINE
  5
23C
330
17
100
AcDbEntity
  8
OBJECT
100
AcDbLine
 10
5.837265029037482
 20
5.948630568447552
 30
0.0
 11
5.899765029037482
 21
5.948630568447552
 31
0.0
  0
LINE
  5
23D
330
17
100
AcDbEntity
  8
OBJECT
100
AcDbLine
 10
6.024765029037482
 20
5.948630568447552
 30
0.0
 11
6.087265029037482
 21
5.948630568447552
 31
0.0
  0
LINE
  5
23E
330
17
100
AcDbEntity
  8
OBJECT
100
AcDbLine
 10
6.212265029037482
 20
5.948630568447552
 30
0.0
 11
6.274765029037482
 21
5.948630568447552
 31
0.0
  0
LINE
  5
23F
330
17
100
AcDbEntity
  8
OBJECT
100
AcDbLine
 10
6.399765029037482
 20
5.948630568447552
 30
0.0
 11
6.462265029037482
 21
5.948630568447552
 31
0.0
  0
LINE
  5
240
330
17
100
AcDbEntity
  8
OBJECT
100
AcDbLine
 10
6.587265029037482
 20
5.948630568447552
 30
0.0
 11
6.649765029037482
 21
5.948630568447552
 31
0.0
  0
LINE
  5
241
330
17
100
AcDbEntity
  8
OBJECT
100
AcDbLine
 10
6.774765029037482
 20
5.948630568447552
 30
0.0
 11
6.837265029037482
 21
5.948630568447552
 31
0.0
  0
LINE
  5
242
330
17
100
AcDbEntity
  8
OBJECT
100
AcDbLine
 10
6.962265029037482
 20
5.948630568447552
 30
0.0
 11
7.005430699208234
 21
5.948630568447552
 31
0.0
  0
LINE
  5
244
330
17
100
AcDbEntity
  8
OBJECT
100
AcDbLine
 10
5.181015029037482
 20
5.894503980947552
 30
0.0
 11
5.243515029037482
 21
5.894503980947552
 31
0.0
  0
LINE
  5
245
330
17
100
AcDbEntity
  8
OBJECT
100
AcDbLine
 10
5.368515029037482
 20
5.894503980947552
 30
0.0
 11
5.431015029037482
 21
5.894503980947552
 31
0.0
  0
LINE
  5
246
330
17
100
AcDbEntity
  8
OBJECT
100
AcDbLine
 10
5.556015029037482
 20
5.894503980947552
 30
0.0
 11
5.618515029037482
 21
5.894503980947552
 31
0.0
  0
LINE
  5
247
330
17
100
AcDbEntity
  8
OBJECT
100
AcDbLine
 10
5.743515029037482
 20
5.894503980947552
 30
0.0
 11
5.806015029037482
 21
5.894503980947552
 31
0.0
  0
LINE
  5
248
330
17
100
AcDbEntity
  8
OBJECT
100
AcDbLine
 10
5.931015029037482
 20
5.894503980947552
 30
0.0
 11
5.993515029037482
 21
5.894503980947552
 31
0.0
  0
LINE
  5
249
330
17
100
AcDbEntity
  8
OBJECT
100
AcDbLine
 10
6.118515029037482
 20
5.894503980947552
 30
0.0
 11
6.181015029037482
 21
5.894503980947552
 31
0.0
  0
LINE
  5
24A
330
17
100
AcDbEntity
  8
OBJECT
100
AcDbLine
 10
6.306015029037482
 20
5.894503980947552
 30
0.0
 11
6.368515029037482
 21
5.894503980947552
 31
0.0
  0
LINE
  5
24B
330
17
100
AcDbEntity
  8
OBJECT
100
AcDbLine
 10
6.493515029037482
 20
5.894503980947552
 30
0.0
 11
6.556015029037482
 21
5.894503980947552
 31
0.0
  0
LINE
  5
24C
330
17
100
AcDbEntity
  8
OBJECT
100
AcDbLine
 10
6.681015029037482
 20
5.894503980947552
 30
0.0
 11
6.743515029037482
 21
5.894503980947552
 31
0.0
  0
LINE
  5
24D
330
17
100
AcDbEntity
  8
OBJECT
100
AcDbLine
 10
6.868515029037482
 20
5.894503980947552
 30
0.0
 11
6.931015029037482
 21
5.894503980947552
 31
0.0
  0
LINE
  5
24E
330
17
100
AcDbEntity
  8
OBJECT
100
AcDbLine
 10
5.087265029037482
 20
5.840377393447552
 30
0.0
 11
5.149765029037482
 21
5.840377393447552
 31
0.0
  0
LINE
  5
24F
330
17
100
AcDbEntity
  8
OBJECT
100
AcDbLine
 10
5.274765029037482
 20
5.840377393447552
 30
0.0
 11
5.337265029037482
 21
5.840377393447552
 31
0.0
  0
LINE
  5
250
330
17
100
AcDbEntity
  8
OBJECT
100
AcDbLine
 10
5.462265029037482
 20
5.840377393447552
 30
0.0
 11
5.524765029037482
 21
5.840377393447552
 31
0.0
  0
LINE
  5
251
330
17
100
AcDbEntity
  8
OBJECT
100
AcDbLine
 10
5.649765029037482
 20
5.840377393447552
 30
0.0
 11
5.712265029037482
 21
5.840377393447552
 31
0.0
  0
LINE
  5
252
330
17
100
AcDbEntity
  8
OBJECT
100
AcDbLine
 10
5.837265029037482
 20
5.840377393447552
 30
0.0
 11
5.899765029037482
 21
5.840377393447552
 31
0.0
  0
LINE
  5
253
330
17
100
AcDbEntity
  8
OBJECT
100
AcDbLine
 10
6.024765029037482
 20
5.840377393447552
 30
0.0
 11
6.087265029037482
 21
5.840377393447552
 31
0.0
  0
LINE
  5
254
330
17
100
AcDbEntity
  8
OBJECT
100
AcDbLine
 10
6.212265029037482
 20
5.840377393447552
 30
0.0
 11
6.274765029037482
 21
5.840377393447552
 31
0.0
  0
LINE
  5
255
330
17
100
AcDbEntity
  8
OBJECT
100
AcDbLine
 10
6.399765029037482
 20
5.840377393447552
 30
0.0
 11
6.462265029037482
 21
5.840377393447552
 31
0.0
  0
LINE
  5
256
330
17
100
AcDbEntity
  8
OBJECT
100
AcDbLine
 10
6.587265029037482
 20
5.840377393447552
 30
0.0
 11
6.649765029037482
 21
5.840377393447552
 31
0.0
  0
LINE
  5
257
330
17
100
AcDbEntity
  8
OBJECT
100
AcDbLine
 10
6.774765029037482
 20
5.840377393447552
 30
0.0
 11
6.837265029037482
 21
5.840377393447552
 31
0.0
  0
LINE
  5
258
330
17
100
AcDbEntity
  8
OBJECT
100
AcDbLine
 10
6.962265029037482
 20
5.840377393447552
 30
0.0
 11
7.005430699208234
 21
5.840377393447552
 31
0.0
  0
LINE
  5
25A
330
17
100
AcDbEntity
  8
OBJECT
100
AcDbLine
 10
5.181015029037482
 20
5.786250805947553
 30
0.0
 11
5.243515029037482
 21
5.786250805947553
 31
0.0
  0
LINE
  5
25B
330
17
100
AcDbEntity
  8
OBJECT
100
AcDbLine
 10
5.368515029037482
 20
5.786250805947553
 30
0.0
 11
5.431015029037482
 21
5.786250805947553
 31
0.0
  0
LINE
  5
25C
330
17
100
AcDbEntity
  8
OBJECT
100
AcDbLine
 10
5.556015029037482
 20
5.786250805947553
 30
0.0
 11
5.618515029037482
 21
5.786250805947553
 31
0.0
  0
LINE
  5
25D
330
17
100
AcDbEntity
  8
OBJECT
100
AcDbLine
 10
5.743515029037482
 20
5.786250805947553
 30
0.0
 11
5.806015029037482
 21
5.786250805947553
 31
0.0
  0
LINE
  5
25E
330
17
100
AcDbEntity
  8
OBJECT
100
AcDbLine
 10
5.931015029037482
 20
5.786250805947553
 30
0.0
 11
5.993515029037482
 21
5.786250805947553
 31
0.0
  0
LINE
  5
25F
330
17
100
AcDbEntity
  8
OBJECT
100
AcDbLine
 10
6.118515029037482
 20
5.786250805947553
 30
0.0
 11
6.181015029037482
 21
5.786250805947553
 31
0.0
  0
LINE
  5
260
330
17
100
AcDbEntity
  8
OBJECT
100
AcDbLine
 10
6.306015029037482
 20
5.786250805947553
 30
0.0
 11
6.368515029037482
 21
5.786250805947553
 31
0.0
  0
LINE
  5
261
330
17
100
AcDbEntity
  8
OBJECT
100
AcDbLine
 10
6.493515029037482
 20
5.786250805947553
 30
0.0
 11
6.556015029037482
 21
5.786250805947553
 31
0.0
  0
LINE
  5
262
330
17
100
AcDbEntity
  8
OBJECT
100
AcDbLine
 10
6.681015029037482
 20
5.786250805947553
 30
0.0
 11
6.743515029037482
 21
5.786250805947553
 31
0.0
  0
LINE
  5
263
330
17
100
AcDbEntity
  8
OBJECT
100
AcDbLine
 10
6.868515029037482
 20
5.786250805947553
 30
0.0
 11
6.931015029037482
 21
5.786250805947553
 31
0.0
  0
LINE
  5
264
330
17
100
AcDbEntity
  8
OBJECT
100
AcDbLine
 10
5.087265029037482
 20
5.732124218447553
 30
0.0
 11
5.149765029037482
 21
5.732124218447553
 31
0.0
  0
LINE
  5
265
330
17
100
AcDbEntity
  8
OBJECT
100
AcDbLine
 10
5.274765029037482
 20
5.732124218447553
 30
0.0
 11
5.337265029037482
 21
5.732124218447553
 31
0.0
  0
LINE
  5
266
330
17
100
AcDbEntity
  8
OBJECT
100
AcDbLine
 10
5.462265029037482
 20
5.732124218447553
 30
0.0
 11
5.524765029037482
 21
5.732124218447553
 31
0.0
  0
LINE
  5
267
330
17
100
AcDbEntity
  8
OBJECT
100
AcDbLine
 10
5.649765029037482
 20
5.732124218447553
 30
0.0
 11
5.712265029037482
 21
5.732124218447553
 31
0.0
  0
LINE
  5
268
330
17
100
AcDbEntity
  8
OBJECT
100
AcDbLine
 10
5.837265029037482
 20
5.732124218447553
 30
0.0
 11
5.899765029037482
 21
5.732124218447553
 31
0.0
  0
LINE
  5
269
330
17
100
AcDbEntity
  8
OBJECT
100
AcDbLine
 10
6.024765029037482
 20
5.732124218447553
 30
0.0
 11
6.087265029037482
 21
5.732124218447553
 31
0.0
  0
LINE
  5
26A
330
17
100
AcDbEntity
  8
OBJECT
100
AcDbLine
 10
6.212265029037482
 20
5.732124218447553
 30
0.0
 11
6.274765029037482
 21
5.732124218447553
 31
0.0
  0
LINE
  5
26B
330
17
100
AcDbEntity
  8
OBJECT
100
AcDbLine
 10
6.399765029037482
 20
5.732124218447553
 30
0.0
 11
6.462265029037482
 21
5.732124218447553
 31
0.0
  0
LINE
  5
26C
330
17
100
AcDbEntity
  8
OBJECT
100
AcDbLine
 10
6.587265029037482
 20
5.732124218447553
 30
0.0
 11
6.649765029037482
 21
5.732124218447553
 31
0.0
  0
LINE
  5
26D
330
17
100
AcDbEntity
  8
OBJECT
100
AcDbLine
 10
6.774765029037482
 20
5.732124218447553
 30
0.0
 11
6.837265029037482
 21
5.732124218447553
 31
0.0
  0
LINE
  5
26E
330
17
100
AcDbEntity
  8
OBJECT
100
AcDbLine
 10
6.962265029037482
 20
5.732124218447553
 30
0.0
 11
7.005430699208234
 21
5.732124218447553
 31
0.0
  0
LINE
  5
270
330
17
100
AcDbEntity
  8
OBJECT
100
AcDbLine
 10
5.181015029037482
 20
5.677997630947553
 30
0.0
 11
5.243515029037482
 21
5.677997630947553
 31
0.0
  0
LINE
  5
271
330
17
100
AcDbEntity
  8
OBJECT
100
AcDbLine
 10
5.368515029037482
 20
5.677997630947553
 30
0.0
 11
5.431015029037482
 21
5.677997630947553
 31
0.0
  0
LINE
  5
272
330
17
100
AcDbEntity
  8
OBJECT
100
AcDbLine
 10
5.556015029037482
 20
5.677997630947553
 30
0.0
 11
5.618515029037482
 21
5.677997630947553
 31
0.0
  0
LINE
  5
273
330
17
100
AcDbEntity
  8
OBJECT
100
AcDbLine
 10
5.743515029037482
 20
5.677997630947553
 30
0.0
 11
5.806015029037482
 21
5.677997630947553
 31
0.0
  0
LINE
  5
274
330
17
100
AcDbEntity
  8
OBJECT
100
AcDbLine
 10
5.931015029037482
 20
5.677997630947553
 30
0.0
 11
5.993515029037482
 21
5.677997630947553
 31
0.0
  0
LINE
  5
275
330
17
100
AcDbEntity
  8
OBJECT
100
AcDbLine
 10
6.118515029037482
 20
5.677997630947553
 30
0.0
 11
6.181015029037482
 21
5.677997630947553
 31
0.0
  0
LINE
  5
276
330
17
100
AcDbEntity
  8
OBJECT
100
AcDbLine
 10
6.306015029037482
 20
5.677997630947553
 30
0.0
 11
6.368515029037482
 21
5.677997630947553
 31
0.0
  0
LINE
  5
277
330
17
100
AcDbEntity
  8
OBJECT
100
AcDbLine
 10
6.493515029037482
 20
5.677997630947553
 30
0.0
 11
6.556015029037482
 21
5.677997630947553
 31
0.0
  0
LINE
  5
278
330
17
100
AcDbEntity
  8
OBJECT
100
AcDbLine
 10
6.681015029037482
 20
5.677997630947553
 30
0.0
 11
6.743515029037482
 21
5.677997630947553
 31
0.0
  0
LINE
  5
279
330
17
100
AcDbEntity
  8
OBJECT
100
AcDbLine
 10
6.868515029037482
 20
5.677997630947553
 30
0.0
 11
6.931015029037482
 21
5.677997630947553
 31
0.0
  0
LINE
  5
27A
330
17
100
AcDbEntity
  8
OBJECT
100
AcDbLine
 10
5.087265029037482
 20
5.623871043447553
 30
0.0
 11
5.149765029037482
 21
5.623871043447553
 31
0.0
  0
LINE
  5
27B
330
17
100
AcDbEntity
  8
OBJECT
100
AcDbLine
 10
5.274765029037482
 20
5.623871043447553
 30
0.0
 11
5.337265029037482
 21
5.623871043447553
 31
0.0
  0
LINE
  5
27C
330
17
100
AcDbEntity
  8
OBJECT
100
AcDbLine
 10
5.462265029037482
 20
5.623871043447553
 30
0.0
 11
5.524765029037482
 21
5.623871043447553
 31
0.0
  0
LINE
  5
27D
330
17
100
AcDbEntity
  8
OBJECT
100
AcDbLine
 10
5.649765029037482
 20
5.623871043447553
 30
0.0
 11
5.712265029037482
 21
5.623871043447553
 31
0.0
  0
LINE
  5
27E
330
17
100
AcDbEntity
  8
OBJECT
100
AcDbLine
 10
5.837265029037482
 20
5.623871043447553
 30
0.0
 11
5.899765029037482
 21
5.623871043447553
 31
0.0
  0
LINE
  5
27F
330
17
100
AcDbEntity
  8
OBJECT
100
AcDbLine
 10
6.024765029037482
 20
5.623871043447553
 30
0.0
 11
6.087265029037482
 21
5.623871043447553
 31
0.0
  0
LINE
  5
280
330
17
100
AcDbEntity
  8
OBJECT
100
AcDbLine
 10
6.212265029037482
 20
5.623871043447553
 30
0.0
 11
6.274765029037482
 21
5.623871043447553
 31
0.0
  0
LINE
  5
281
330
17
100
AcDbEntity
  8
OBJECT
100
AcDbLine
 10
6.399765029037482
 20
5.623871043447553
 30
0.0
 11
6.462265029037482
 21
5.623871043447553
 31
0.0
  0
LINE
  5
282
330
17
100
AcDbEntity
  8
OBJECT
100
AcDbLine
 10
6.587265029037482
 20
5.623871043447553
 30
0.0
 11
6.649765029037482
 21
5.623871043447553
 31
0.0
  0
LINE
  5
283
330
17
100
AcDbEntity
  8
OBJECT
100
AcDbLine
 10
6.774765029037482
 20
5.623871043447553
 30
0.0
 11
6.837265029037482
 21
5.623871043447553
 31
0.0
  0
LINE
  5
284
330
17
100
AcDbEntity
  8
OBJECT
100
AcDbLine
 10
6.962265029037482
 20
5.623871043447553
 30
0.0
 11
7.005430699208234
 21
5.623871043447553
 31
0.0
  0
LINE
  5
286
330
17
100
AcDbEntity
  8
OBJECT
100
AcDbLine
 10
5.181015029037482
 20
5.569744455947552
 30
0.0
 11
5.243515029037482
 21
5.569744455947552
 31
0.0
  0
LINE
  5
287
330
17
100
AcDbEntity
  8
OBJECT
100
AcDbLine
 10
5.368515029037482
 20
5.569744455947552
 30
0.0
 11
5.431015029037482
 21
5.569744455947552
 31
0.0
  0
LINE
  5
288
330
17
100
AcDbEntity
  8
OBJECT
100
AcDbLine
 10
5.556015029037482
 20
5.569744455947552
 30
0.0
 11
5.618515029037482
 21
5.569744455947552
 31
0.0
  0
LINE
  5
289
330
17
100
AcDbEntity
  8
OBJECT
100
AcDbLine
 10
5.743515029037482
 20
5.569744455947552
 30
0.0
 11
5.806015029037482
 21
5.569744455947552
 31
0.0
  0
LINE
  5
28A
330
17
100
AcDbEntity
  8
OBJECT
100
AcDbLine
 10
5.931015029037482
 20
5.569744455947552
 30
0.0
 11
5.993515029037482
 21
5.569744455947552
 31
0.0
  0
LINE
  5
28B
330
17
100
AcDbEntity
  8
OBJECT
100
AcDbLine
 10
6.118515029037482
 20
5.569744455947552
 30
0.0
 11
6.181015029037482
 21
5.569744455947552
 31
0.0
  0
LINE
  5
28C
330
17
100
AcDbEntity
  8
OBJECT
100
AcDbLine
 10
6.306015029037482
 20
5.569744455947552
 30
0.0
 11
6.368515029037482
 21
5.569744455947552
 31
0.0
  0
LINE
  5
28D
330
17
100
AcDbEntity
  8
OBJECT
100
AcDbLine
 10
6.493515029037482
 20
5.569744455947552
 30
0.0
 11
6.556015029037482
 21
5.569744455947552
 31
0.0
  0
LINE
  5
28E
330
17
100
AcDbEntity
  8
OBJECT
100
AcDbLine
 10
6.681015029037482
 20
5.569744455947552
 30
0.0
 11
6.743515029037482
 21
5.569744455947552
 31
0.0
  0
LINE
  5
28F
330
17
100
AcDbEntity
  8
OBJECT
100
AcDbLine
 10
6.868515029037482
 20
5.569744455947552
 30
0.0
 11
6.931015029037482
 21
5.569744455947552
 31
0.0
  0
LINE
  5
290
330
17
100
AcDbEntity
  8
OBJECT
100
AcDbLine
 10
5.087265029037482
 20
5.515617868447552
 30
0.0
 11
5.149765029037482
 21
5.515617868447552
 31
0.0
  0
LINE
  5
291
330
17
100
AcDbEntity
  8
OBJECT
100
AcDbLine
 10
5.274765029037482
 20
5.515617868447552
 30
0.0
 11
5.337265029037482
 21
5.515617868447552
 31
0.0
  0
LINE
  5
292
330
17
100
AcDbEntity
  8
OBJECT
100
AcDbLine
 10
5.462265029037482
 20
5.515617868447552
 30
0.0
 11
5.524765029037482
 21
5.515617868447552
 31
0.0
  0
LINE
  5
293
330
17
100
AcDbEntity
  8
OBJECT
100
AcDbLine
 10
5.649765029037482
 20
5.515617868447552
 30
0.0
 11
5.712265029037482
 21
5.515617868447552
 31
0.0
  0
LINE
  5
294
330
17
100
AcDbEntity
  8
OBJECT
100
AcDbLine
 10
5.837265029037482
 20
5.515617868447552
 30
0.0
 11
5.899765029037482
 21
5.515617868447552
 31
0.0
  0
LINE
  5
295
330
17
100
AcDbEntity
  8
OBJECT
100
AcDbLine
 10
6.024765029037482
 20
5.515617868447552
 30
0.0
 11
6.087265029037482
 21
5.515617868447552
 31
0.0
  0
LINE
  5
296
330
17
100
AcDbEntity
  8
OBJECT
100
AcDbLine
 10
6.212265029037482
 20
5.515617868447552
 30
0.0
 11
6.274765029037482
 21
5.515617868447552
 31
0.0
  0
LINE
  5
297
330
17
100
AcDbEntity
  8
OBJECT
100
AcDbLine
 10
6.399765029037482
 20
5.515617868447552
 30
0.0
 11
6.462265029037482
 21
5.515617868447552
 31
0.0
  0
LINE
  5
298
330
17
100
AcDbEntity
  8
OBJECT
100
AcDbLine
 10
6.587265029037482
 20
5.515617868447552
 30
0.0
 11
6.649765029037482
 21
5.515617868447552
 31
0.0
  0
LINE
  5
299
330
17
100
AcDbEntity
  8
OBJECT
100
AcDbLine
 10
6.774765029037482
 20
5.515617868447552
 30
0.0
 11
6.837265029037482
 21
5.515617868447552
 31
0.0
  0
LINE
  5
29A
330
17
100
AcDbEntity
  8
OBJECT
100
AcDbLine
 10
6.962265029037482
 20
5.515617868447552
 30
0.0
 11
7.005430699208234
 21
5.515617868447552
 31
0.0
  0
LINE
  5
29C
330
17
100
AcDbEntity
  8
OBJECT
100
AcDbLine
 10
5.181015029037482
 20
5.461491280947552
 30
0.0
 11
5.243515029037482
 21
5.461491280947552
 31
0.0
  0
LINE
  5
29D
330
17
100
AcDbEntity
  8
OBJECT
100
AcDbLine
 10
5.368515029037482
 20
5.461491280947552
 30
0.0
 11
5.431015029037482
 21
5.461491280947552
 31
0.0
  0
LINE
  5
29E
330
17
100
AcDbEntity
  8
OBJECT
100
AcDbLine
 10
5.556015029037482
 20
5.461491280947552
 30
0.0
 11
5.618515029037482
 21
5.461491280947552
 31
0.0
  0
LINE
  5
29F
330
17
100
AcDbEntity
  8
OBJECT
100
AcDbLine
 10
5.743515029037482
 20
5.461491280947552
 30
0.0
 11
5.806015029037482
 21
5.461491280947552
 31
0.0
  0
LINE
  5
2A0
330
17
100
AcDbEntity
  8
OBJECT
100
AcDbLine
 10
5.931015029037482
 20
5.461491280947552
 30
0.0
 11
5.993515029037482
 21
5.461491280947552
 31
0.0
  0
LINE
  5
2A1
330
17
100
AcDbEntity
  8
OBJECT
100
AcDbLine
 10
6.118515029037482
 20
5.461491280947552
 30
0.0
 11
6.181015029037482
 21
5.461491280947552
 31
0.0
  0
LINE
  5
2A2
330
17
100
AcDbEntity
  8
OBJECT
100
AcDbLine
 10
6.306015029037482
 20
5.461491280947552
 30
0.0
 11
6.368515029037482
 21
5.461491280947552
 31
0.0
  0
LINE
  5
2A3
330
17
100
AcDbEntity
  8
OBJECT
100
AcDbLine
 10
6.493515029037482
 20
5.461491280947552
 30
0.0
 11
6.556015029037482
 21
5.461491280947552
 31
0.0
  0
LINE
  5
2A4
330
17
100
AcDbEntity
  8
OBJECT
100
AcDbLine
 10
6.681015029037482
 20
5.461491280947552
 30
0.0
 11
6.743515029037482
 21
5.461491280947552
 31
0.0
  0
LINE
  5
2A5
330
17
100
AcDbEntity
  8
OBJECT
100
AcDbLine
 10
6.868515029037482
 20
5.461491280947552
 30
0.0
 11
6.931015029037482
 21
5.461491280947552
 31
0.0
  0
LINE
  5
2A6
330
17
100
AcDbEntity
  8
OBJECT
100
AcDbLine
 10
5.087265029037482
 20
5.407364693447552
 30
0.0
 11
5.149765029037482
 21
5.407364693447552
 31
0.0
  0
LINE
  5
2A7
330
17
100
AcDbEntity
  8
OBJECT
100
AcDbLine
 10
5.274765029037482
 20
5.407364693447552
 30
0.0
 11
5.337265029037482
 21
5.407364693447552
 31
0.0
  0
LINE
  5
2A8
330
17
100
AcDbEntity
  8
OBJECT
100
AcDbLine
 10
5.462265029037482
 20
5.407364693447552
 30
0.0
 11
5.524765029037482
 21
5.407364693447552
 31
0.0
  0
LINE
  5
2A9
330
17
100
AcDbEntity
  8
OBJECT
100
AcDbLine
 10
5.649765029037482
 20
5.407364693447552
 30
0.0
 11
5.712265029037482
 21
5.407364693447552
 31
0.0
  0
LINE
  5
2AA
330
17
100
AcDbEntity
  8
OBJECT
100
AcDbLine
 10
5.837265029037482
 20
5.407364693447552
 30
0.0
 11
5.899765029037482
 21
5.407364693447552
 31
0.0
  0
LINE
  5
2AB
330
17
100
AcDbEntity
  8
OBJECT
100
AcDbLine
 10
6.024765029037482
 20
5.407364693447552
 30
0.0
 11
6.087265029037482
 21
5.407364693447552
 31
0.0
  0
LINE
  5
2AC
330
17
100
AcDbEntity
  8
OBJECT
100
AcDbLine
 10
6.212265029037482
 20
5.407364693447552
 30
0.0
 11
6.274765029037482
 21
5.407364693447552
 31
0.0
  0
LINE
  5
2AD
330
17
100
AcDbEntity
  8
OBJECT
100
AcDbLine
 10
6.399765029037482
 20
5.407364693447552
 30
0.0
 11
6.462265029037482
 21
5.407364693447552
 31
0.0
  0
LINE
  5
2AE
330
17
100
AcDbEntity
  8
OBJECT
100
AcDbLine
 10
6.587265029037482
 20
5.407364693447552
 30
0.0
 11
6.649765029037482
 21
5.407364693447552
 31
0.0
  0
LINE
  5
2AF
330
17
100
AcDbEntity
  8
OBJECT
100
AcDbLine
 10
6.774765029037482
 20
5.407364693447552
 30
0.0
 11
6.837265029037482
 21
5.407364693447552
 31
0.0
  0
LINE
  5
2B0
330
17
100
AcDbEntity
  8
OBJECT
100
AcDbLine
 10
6.962265029037482
 20
5.407364693447552
 30
0.0
 11
7.005430699208234
 21
5.407364693447552
 31
0.0
  0
LINE
  5
2B2
330
17
100
AcDbEntity
  8
OBJECT
100
AcDbLine
 10
5.181015029037482
 20
5.353238105947553
 30
0.0
 11
5.243515029037482
 21
5.353238105947553
 31
0.0
  0
LINE
  5
2B3
330
17
100
AcDbEntity
  8
OBJECT
100
AcDbLine
 10
5.368515029037482
 20
5.353238105947553
 30
0.0
 11
5.431015029037482
 21
5.353238105947553
 31
0.0
  0
LINE
  5
2B4
330
17
100
AcDbEntity
  8
OBJECT
100
AcDbLine
 10
5.556015029037482
 20
5.353238105947553
 30
0.0
 11
5.618515029037482
 21
5.353238105947553
 31
0.0
  0
LINE
  5
2B5
330
17
100
AcDbEntity
  8
OBJECT
100
AcDbLine
 10
5.743515029037482
 20
5.353238105947553
 30
0.0
 11
5.806015029037482
 21
5.353238105947553
 31
0.0
  0
LINE
  5
2B6
330
17
100
AcDbEntity
  8
OBJECT
100
AcDbLine
 10
5.931015029037482
 20
5.353238105947553
 30
0.0
 11
5.993515029037482
 21
5.353238105947553
 31
0.0
  0
LINE
  5
2B7
330
17
100
AcDbEntity
  8
OBJECT
100
AcDbLine
 10
6.118515029037482
 20
5.353238105947553
 30
0.0
 11
6.181015029037482
 21
5.353238105947553
 31
0.0
  0
LINE
  5
2B8
330
17
100
AcDbEntity
  8
OBJECT
100
AcDbLine
 10
6.306015029037482
 20
5.353238105947553
 30
0.0
 11
6.368515029037482
 21
5.353238105947553
 31
0.0
  0
LINE
  5
2B9
330
17
100
AcDbEntity
  8
OBJECT
100
AcDbLine
 10
6.493515029037482
 20
5.353238105947553
 30
0.0
 11
6.556015029037482
 21
5.353238105947553
 31
0.0
  0
LINE
  5
2BA
330
17
100
AcDbEntity
  8
OBJECT
100
AcDbLine
 10
6.681015029037482
 20
5.353238105947553
 30
0.0
 11
6.743515029037482
 21
5.353238105947553
 31
0.0
  0
LINE
  5
2BB
330
17
100
AcDbEntity
  8
OBJECT
100
AcDbLine
 10
6.868515029037482
 20
5.353238105947553
 30
0.0
 11
6.931015029037482
 21
5.353238105947553
 31
0.0
  0
LINE
  5
2BC
330
17
100
AcDbEntity
  8
OBJECT
100
AcDbLine
 10
5.087265029037482
 20
5.299111518447553
 30
0.0
 11
5.149765029037482
 21
5.299111518447553
 31
0.0
  0
LINE
  5
2BD
330
17
100
AcDbEntity
  8
OBJECT
100
AcDbLine
 10
5.274765029037482
 20
5.299111518447553
 30
0.0
 11
5.337265029037482
 21
5.299111518447553
 31
0.0
  0
LINE
  5
2BE
330
17
100
AcDbEntity
  8
OBJECT
100
AcDbLine
 10
5.462265029037482
 20
5.299111518447553
 30
0.0
 11
5.524765029037482
 21
5.299111518447553
 31
0.0
  0
LINE
  5
2BF
330
17
100
AcDbEntity
  8
OBJECT
100
AcDbLine
 10
5.649765029037482
 20
5.299111518447553
 30
0.0
 11
5.712265029037482
 21
5.299111518447553
 31
0.0
  0
LINE
  5
2C0
330
17
100
AcDbEntity
  8
OBJECT
100
AcDbLine
 10
5.837265029037482
 20
5.299111518447553
 30
0.0
 11
5.899765029037482
 21
5.299111518447553
 31
0.0
  0
LINE
  5
2C1
330
17
100
AcDbEntity
  8
OBJECT
100
AcDbLine
 10
6.024765029037482
 20
5.299111518447553
 30
0.0
 11
6.087265029037482
 21
5.299111518447553
 31
0.0
  0
LINE
  5
2C2
330
17
100
AcDbEntity
  8
OBJECT
100
AcDbLine
 10
6.212265029037482
 20
5.299111518447553
 30
0.0
 11
6.274765029037482
 21
5.299111518447553
 31
0.0
  0
LINE
  5
2C3
330
17
100
AcDbEntity
  8
OBJECT
100
AcDbLine
 10
6.399765029037482
 20
5.299111518447553
 30
0.0
 11
6.462265029037482
 21
5.299111518447553
 31
0.0
  0
LINE
  5
2C4
330
17
100
AcDbEntity
  8
OBJECT
100
AcDbLine
 10
6.587265029037482
 20
5.299111518447553
 30
0.0
 11
6.649765029037482
 21
5.299111518447553
 31
0.0
  0
LINE
  5
2C5
330
17
100
AcDbEntity
  8
OBJECT
100
AcDbLine
 10
6.774765029037482
 20
5.299111518447553
 30
0.0
 11
6.837265029037482
 21
5.299111518447553
 31
0.0
  0
LINE
  5
2C6
330
17
100
AcDbEntity
  8
OBJECT
100
AcDbLine
 10
6.962265029037482
 20
5.299111518447553
 30
0.0
 11
7.005430699208234
 21
5.299111518447553
 31
0.0
  0
LINE
  5
2C8
330
17
100
AcDbEntity
  8
OBJECT
100
AcDbLine
 10
5.181015029037482
 20
5.244984930947553
 30
0.0
 11
5.243515029037482
 21
5.244984930947553
 31
0.0
  0
LINE
  5
2C9
330
17
100
AcDbEntity
  8
OBJECT
100
AcDbLine
 10
5.368515029037482
 20
5.244984930947553
 30
0.0
 11
5.431015029037482
 21
5.244984930947553
 31
0.0
  0
LINE
  5
2CA
330
17
100
AcDbEntity
  8
OBJECT
100
AcDbLine
 10
5.556015029037482
 20
5.244984930947553
 30
0.0
 11
5.618515029037482
 21
5.244984930947553
 31
0.0
  0
LINE
  5
2CB
330
17
100
AcDbEntity
  8
OBJECT
100
AcDbLine
 10
5.743515029037482
 20
5.244984930947553
 30
0.0
 11
5.806015029037482
 21
5.244984930947553
 31
0.0
  0
LINE
  5
2CC
330
17
100
AcDbEntity
  8
OBJECT
100
AcDbLine
 10
5.931015029037482
 20
5.244984930947553
 30
0.0
 11
5.993515029037482
 21
5.244984930947553
 31
0.0
  0
LINE
  5
2CD
330
17
100
AcDbEntity
  8
OBJECT
100
AcDbLine
 10
6.118515029037482
 20
5.244984930947553
 30
0.0
 11
6.181015029037482
 21
5.244984930947553
 31
0.0
  0
LINE
  5
2CE
330
17
100
AcDbEntity
  8
OBJECT
100
AcDbLine
 10
6.306015029037482
 20
5.244984930947553
 30
0.0
 11
6.368515029037482
 21
5.244984930947553
 31
0.0
  0
LINE
  5
2CF
330
17
100
AcDbEntity
  8
OBJECT
100
AcDbLine
 10
6.493515029037482
 20
5.244984930947553
 30
0.0
 11
6.556015029037482
 21
5.244984930947553
 31
0.0
  0
LINE
  5
2D0
330
17
100
AcDbEntity
  8
OBJECT
100
AcDbLine
 10
6.681015029037482
 20
5.244984930947553
 30
0.0
 11
6.743515029037482
 21
5.244984930947553
 31
0.0
  0
LINE
  5
2D1
330
17
100
AcDbEntity
  8
OBJECT
100
AcDbLine
 10
6.868515029037482
 20
5.244984930947553
 30
0.0
 11
6.931015029037482
 21
5.244984930947553
 31
0.0
  0
LINE
  5
2D2
330
17
100
AcDbEntity
  8
OBJECT
100
AcDbLine
 10
5.087265029037482
 20
5.190858343447552
 30
0.0
 11
5.149765029037482
 21
5.190858343447552
 31
0.0
  0
LINE
  5
2D3
330
17
100
AcDbEntity
  8
OBJECT
100
AcDbLine
 10
5.274765029037482
 20
5.190858343447552
 30
0.0
 11
5.337265029037482
 21
5.190858343447552
 31
0.0
  0
LINE
  5
2D4
330
17
100
AcDbEntity
  8
OBJECT
100
AcDbLine
 10
5.462265029037482
 20
5.190858343447552
 30
0.0
 11
5.524765029037482
 21
5.190858343447552
 31
0.0
  0
LINE
  5
2D5
330
17
100
AcDbEntity
  8
OBJECT
100
AcDbLine
 10
5.649765029037482
 20
5.190858343447552
 30
0.0
 11
5.712265029037482
 21
5.190858343447552
 31
0.0
  0
LINE
  5
2D6
330
17
100
AcDbEntity
  8
OBJECT
100
AcDbLine
 10
5.837265029037482
 20
5.190858343447552
 30
0.0
 11
5.899765029037482
 21
5.190858343447552
 31
0.0
  0
LINE
  5
2D7
330
17
100
AcDbEntity
  8
OBJECT
100
AcDbLine
 10
6.024765029037482
 20
5.190858343447552
 30
0.0
 11
6.087265029037482
 21
5.190858343447552
 31
0.0
  0
LINE
  5
2D8
330
17
100
AcDbEntity
  8
OBJECT
100
AcDbLine
 10
6.212265029037482
 20
5.190858343447552
 30
0.0
 11
6.274765029037482
 21
5.190858343447552
 31
0.0
  0
LINE
  5
2D9
330
17
100
AcDbEntity
  8
OBJECT
100
AcDbLine
 10
6.399765029037482
 20
5.190858343447552
 30
0.0
 11
6.462265029037482
 21
5.190858343447552
 31
0.0
  0
LINE
  5
2DA
330
17
100
AcDbEntity
  8
OBJECT
100
AcDbLine
 10
6.587265029037482
 20
5.190858343447552
 30
0.0
 11
6.649765029037482
 21
5.190858343447552
 31
0.0
  0
LINE
  5
2DB
330
17
100
AcDbEntity
  8
OBJECT
100
AcDbLine
 10
6.774765029037482
 20
5.190858343447552
 30
0.0
 11
6.837265029037482
 21
5.190858343447552
 31
0.0
  0
LINE
  5
2DC
330
17
100
AcDbEntity
  8
OBJECT
100
AcDbLine
 10
6.962265029037482
 20
5.190858343447552
 30
0.0
 11
7.005430699208234
 21
5.190858343447552
 31
0.0
  0
LINE
  5
2DE
330
17
100
AcDbEntity
  8
OBJECT
100
AcDbLine
 10
5.181015029037482
 20
5.136731755947552
 30
0.0
 11
5.243515029037482
 21
5.136731755947552
 31
0.0
  0
LINE
  5
2DF
330
17
100
AcDbEntity
  8
OBJECT
100
AcDbLine
 10
5.368515029037482
 20
5.136731755947552
 30
0.0
 11
5.431015029037482
 21
5.136731755947552
 31
0.0
  0
LINE
  5
2E0
330
17
100
AcDbEntity
  8
OBJECT
100
AcDbLine
 10
5.556015029037482
 20
5.136731755947552
 30
0.0
 11
5.618515029037482
 21
5.136731755947552
 31
0.0
  0
LINE
  5
2E1
330
17
100
AcDbEntity
  8
OBJECT
100
AcDbLine
 10
5.743515029037482
 20
5.136731755947552
 30
0.0
 11
5.806015029037482
 21
5.136731755947552
 31
0.0
  0
LINE
  5
2E2
330
17
100
AcDbEntity
  8
OBJECT
100
AcDbLine
 10
5.931015029037482
 20
5.136731755947552
 30
0.0
 11
5.993515029037482
 21
5.136731755947552
 31
0.0
  0
LINE
  5
2E3
330
17
100
AcDbEntity
  8
OBJECT
100
AcDbLine
 10
6.118515029037482
 20
5.136731755947552
 30
0.0
 11
6.181015029037482
 21
5.136731755947552
 31
0.0
  0
LINE
  5
2E4
330
17
100
AcDbEntity
  8
OBJECT
100
AcDbLine
 10
6.306015029037482
 20
5.136731755947552
 30
0.0
 11
6.368515029037482
 21
5.136731755947552
 31
0.0
  0
LINE
  5
2E5
330
17
100
AcDbEntity
  8
OBJECT
100
AcDbLine
 10
6.493515029037482
 20
5.136731755947552
 30
0.0
 11
6.556015029037482
 21
5.136731755947552
 31
0.0
  0
LINE
  5
2E6
330
17
100
AcDbEntity
  8
OBJECT
100
AcDbLine
 10
6.681015029037482
 20
5.136731755947552
 30
0.0
 11
6.743515029037482
 21
5.136731755947552
 31
0.0
  0
LINE
  5
2E7
330
17
100
AcDbEntity
  8
OBJECT
100
AcDbLine
 10
6.868515029037482
 20
5.136731755947552
 30
0.0
 11
6.931015029037482
 21
5.136731755947552
 31
0.0
  0
LINE
  5
2E8
330
17
100
AcDbEntity
  8
OBJECT
100
AcDbLine
 10
5.087265029037482
 20
5.082605168447552
 30
0.0
 11
5.149765029037482
 21
5.082605168447552
 31
0.0
  0
LINE
  5
2E9
330
17
100
AcDbEntity
  8
OBJECT
100
AcDbLine
 10
5.274765029037482
 20
5.082605168447552
 30
0.0
 11
5.337265029037482
 21
5.082605168447552
 31
0.0
  0
LINE
  5
2EA
330
17
100
AcDbEntity
  8
OBJECT
100
AcDbLine
 10
5.462265029037482
 20
5.082605168447552
 30
0.0
 11
5.524765029037482
 21
5.082605168447552
 31
0.0
  0
LINE
  5
2EB
330
17
100
AcDbEntity
  8
OBJECT
100
AcDbLine
 10
5.649765029037482
 20
5.082605168447552
 30
0.0
 11
5.712265029037482
 21
5.082605168447552
 31
0.0
  0
LINE
  5
2EC
330
17
100
AcDbEntity
  8
OBJECT
100
AcDbLine
 10
5.837265029037482
 20
5.082605168447552
 30
0.0
 11
5.899765029037482
 21
5.082605168447552
 31
0.0
  0
LINE
  5
2ED
330
17
100
AcDbEntity
  8
OBJECT
100
AcDbLine
 10
6.024765029037482
 20
5.082605168447552
 30
0.0
 11
6.087265029037482
 21
5.082605168447552
 31
0.0
  0
LINE
  5
2EE
330
17
100
AcDbEntity
  8
OBJECT
100
AcDbLine
 10
6.212265029037482
 20
5.082605168447552
 30
0.0
 11
6.274765029037482
 21
5.082605168447552
 31
0.0
  0
LINE
  5
2EF
330
17
100
AcDbEntity
  8
OBJECT
100
AcDbLine
 10
6.399765029037482
 20
5.082605168447552
 30
0.0
 11
6.462265029037482
 21
5.082605168447552
 31
0.0
  0
LINE
  5
2F0
330
17
100
AcDbEntity
  8
OBJECT
100
AcDbLine
 10
6.587265029037482
 20
5.082605168447552
 30
0.0
 11
6.649765029037482
 21
5.082605168447552
 31
0.0
  0
LINE
  5
2F1
330
17
100
AcDbEntity
  8
OBJECT
100
AcDbLine
 10
6.774765029037482
 20
5.082605168447552
 30
0.0
 11
6.837265029037482
 21
5.082605168447552
 31
0.0
  0
LINE
  5
2F2
330
17
100
AcDbEntity
  8
OBJECT
100
AcDbLine
 10
6.962265029037482
 20
5.082605168447552
 30
0.0
 11
7.005430699208234
 21
5.082605168447552
 31
0.0
  0
LINE
  5
2F4
330
17
100
AcDbEntity
  8
OBJECT
100
AcDbLine
 10
5.181015029037482
 20
5.028478580947552
 30
0.0
 11
5.243515029037482
 21
5.028478580947552
 31
0.0
  0
LINE
  5
2F5
330
17
100
AcDbEntity
  8
OBJECT
100
AcDbLine
 10
5.368515029037482
 20
5.028478580947552
 30
0.0
 11
5.431015029037482
 21
5.028478580947552
 31
0.0
  0
LINE
  5
2F6
330
17
100
AcDbEntity
  8
OBJECT
100
AcDbLine
 10
5.556015029037482
 20
5.028478580947552
 30
0.0
 11
5.618515029037482
 21
5.028478580947552
 31
0.0
  0
LINE
  5
2F7
330
17
100
AcDbEntity
  8
OBJECT
100
AcDbLine
 10
5.743515029037482
 20
5.028478580947552
 30
0.0
 11
5.806015029037482
 21
5.028478580947552
 31
0.0
  0
LINE
  5
2F8
330
17
100
AcDbEntity
  8
OBJECT
100
AcDbLine
 10
5.931015029037482
 20
5.028478580947552
 30
0.0
 11
5.993515029037482
 21
5.028478580947552
 31
0.0
  0
LINE
  5
2F9
330
17
100
AcDbEntity
  8
OBJECT
100
AcDbLine
 10
6.118515029037482
 20
5.028478580947552
 30
0.0
 11
6.181015029037482
 21
5.028478580947552
 31
0.0
  0
LINE
  5
2FA
330
17
100
AcDbEntity
  8
OBJECT
100
AcDbLine
 10
6.306015029037482
 20
5.028478580947552
 30
0.0
 11
6.368515029037482
 21
5.028478580947552
 31
0.0
  0
LINE
  5
2FB
330
17
100
AcDbEntity
  8
OBJECT
100
AcDbLine
 10
6.493515029037482
 20
5.028478580947552
 30
0.0
 11
6.556015029037482
 21
5.028478580947552
 31
0.0
  0
LINE
  5
2FC
330
17
100
AcDbEntity
  8
OBJECT
100
AcDbLine
 10
6.681015029037482
 20
5.028478580947552
 30
0.0
 11
6.743515029037482
 21
5.028478580947552
 31
0.0
  0
LINE
  5
2FD
330
17
100
AcDbEntity
  8
OBJECT
100
AcDbLine
 10
6.868515029037482
 20
5.028478580947552
 30
0.0
 11
6.931015029037482
 21
5.028478580947552
 31
0.0
  0
LINE
  5
2FE
330
17
100
AcDbEntity
  8
OBJECT
100
AcDbLine
 10
5.087265029037482
 20
4.974351993447553
 30
0.0
 11
5.149765029037482
 21
4.974351993447553
 31
0.0
  0
LINE
  5
2FF
330
17
100
AcDbEntity
  8
OBJECT
100
AcDbLine
 10
5.274765029037482
 20
4.974351993447553
 30
0.0
 11
5.337265029037482
 21
4.974351993447553
 31
0.0
  0
LINE
  5
300
330
17
100
AcDbEntity
  8
OBJECT
100
AcDbLine
 10
5.462265029037482
 20
4.974351993447553
 30
0.0
 11
5.524765029037482
 21
4.974351993447553
 31
0.0
  0
LINE
  5
301
330
17
100
AcDbEntity
  8
OBJECT
100
AcDbLine
 10
5.649765029037482
 20
4.974351993447553
 30
0.0
 11
5.712265029037482
 21
4.974351993447553
 31
0.0
  0
LINE
  5
302
330
17
100
AcDbEntity
  8
OBJECT
100
AcDbLine
 10
5.837265029037482
 20
4.974351993447553
 30
0.0
 11
5.899765029037482
 21
4.974351993447553
 31
0.0
  0
LINE
  5
303
330
17
100
AcDbEntity
  8
OBJECT
100
AcDbLine
 10
6.024765029037482
 20
4.974351993447553
 30
0.0
 11
6.087265029037482
 21
4.974351993447553
 31
0.0
  0
LINE
  5
304
330
17
100
AcDbEntity
  8
OBJECT
100
AcDbLine
 10
6.212265029037482
 20
4.974351993447553
 30
0.0
 11
6.274765029037482
 21
4.974351993447553
 31
0.0
  0
LINE
  5
305
330
17
100
AcDbEntity
  8
OBJECT
100
AcDbLine
 10
6.399765029037482
 20
4.974351993447553
 30
0.0
 11
6.462265029037482
 21
4.974351993447553
 31
0.0
  0
LINE
  5
306
330
17
100
AcDbEntity
  8
OBJECT
100
AcDbLine
 10
6.587265029037482
 20
4.974351993447553
 30
0.0
 11
6.649765029037482
 21
4.974351993447553
 31
0.0
  0
LINE
  5
307
330
17
100
AcDbEntity
  8
OBJECT
100
AcDbLine
 10
6.774765029037482
 20
4.974351993447553
 30
0.0
 11
6.837265029037482
 21
4.974351993447553
 31
0.0
  0
LINE
  5
308
330
17
100
AcDbEntity
  8
OBJECT
100
AcDbLine
 10
6.962265029037482
 20
4.974351993447553
 30
0.0
 11
7.005430699208234
 21
4.974351993447553
 31
0.0
  0
LINE
  5
30A
330
17
100
AcDbEntity
  8
OBJECT
100
AcDbLine
 10
5.181015029037482
 20
4.920225405947553
 30
0.0
 11
5.243515029037482
 21
4.920225405947553
 31
0.0
  0
LINE
  5
30B
330
17
100
AcDbEntity
  8
OBJECT
100
AcDbLine
 10
5.368515029037482
 20
4.920225405947553
 30
0.0
 11
5.431015029037482
 21
4.920225405947553
 31
0.0
  0
LINE
  5
30C
330
17
100
AcDbEntity
  8
OBJECT
100
AcDbLine
 10
5.556015029037482
 20
4.920225405947553
 30
0.0
 11
5.618515029037482
 21
4.920225405947553
 31
0.0
  0
LINE
  5
30D
330
17
100
AcDbEntity
  8
OBJECT
100
AcDbLine
 10
5.743515029037482
 20
4.920225405947553
 30
0.0
 11
5.806015029037482
 21
4.920225405947553
 31
0.0
  0
LINE
  5
30E
330
17
100
AcDbEntity
  8
OBJECT
100
AcDbLine
 10
5.931015029037482
 20
4.920225405947553
 30
0.0
 11
5.993515029037482
 21
4.920225405947553
 31
0.0
  0
LINE
  5
30F
330
17
100
AcDbEntity
  8
OBJECT
100
AcDbLine
 10
6.118515029037482
 20
4.920225405947553
 30
0.0
 11
6.181015029037482
 21
4.920225405947553
 31
0.0
  0
LINE
  5
310
330
17
100
AcDbEntity
  8
OBJECT
100
AcDbLine
 10
6.306015029037482
 20
4.920225405947553
 30
0.0
 11
6.368515029037482
 21
4.920225405947553
 31
0.0
  0
LINE
  5
311
330
17
100
AcDbEntity
  8
OBJECT
100
AcDbLine
 10
6.493515029037482
 20
4.920225405947553
 30
0.0
 11
6.556015029037482
 21
4.920225405947553
 31
0.0
  0
LINE
  5
312
330
17
100
AcDbEntity
  8
OBJECT
100
AcDbLine
 10
6.681015029037482
 20
4.920225405947553
 30
0.0
 11
6.743515029037482
 21
4.920225405947553
 31
0.0
  0
LINE
  5
313
330
17
100
AcDbEntity
  8
OBJECT
100
AcDbLine
 10
6.868515029037482
 20
4.920225405947553
 30
0.0
 11
6.931015029037482
 21
4.920225405947553
 31
0.0
  0
LINE
  5
314
330
17
100
AcDbEntity
  8
OBJECT
100
AcDbLine
 10
5.087265029037482
 20
4.866098818447553
 30
0.0
 11
5.149765029037482
 21
4.866098818447553
 31
0.0
  0
LINE
  5
315
330
17
100
AcDbEntity
  8
OBJECT
100
AcDbLine
 10
5.274765029037482
 20
4.866098818447553
 30
0.0
 11
5.337265029037482
 21
4.866098818447553
 31
0.0
  0
LINE
  5
316
330
17
100
AcDbEntity
  8
OBJECT
100
AcDbLine
 10
5.462265029037482
 20
4.866098818447553
 30
0.0
 11
5.524765029037482
 21
4.866098818447553
 31
0.0
  0
LINE
  5
317
330
17
100
AcDbEntity
  8
OBJECT
100
AcDbLine
 10
5.649765029037482
 20
4.866098818447553
 30
0.0
 11
5.712265029037482
 21
4.866098818447553
 31
0.0
  0
LINE
  5
318
330
17
100
AcDbEntity
  8
OBJECT
100
AcDbLine
 10
5.837265029037482
 20
4.866098818447553
 30
0.0
 11
5.899765029037482
 21
4.866098818447553
 31
0.0
  0
LINE
  5
319
330
17
100
AcDbEntity
  8
OBJECT
100
AcDbLine
 10
6.024765029037482
 20
4.866098818447553
 30
0.0
 11
6.087265029037482
 21
4.866098818447553
 31
0.0
  0
LINE
  5
31A
330
17
100
AcDbEntity
  8
OBJECT
100
AcDbLine
 10
6.212265029037482
 20
4.866098818447553
 30
0.0
 11
6.274765029037482
 21
4.866098818447553
 31
0.0
  0
LINE
  5
31B
330
17
100
AcDbEntity
  8
OBJECT
100
AcDbLine
 10
6.399765029037482
 20
4.866098818447553
 30
0.0
 11
6.462265029037482
 21
4.866098818447553
 31
0.0
  0
LINE
  5
31C
330
17
100
AcDbEntity
  8
OBJECT
100
AcDbLine
 10
6.587265029037482
 20
4.866098818447553
 30
0.0
 11
6.649765029037482
 21
4.866098818447553
 31
0.0
  0
LINE
  5
31D
330
17
100
AcDbEntity
  8
OBJECT
100
AcDbLine
 10
6.774765029037482
 20
4.866098818447553
 30
0.0
 11
6.837265029037482
 21
4.866098818447553
 31
0.0
  0
LINE
  5
31E
330
17
100
AcDbEntity
  8
OBJECT
100
AcDbLine
 10
6.962265029037482
 20
4.866098818447553
 30
0.0
 11
7.005430699208234
 21
4.866098818447553
 31
0.0
  0
LINE
  5
32B
330
17
100
AcDbEntity
  8
OBJECT
100
AcDbLine
 10
5.087265003432639
 20
4.866098828026914
 30
0.0
 11
5.078430699208237
 21
4.881400291793101
 31
0.0
  0
LINE
  5
32C
330
17
100
AcDbEntity
  8
OBJECT
100
AcDbLine
 10
5.167325749461141
 20
4.835682723213679
 30
0.0
 11
5.1497650032278
 21
4.866098827908651
 31
0.0
  0
LINE
  5
32D
330
17
100
AcDbEntity
  8
OBJECT
100
AcDbLine
 10
5.0872650032278
 20
4.974352003381706
 30
0.0
 11
5.078430699208237
 21
4.989653466793099
 31
0.0
  0
LINE
  5
32F
330
17
100
AcDbEntity
  8
OBJECT
100
AcDbLine
 10
5.181015003022961
 20
4.920225415526915
 30
0.0
 11
5.149765003022961
 21
4.974352003263442
 31
0.0
  0
LINE
  5
330
330
17
100
AcDbEntity
  8
OBJECT
100
AcDbLine
 10
5.087265003022961
 20
5.082605178736497
 30
0.0
 11
5.078430699208237
 21
5.097906641793102
 31
0.0
  0
LINE
  5
331
330
17
100
AcDbEntity
  8
OBJECT
100
AcDbLine
 10
5.274765002818122
 20
4.866098827672123
 30
0.0
 11
5.243515002818122
 21
4.92022541540865
 31
0.0
  0
LINE
  5
332
330
17
100
AcDbEntity
  8
OBJECT
100
AcDbLine
 10
5.181015002818122
 20
5.028478590881706
 30
0.0
 11
5.149765002818122
 21
5.082605178618233
 31
0.0
  0
LINE
  5
333
330
17
100
AcDbEntity
  8
OBJECT
100
AcDbLine
 10
5.087265002818122
 20
5.190858354091288
 30
0.0
 11
5.078430699208237
 21
5.2061598167931
 31
0.0
  0
LINE
  5
334
330
17
100
AcDbEntity
  8
OBJECT
100
AcDbLine
 10
5.354825748641786
 20
4.835682723213679
 30
0.0
 11
5.337265002613282
 21
4.866098827553861
 31
0.0
  0
LINE
  5
335
330
17
100
AcDbEntity
  8
OBJECT
100
AcDbLine
 10
5.274765002613282
 20
4.974352003026916
 30
0.0
 11
5.243515002613282
 21
5.028478590763443
 31
0.0
  0
LINE
  5
336
330
17
100
AcDbEntity
  8
OBJECT
100
AcDbLine
 10
5.181015002613282
 20
5.136731766236498
 30
0.0
 11
5.149765002613282
 21
5.190858353973025
 31
0.0
  0
LINE
  5
337
330
17
100
AcDbEntity
  8
OBJECT
100
AcDbLine
 10
5.087265002613282
 20
5.29911152944608
 30
0.0
 11
5.078430699208237
 21
5.3144129917931
 31
0.0
  0
LINE
  5
339
330
17
100
AcDbEntity
  8
OBJECT
100
AcDbLine
 10
5.368515002408445
 20
4.920225415172123
 30
0.0
 11
5.337265002408445
 21
4.97435200290865
 31
0.0
  0
LINE
  5
33A
330
17
100
AcDbEntity
  8
OBJECT
100
AcDbLine
 10
5.274765002408445
 20
5.082605178381705
 30
0.0
 11
5.243515002408445
 21
5.136731766118233
 31
0.0
  0
LINE
  5
33B
330
17
100
AcDbEntity
  8
OBJECT
100
AcDbLine
 10
5.181015002408445
 20
5.244984941591288
 30
0.0
 11
5.149765002408445
 21
5.299111529327815
 31
0.0
  0
LINE
  5
33C
330
17
100
AcDbEntity
  8
OBJECT
100
AcDbLine
 10
5.087265002408445
 20
5.40736470480087
 30
0.0
 11
5.078430699208237
 21
5.4226661667931
 31
0.0
  0
LINE
  5
33D
330
17
100
AcDbEntity
  8
OBJECT
100
AcDbLine
 10
5.462265002203604
 20
4.866098827317333
 30
0.0
 11
5.431015002203604
 21
4.92022541505386
 31
0.0
  0
LINE
  5
33E
330
17
100
AcDbEntity
  8
OBJECT
100
AcDbLine
 10
5.368515002203604
 20
5.028478590526916
 30
0.0
 11
5.337265002203604
 21
5.082605178263443
 31
0.0
  0
LINE
  5
33F
330
17
100
AcDbEntity
  8
OBJECT
100
AcDbLine
 10
5.274765002203604
 20
5.190858353736498
 30
0.0
 11
5.243515002203604
 21
5.244984941473025
 31
0.0
  0
LINE
  5
340
330
17
100
AcDbEntity
  8
OBJECT
100
AcDbLine
 10
5.181015002203604
 20
5.35323811694608
 30
0.0
 11
5.149765002203604
 21
5.407364704682607
 31
0.0
  0
LINE
  5
341
330
17
100
AcDbEntity
  8
OBJECT
100
AcDbLine
 10
5.087265002203604
 20
5.515617880155662
 30
0.0
 11
5.078430699208237
 21
5.5309193417931
 31
0.0
  0
LINE
  5
342
330
17
100
AcDbEntity
  8
OBJECT
100
AcDbLine
 10
5.542325747822431
 20
4.835682723213678
 30
0.0
 11
5.524765001998767
 21
4.866098827199068
 31
0.0
  0
LINE
  5
343
330
17
100
AcDbEntity
  8
OBJECT
100
AcDbLine
 10
5.462265001998767
 20
4.974352002672123
 30
0.0
 11
5.431015001998767
 21
5.02847859040865
 31
0.0
  0
LINE
  5
344
330
17
100
AcDbEntity
  8
OBJECT
100
AcDbLine
 10
5.368515001998767
 20
5.136731765881705
 30
0.0
 11
5.337265001998767
 21
5.190858353618232
 31
0.0
  0
LINE
  5
345
330
17
100
AcDbEntity
  8
OBJECT
100
AcDbLine
 10
5.274765001998767
 20
5.299111529091288
 30
0.0
 11
5.243515001998767
 21
5.353238116827815
 31
0.0
  0
LINE
  5
346
330
17
100
AcDbEntity
  8
OBJECT
100
AcDbLine
 10
5.181015001998767
 20
5.46149129230087
 30
0.0
 11
5.149765001998767
 21
5.515617880037397
 31
0.0
  0
LINE
  5
347
330
17
100
AcDbEntity
  8
OBJECT
100
AcDbLine
 10
5.087265001998767
 20
5.623871055510452
 30
0.0
 11
5.078430699208237
 21
5.639172516793101
 31
0.0
  0
LINE
  5
349
330
17
100
AcDbEntity
  8
OBJECT
100
AcDbLine
 10
5.55601500179393
 20
4.920225414817331
 30
0.0
 11
5.52476500179393
 21
4.974352002553859
 31
0.0
  0
LINE
  5
34A
330
17
100
AcDbEntity
  8
OBJECT
100
AcDbLine
 10
5.46226500179393
 20
5.082605178026914
 30
0.0
 11
5.43101500179393
 21
5.136731765763441
 31
0.0
  0
LINE
  5
34B
330
17
100
AcDbEntity
  8
OBJECT
100
AcDbLine
 10
5.36851500179393
 20
5.244984941236496
 30
0.0
 11
5.33726500179393
 21
5.299111528973023
 31
0.0
  0
LINE
  5
34C
330
17
100
AcDbEntity
  8
OBJECT
100
AcDbLine
 10
5.27476500179393
 20
5.407364704446078
 30
0.0
 11
5.24351500179393
 21
5.461491292182605
 31
0.0
  0
LINE
  5
34D
330
17
100
AcDbEntity
  8
OBJECT
100
AcDbLine
 10
5.18101500179393
 20
5.56974446765566
 30
0.0
 11
5.14976500179393
 21
5.623871055392188
 31
0.0
  0
LINE
  5
34E
330
17
100
AcDbEntity
  8
OBJECT
100
AcDbLine
 10
5.08726500179393
 20
5.732124230865243
 30
0.0
 11
5.078430699208237
 21
5.7474256917931
 31
0.0
  0
LINE
  5
34F
330
17
100
AcDbEntity
  8
OBJECT
100
AcDbLine
 10
5.649765001589091
 20
4.866098826962541
 30
0.0
 11
5.618515001589091
 21
4.920225414699068
 31
0.0
  0
LINE
  5
350
330
17
100
AcDbEntity
  8
OBJECT
100
AcDbLine
 10
5.556015001589091
 20
5.028478590172123
 30
0.0
 11
5.524765001589091
 21
5.08260517790865
 31
0.0
  0
LINE
  5
351
330
17
100
AcDbEntity
  8
OBJECT
100
AcDbLine
 10
5.462265001589091
 20
5.190858353381705
 30
0.0
 11
5.431015001589091
 21
5.244984941118232
 31
0.0
  0
LINE
  5
352
330
17
100
AcDbEntity
  8
OBJECT
100
AcDbLine
 10
5.368515001589091
 20
5.353238116591287
 30
0.0
 11
5.337265001589091
 21
5.407364704327815
 31
0.0
  0
LINE
  5
353
330
17
100
AcDbEntity
  8
OBJECT
100
AcDbLine
 10
5.274765001589091
 20
5.51561787980087
 30
0.0
 11
5.243515001589091
 21
5.569744467537397
 31
0.0
  0
LINE
  5
354
330
17
100
AcDbEntity
  8
OBJECT
100
AcDbLine
 10
5.181015001589091
 20
5.677997643010452
 30
0.0
 11
5.149765001589091
 21
5.732124230746979
 31
0.0
  0
LINE
  5
355
330
17
100
AcDbEntity
  8
OBJECT
100
AcDbLine
 10
5.087265001589091
 20
5.840377406220034
 30
0.0
 11
5.078430699208237
 21
5.855678866793102
 31
0.0
  0
LINE
  5
356
330
17
100
AcDbEntity
  8
OBJECT
100
AcDbLine
 10
5.729825747003079
 20
4.835682723213678
 30
0.0
 11
5.712265001384253
 21
4.866098826844277
 31
0.0
  0
LINE
  5
357
330
17
100
AcDbEntity
  8
OBJECT
100
AcDbLine
 10
5.649765001384253
 20
4.974352002317332
 30
0.0
 11
5.618515001384253
 21
5.028478590053859
 31
0.0
  0
LINE
  5
358
330
17
100
AcDbEntity
  8
OBJECT
100
AcDbLine
 10
5.556015001384253
 20
5.136731765526914
 30
0.0
 11
5.524765001384253
 21
5.190858353263442
 31
0.0
  0
LINE
  5
359
330
17
100
AcDbEntity
  8
OBJECT
100
AcDbLine
 10
5.462265001384253
 20
5.299111528736497
 30
0.0
 11
5.431015001384253
 21
5.353238116473024
 31
0.0
  0
LINE
  5
35A
330
17
100
AcDbEntity
  8
OBJECT
100
AcDbLine
 10
5.368515001384253
 20
5.461491291946079
 30
0.0
 11
5.337265001384253
 21
5.515617879682606
 31
0.0
  0
LINE
  5
35B
330
17
100
AcDbEntity
  8
OBJECT
100
AcDbLine
 10
5.274765001384253
 20
5.623871055155661
 30
0.0
 11
5.243515001384253
 21
5.677997642892188
 31
0.0
  0
LINE
  5
35C
330
17
100
AcDbEntity
  8
OBJECT
100
AcDbLine
 10
5.181015001384253
 20
5.786250818365243
 30
0.0
 11
5.149765001384253
 21
5.840377406101771
 31
0.0
  0
LINE
  5
35D
330
17
100
AcDbEntity
  8
OBJECT
100
AcDbLine
 10
5.087265001384253
 20
5.948630581574826
 30
0.0
 11
5.078430699208237
 21
5.963932041793102
 31
0.0
  0
LINE
  5
35F
330
17
100
AcDbEntity
  8
OBJECT
100
AcDbLine
 10
5.743515001179414
 20
4.920225414462541
 30
0.0
 11
5.712265001179414
 21
4.974352002199069
 31
0.0
  0
LINE
  5
360
330
17
100
AcDbEntity
  8
OBJECT
100
AcDbLine
 10
5.649765001179414
 20
5.082605177672124
 30
0.0
 11
5.618515001179414
 21
5.136731765408651
 31
0.0
  0
LINE
  5
361
330
17
100
AcDbEntity
  8
OBJECT
100
AcDbLine
 10
5.556015001179414
 20
5.244984940881706
 30
0.0
 11
5.524765001179414
 21
5.299111528618233
 31
0.0
  0
LINE
  5
362
330
17
100
AcDbEntity
  8
OBJECT
100
AcDbLine
 10
5.462265001179414
 20
5.407364704091288
 30
0.0
 11
5.431015001179414
 21
5.461491291827815
 31
0.0
  0
LINE
  5
363
330
17
100
AcDbEntity
  8
OBJECT
100
AcDbLine
 10
5.368515001179414
 20
5.56974446730087
 30
0.0
 11
5.337265001179414
 21
5.623871055037398
 31
0.0
  0
LINE
  5
364
330
17
100
AcDbEntity
  8
OBJECT
100
AcDbLine
 10
5.274765001179414
 20
5.732124230510453
 30
0.0
 11
5.243515001179414
 21
5.78625081824698
 31
0.0
  0
LINE
  5
365
330
17
100
AcDbEntity
  8
OBJECT
100
AcDbLine
 10
5.181015001179414
 20
5.894503993720035
 30
0.0
 11
5.149765001179414
 21
5.948630581456562
 31
0.0
  0
LINE
  5
366
330
17
100
AcDbEntity
  8
OBJECT
100
AcDbLine
 10
5.087265001179414
 20
6.056883756929617
 30
0.0
 11
5.078430699208237
 21
6.072185216793102
 31
0.0
  0
LINE
  5
367
330
17
100
AcDbEntity
  8
OBJECT
100
AcDbLine
 10
5.837265000974575
 20
4.86609882660775
 30
0.0
 11
5.806015000974575
 21
4.920225414344277
 31
0.0
  0
LINE
  5
368
330
17
100
AcDbEntity
  8
OBJECT
100
AcDbLine
 10
5.743515000974575
 20
5.028478589817332
 30
0.0
 11
5.712265000974575
 21
5.082605177553859
 31
0.0
  0
LINE
  5
369
330
17
100
AcDbEntity
  8
OBJECT
100
AcDbLine
 10
5.649765000974575
 20
5.190858353026914
 30
0.0
 11
5.618515000974575
 21
5.244984940763441
 31
0.0
  0
LINE
  5
36A
330
17
100
AcDbEntity
  8
OBJECT
100
AcDbLine
 10
5.556015000974575
 20
5.353238116236497
 30
0.0
 11
5.524765000974575
 21
5.407364703973024
 31
0.0
  0
LINE
  5
36B
330
17
100
AcDbEntity
  8
OBJECT
100
AcDbLine
 10
5.462265000974575
 20
5.515617879446079
 30
0.0
 11
5.431015000974575
 21
5.569744467182606
 31
0.0
  0
LINE
  5
36C
330
17
100
AcDbEntity
  8
OBJECT
100
AcDbLine
 10
5.368515000974575
 20
5.677997642655661
 30
0.0
 11
5.337265000974575
 21
5.732124230392188
 31
0.0
  0
LINE
  5
36D
330
17
100
AcDbEntity
  8
OBJECT
100
AcDbLine
 10
5.274765000974575
 20
5.840377405865243
 30
0.0
 11
5.243515000974575
 21
5.89450399360177
 31
0.0
  0
LINE
  5
36E
330
17
100
AcDbEntity
  8
OBJECT
100
AcDbLine
 10
5.181015000974575
 20
6.002757169074826
 30
0.0
 11
5.149765000974575
 21
6.056883756811353
 31
0.0
  0
LINE
  5
36F
330
17
100
AcDbEntity
  8
OBJECT
100
AcDbLine
 10
5.087265000974575
 20
6.165136932284408
 30
0.0
 11
5.078430699208235
 21
6.180438391793101
 31
0.0
  0
LINE
  5
370
330
17
100
AcDbEntity
  8
OBJECT
100
AcDbLine
 10
5.917325746183724
 20
4.835682723213678
 30
0.0
 11
5.899765000769734
 21
4.866098826489487
 31
0.0
  0
LINE
  5
371
330
17
100
AcDbEntity
  8
OBJECT
100
AcDbLine
 10
5.837265000769734
 20
4.974352001962542
 30
0.0
 11
5.806015000769734
 21
5.028478589699069
 31
0.0
  0
LINE
  5
372
330
17
100
AcDbEntity
  8
OBJECT
100
AcDbLine
 10
5.743515000769734
 20
5.136731765172124
 30
0.0
 11
5.712265000769734
 21
5.190858352908652
 31
0.0
  0
LINE
  5
373
330
17
100
AcDbEntity
  8
OBJECT
100
AcDbLine
 10
5.649765000769734
 20
5.299111528381707
 30
0.0
 11
5.618515000769734
 21
5.353238116118234
 31
0.0
  0
LINE
  5
374
330
17
100
AcDbEntity
  8
OBJECT
100
AcDbLine
 10
5.556015000769734
 20
5.461491291591289
 30
0.0
 11
5.524765000769734
 21
5.515617879327816
 31
0.0
  0
LINE
  5
375
330
17
100
AcDbEntity
  8
OBJECT
100
AcDbLine
 10
5.462265000769734
 20
5.623871054800871
 30
0.0
 11
5.431015000769734
 21
5.677997642537398
 31
0.0
  0
LINE
  5
376
330
17
100
AcDbEntity
  8
OBJECT
100
AcDbLine
 10
5.368515000769734
 20
5.786250818010453
 30
0.0
 11
5.337265000769734
 21
5.840377405746981
 31
0.0
  0
LINE
  5
377
330
17
100
AcDbEntity
  8
OBJECT
100
AcDbLine
 10
5.274765000769734
 20
5.948630581220036
 30
0.0
 11
5.243515000769734
 21
6.002757168956563
 31
0.0
  0
LINE
  5
378
330
17
100
AcDbEntity
  8
OBJECT
100
AcDbLine
 10
5.181015000769734
 20
6.111010344429618
 30
0.0
 11
5.149765000769734
 21
6.165136932166145
 31
0.0
  0
LINE
  5
379
330
17
100
AcDbEntity
  8
OBJECT
100
AcDbLine
 10
5.087265000769734
 20
6.2733901076392
 30
0.0
 11
5.078430699208235
 21
6.288691566793102
 31
0.0
  0
LINE
  5
37B
330
17
100
AcDbEntity
  8
OBJECT
100
AcDbLine
 10
5.931015000564897
 20
4.92022541410775
 30
0.0
 11
5.899765000564897
 21
4.974352001844277
 31
0.0
  0
LINE
  5
37C
330
17
100
AcDbEntity
  8
OBJECT
100
AcDbLine
 10
5.837265000564897
 20
5.082605177317332
 30
0.0
 11
5.806015000564897
 21
5.136731765053859
 31
0.0
  0
LINE
  5
37D
330
17
100
AcDbEntity
  8
OBJECT
100
AcDbLine
 10
5.743515000564897
 20
5.244984940526914
 30
0.0
 11
5.712265000564897
 21
5.299111528263441
 31
0.0
  0
LINE
  5
37E
330
17
100
AcDbEntity
  8
OBJECT
100
AcDbLine
 10
5.649765000564897
 20
5.407364703736496
 30
0.0
 11
5.618515000564897
 21
5.461491291473024
 31
0.0
  0
LINE
  5
37F
330
17
100
AcDbEntity
  8
OBJECT
100
AcDbLine
 10
5.556015000564897
 20
5.569744466946079
 30
0.0
 11
5.524765000564897
 21
5.623871054682606
 31
0.0
  0
LINE
  5
380
330
17
100
AcDbEntity
  8
OBJECT
100
AcDbLine
 10
5.462265000564897
 20
5.732124230155661
 30
0.0
 11
5.431015000564897
 21
5.786250817892188
 31
0.0
  0
LINE
  5
381
330
17
100
AcDbEntity
  8
OBJECT
100
AcDbLine
 10
5.368515000564897
 20
5.894503993365243
 30
0.0
 11
5.337265000564897
 21
5.94863058110177
 31
0.0
  0
LINE
  5
382
330
17
100
AcDbEntity
  8
OBJECT
100
AcDbLine
 10
5.274765000564897
 20
6.056883756574825
 30
0.0
 11
5.243515000564897
 21
6.111010344311353
 31
0.0
  0
LINE
  5
383
330
17
100
AcDbEntity
  8
OBJECT
100
AcDbLine
 10
5.181015000564897
 20
6.219263519784408
 30
0.0
 11
5.149765000564897
 21
6.273390107520935
 31
0.0
  0
LINE
  5
384
330
17
100
AcDbEntity
  8
OBJECT
100
AcDbLine
 10
5.087265000564897
 20
6.38164328299399
 30
0.0
 11
5.078430699208235
 21
6.396944741793102
 31
0.0
  0
LINE
  5
385
330
17
100
AcDbEntity
  8
OBJECT
100
AcDbLine
 10
6.024765000360057
 20
4.86609882625296
 30
0.0
 11
5.993515000360057
 21
4.920225413989487
 31
0.0
  0
LINE
  5
386
330
17
100
AcDbEntity
  8
OBJECT
100
AcDbLine
 10
5.931015000360057
 20
5.028478589462542
 30
0.0
 11
5.899765000360057
 21
5.082605177199069
 31
0.0
  0
LINE
  5
387
330
17
100
AcDbEntity
  8
OBJECT
100
AcDbLine
 10
5.837265000360057
 20
5.190858352672124
 30
0.0
 11
5.806015000360057
 21
5.244984940408651
 31
0.0
  0
LINE
  5
388
330
17
100
AcDbEntity
  8
OBJECT
100
AcDbLine
 10
5.743515000360057
 20
5.353238115881707
 30
0.0
 11
5.712265000360057
 21
5.407364703618234
 31
0.0
  0
LINE
  5
389
330
17
100
AcDbEntity
  8
OBJECT
100
AcDbLine
 10
5.649765000360057
 20
5.515617879091289
 30
0.0
 11
5.618515000360057
 21
5.569744466827816
 31
0.0
  0
LINE
  5
38A
330
17
100
AcDbEntity
  8
OBJECT
100
AcDbLine
 10
5.556015000360057
 20
5.677997642300871
 30
0.0
 11
5.524765000360057
 21
5.732124230037398
 31
0.0
  0
LINE
  5
38B
330
17
100
AcDbEntity
  8
OBJECT
100
AcDbLine
 10
5.462265000360057
 20
5.840377405510453
 30
0.0
 11
5.431015000360057
 21
5.89450399324698
 31
0.0
  0
LINE
  5
38C
330
17
100
AcDbEntity
  8
OBJECT
100
AcDbLine
 10
5.368515000360057
 20
6.002757168720036
 30
0.0
 11
5.337265000360057
 21
6.056883756456563
 31
0.0
  0
LINE
  5
38D
330
17
100
AcDbEntity
  8
OBJECT
100
AcDbLine
 10
5.274765000360057
 20
6.165136931929618
 30
0.0
 11
5.243515000360057
 21
6.219263519666145
 31
0.0
  0
LINE
  5
38E
330
17
100
AcDbEntity
  8
OBJECT
100
AcDbLine
 10
5.181015000360057
 20
6.3275166951392
 30
0.0
 11
5.149765000360057
 21
6.381643282875727
 31
0.0
  0
LINE
  5
38F
330
17
100
AcDbEntity
  8
OBJECT
100
AcDbLine
 10
5.087265000360057
 20
6.489896458348782
 30
0.0
 11
5.078430699208235
 21
6.505197916793099
 31
0.0
  0
LINE
  5
390
330
17
100
AcDbEntity
  8
OBJECT
100
AcDbLine
 10
6.104825745364367
 20
4.835682723213678
 30
0.0
 11
6.08726500015522
 21
4.866098826134695
 31
0.0
  0
LINE
  5
391
330
17
100
AcDbEntity
  8
OBJECT
100
AcDbLine
 10
6.02476500015522
 20
4.97435200160775
 30
0.0
 11
5.99351500015522
 21
5.028478589344278
 31
0.0
  0
LINE
  5
392
330
17
100
AcDbEntity
  8
OBJECT
100
AcDbLine
 10
5.93101500015522
 20
5.136731764817333
 30
0.0
 11
5.89976500015522
 21
5.19085835255386
 31
0.0
  0
LINE
  5
393
330
17
100
AcDbEntity
  8
OBJECT
100
AcDbLine
 10
5.83726500015522
 20
5.299111528026915
 30
0.0
 11
5.80601500015522
 21
5.353238115763442
 31
0.0
  0
LINE
  5
394
330
17
100
AcDbEntity
  8
OBJECT
100
AcDbLine
 10
5.74351500015522
 20
5.461491291236497
 30
0.0
 11
5.71226500015522
 21
5.515617878973024
 31
0.0
  0
LINE
  5
395
330
17
100
AcDbEntity
  8
OBJECT
100
AcDbLine
 10
5.64976500015522
 20
5.623871054446079
 30
0.0
 11
5.61851500015522
 21
5.677997642182607
 31
0.0
  0
LINE
  5
396
330
17
100
AcDbEntity
  8
OBJECT
100
AcDbLine
 10
5.55601500015522
 20
5.786250817655662
 30
0.0
 11
5.52476500015522
 21
5.840377405392189
 31
0.0
  0
LINE
  5
397
330
17
100
AcDbEntity
  8
OBJECT
100
AcDbLine
 10
5.46226500015522
 20
5.948630580865244
 30
0.0
 11
5.43101500015522
 21
6.002757168601771
 31
0.0
  0
LINE
  5
398
330
17
100
AcDbEntity
  8
OBJECT
100
AcDbLine
 10
5.36851500015522
 20
6.111010344074826
 30
0.0
 11
5.33726500015522
 21
6.165136931811353
 31
0.0
  0
LINE
  5
399
330
17
100
AcDbEntity
  8
OBJECT
100
AcDbLine
 10
5.27476500015522
 20
6.273390107284408
 30
0.0
 11
5.24351500015522
 21
6.327516695020936
 31
0.0
  0
LINE
  5
39A
330
17
100
AcDbEntity
  8
OBJECT
100
AcDbLine
 10
5.18101500015522
 20
6.435769870493991
 30
0.0
 11
5.14976500015522
 21
6.489896458230518
 31
0.0
  0
LINE
  5
39B
330
17
100
AcDbEntity
  8
OBJECT
100
AcDbLine
 10
5.08726500015522
 20
6.598149633703573
 30
0.0
 11
5.078430699208235
 21
6.613451091793102
 31
0.0
  0
LINE
  5
39D
330
17
100
AcDbEntity
  8
OBJECT
100
AcDbLine
 10
6.118514999950381
 20
4.92022541375296
 30
0.0
 11
6.087264999950381
 21
4.974352001489487
 31
0.0
  0
LINE
  5
39E
330
17
100
AcDbEntity
  8
OBJECT
100
AcDbLine
 10
6.024764999950381
 20
5.082605176962542
 30
0.0
 11
5.993514999950381
 21
5.136731764699069
 31
0.0
  0
LINE
  5
39F
330
17
100
AcDbEntity
  8
OBJECT
100
AcDbLine
 10
5.931014999950381
 20
5.244984940172124
 30
0.0
 11
5.899764999950381
 21
5.299111527908651
 31
0.0
  0
LINE
  5
3A0
330
17
100
AcDbEntity
  8
OBJECT
100
AcDbLine
 10
5.837264999950381
 20
5.407364703381706
 30
0.0
 11
5.806014999950381
 21
5.461491291118234
 31
0.0
  0
LINE
  5
3A1
330
17
100
AcDbEntity
  8
OBJECT
100
AcDbLine
 10
5.743514999950381
 20
5.569744466591289
 30
0.0
 11
5.712264999950381
 21
5.623871054327816
 31
0.0
  0
LINE
  5
3A2
330
17
100
AcDbEntity
  8
OBJECT
100
AcDbLine
 10
5.649764999950381
 20
5.732124229800871
 30
0.0
 11
5.618514999950381
 21
5.786250817537398
 31
0.0
  0
LINE
  5
3A3
330
17
100
AcDbEntity
  8
OBJECT
100
AcDbLine
 10
5.556014999950381
 20
5.894503993010453
 30
0.0
 11
5.524764999950381
 21
5.94863058074698
 31
0.0
  0
LINE
  5
3A4
330
17
100
AcDbEntity
  8
OBJECT
100
AcDbLine
 10
5.462264999950381
 20
6.056883756220035
 30
0.0
 11
5.431014999950381
 21
6.111010343956563
 31
0.0
  0
LINE
  5
3A5
330
17
100
AcDbEntity
  8
OBJECT
100
AcDbLine
 10
5.368514999950381
 20
6.219263519429618
 30
0.0
 11
5.337264999950381
 21
6.273390107166145
 31
0.0
  0
LINE
  5
3A6
330
17
100
AcDbEntity
  8
OBJECT
100
AcDbLine
 10
5.274764999950381
 20
6.3816432826392
 30
0.0
 11
5.243514999950381
 21
6.435769870375727
 31
0.0
  0
LINE
  5
3A7
330
17
100
AcDbEntity
  8
OBJECT
100
AcDbLine
 10
5.181014999950381
 20
6.544023045848782
 30
0.0
 11
5.149764999950381
 21
6.598149633585309
 31
0.0
  0
LINE
  5
3A8
330
17
100
AcDbEntity
  8
OBJECT
100
AcDbLine
 10
5.087264999950381
 20
6.706402809058364
 30
0.0
 11
5.078430699208237
 21
6.721704266793101
 31
0.0
  0
LINE
  5
3A9
330
17
100
AcDbEntity
  8
OBJECT
100
AcDbLine
 10
6.212264999745542
 20
4.866098825898168
 30
0.0
 11
6.181014999745542
 21
4.920225413634695
 31
0.0
  0
LINE
  5
3AA
330
17
100
AcDbEntity
  8
OBJECT
100
AcDbLine
 10
6.118514999745542
 20
5.02847858910775
 30
0.0
 11
6.087264999745542
 21
5.082605176844277
 31
0.0
  0
LINE
  5
3AB
330
17
100
AcDbEntity
  8
OBJECT
100
AcDbLine
 10
6.024764999745542
 20
5.190858352317333
 30
0.0
 11
5.993514999745542
 21
5.24498494005386
 31
0.0
  0
LINE
  5
3AC
330
17
100
AcDbEntity
  8
OBJECT
100
AcDbLine
 10
5.931014999745542
 20
5.353238115526915
 30
0.0
 11
5.899764999745542
 21
5.407364703263442
 31
0.0
  0
LINE
  5
3AD
330
17
100
AcDbEntity
  8
OBJECT
100
AcDbLine
 10
5.837264999745542
 20
5.515617878736497
 30
0.0
 11
5.806014999745542
 21
5.569744466473024
 31
0.0
  0
LINE
  5
3AE
330
17
100
AcDbEntity
  8
OBJECT
100
AcDbLine
 10
5.743514999745542
 20
5.677997641946079
 30
0.0
 11
5.712264999745542
 21
5.732124229682606
 31
0.0
  0
LINE
  5
3AF
330
17
100
AcDbEntity
  8
OBJECT
100
AcDbLine
 10
5.649764999745542
 20
5.840377405155662
 30
0.0
 11
5.618514999745542
 21
5.894503992892189
 31
0.0
  0
LINE
  5
3B0
330
17
100
AcDbEntity
  8
OBJECT
100
AcDbLine
 10
5.556014999745542
 20
6.002757168365244
 30
0.0
 11
5.524764999745542
 21
6.056883756101771
 31
0.0
  0
LINE
  5
3B1
330
17
100
AcDbEntity
  8
OBJECT
100
AcDbLine
 10
5.462264999745542
 20
6.165136931574826
 30
0.0
 11
5.431014999745542
 21
6.219263519311353
 31
0.0
  0
LINE
  5
3B2
330
17
100
AcDbEntity
  8
OBJECT
100
AcDbLine
 10
5.368514999745542
 20
6.327516694784408
 30
0.0
 11
5.337264999745542
 21
6.381643282520935
 31
0.0
  0
LINE
  5
3B3
330
17
100
AcDbEntity
  8
OBJECT
100
AcDbLine
 10
5.274764999745542
 20
6.489896457993991
 30
0.0
 11
5.243514999745542
 21
6.544023045730518
 31
0.0
  0
LINE
  5
3B4
330
17
100
AcDbEntity
  8
OBJECT
100
AcDbLine
 10
5.181014999745542
 20
6.652276221203573
 30
0.0
 11
5.149764999745542
 21
6.7064028089401
 31
0.0
  0
LINE
  5
3B5
330
17
100
AcDbEntity
  8
OBJECT
100
AcDbLine
 10
6.292325744545014
 20
4.835682723213678
 30
0.0
 11
6.274764999540703
 21
4.866098825779904
 31
0.0
  0
LINE
  5
3B6
330
17
100
AcDbEntity
  8
OBJECT
100
AcDbLine
 10
6.212264999540703
 20
4.974352001252959
 30
0.0
 11
6.181014999540703
 21
5.028478588989486
 31
0.0
  0
LINE
  5
3B7
330
17
100
AcDbEntity
  8
OBJECT
100
AcDbLine
 10
6.118514999540703
 20
5.136731764462541
 30
0.0
 11
6.087264999540703
 21
5.190858352199068
 31
0.0
  0
LINE
  5
3B8
330
17
100
AcDbEntity
  8
OBJECT
100
AcDbLine
 10
6.024764999540703
 20
5.299111527672123
 30
0.0
 11
5.993514999540703
 21
5.35323811540865
 31
0.0
  0
LINE
  5
3B9
330
17
100
AcDbEntity
  8
OBJECT
100
AcDbLine
 10
5.931014999540703
 20
5.461491290881705
 30
0.0
 11
5.899764999540703
 21
5.515617878618233
 31
0.0
  0
LINE
  5
3BA
330
17
100
AcDbEntity
  8
OBJECT
100
AcDbLine
 10
5.837264999540703
 20
5.623871054091288
 30
0.0
 11
5.806014999540703
 21
5.677997641827815
 31
0.0
  0
LINE
  5
3BB
330
17
100
AcDbEntity
  8
OBJECT
100
AcDbLine
 10
5.743514999540703
 20
5.78625081730087
 30
0.0
 11
5.712264999540703
 21
5.840377405037397
 31
0.0
  0
LINE
  5
3BC
330
17
100
AcDbEntity
  8
OBJECT
100
AcDbLine
 10
5.649764999540703
 20
5.948630580510452
 30
0.0
 11
5.618514999540703
 21
6.002757168246979
 31
0.0
  0
LINE
  5
3BD
330
17
100
AcDbEntity
  8
OBJECT
100
AcDbLine
 10
5.556014999540703
 20
6.111010343720034
 30
0.0
 11
5.524764999540703
 21
6.165136931456562
 31
0.0
  0
LINE
  5
3BE
330
17
100
AcDbEntity
  8
OBJECT
100
AcDbLine
 10
5.462264999540703
 20
6.273390106929617
 30
0.0
 11
5.431014999540703
 21
6.327516694666144
 31
0.0
  0
LINE
  5
3BF
330
17
100
AcDbEntity
  8
OBJECT
100
AcDbLine
 10
5.368514999540703
 20
6.435769870139199
 30
0.0
 11
5.337264999540703
 21
6.489896457875726
 31
0.0
  0
LINE
  5
3C0
330
17
100
AcDbEntity
  8
OBJECT
100
AcDbLine
 10
5.274764999540703
 20
6.598149633348781
 30
0.0
 11
5.243514999540703
 21
6.652276221085308
 31
0.0
  0
LINE
  5
3C3
330
17
100
AcDbEntity
  8
OBJECT
100
AcDbLine
 10
6.306014999335864
 20
4.920225413398168
 30
0.0
 11
6.274764999335864
 21
4.974352001134695
 31
0.0
  0
LINE
  5
3C4
330
17
100
AcDbEntity
  8
OBJECT
100
AcDbLine
 10
6.212264999335864
 20
5.08260517660775
 30
0.0
 11
6.181014999335864
 21
5.136731764344277
 31
0.0
  0
LINE
  5
3C5
330
17
100
AcDbEntity
  8
OBJECT
100
AcDbLine
 10
6.118514999335864
 20
5.244984939817332
 30
0.0
 11
6.087264999335864
 21
5.29911152755386
 31
0.0
  0
LINE
  5
3C6
330
17
100
AcDbEntity
  8
OBJECT
100
AcDbLine
 10
6.024764999335864
 20
5.407364703026915
 30
0.0
 11
5.993514999335864
 21
5.461491290763442
 31
0.0
  0
LINE
  5
3C7
330
17
100
AcDbEntity
  8
OBJECT
100
AcDbLine
 10
5.931014999335864
 20
5.569744466236497
 30
0.0
 11
5.899764999335864
 21
5.623871053973024
 31
0.0
  0
LINE
  5
3C8
330
17
100
AcDbEntity
  8
OBJECT
100
AcDbLine
 10
5.837264999335864
 20
5.732124229446079
 30
0.0
 11
5.806014999335864
 21
5.786250817182606
 31
0.0
  0
LINE
  5
3C9
330
17
100
AcDbEntity
  8
OBJECT
100
AcDbLine
 10
5.743514999335864
 20
5.894503992655661
 30
0.0
 11
5.712264999335864
 21
5.948630580392189
 31
0.0
  0
LINE
  5
3CA
330
17
100
AcDbEntity
  8
OBJECT
100
AcDbLine
 10
5.649764999335864
 20
6.056883755865244
 30
0.0
 11
5.618514999335864
 21
6.111010343601771
 31
0.0
  0
LINE
  5
3CB
330
17
100
AcDbEntity
  8
OBJECT
100
AcDbLine
 10
5.556014999335864
 20
6.219263519074826
 30
0.0
 11
5.524764999335864
 21
6.273390106811353
 31
0.0
  0
LINE
  5
3CC
330
17
100
AcDbEntity
  8
OBJECT
100
AcDbLine
 10
5.462264999335864
 20
6.381643282284408
 30
0.0
 11
5.431014999335864
 21
6.435769870020935
 31
0.0
  0
LINE
  5
3CD
330
17
100
AcDbEntity
  8
OBJECT
100
AcDbLine
 10
5.368514999335864
 20
6.54402304549399
 30
0.0
 11
5.337264999335864
 21
6.598149633230518
 31
0.0
  0
LINE
  5
3CE
330
17
100
AcDbEntity
  8
OBJECT
100
AcDbLine
 10
5.274764999335864
 20
6.706402808703573
 30
0.0
 11
5.253241430658089
 21
6.743682723213678
 31
0.0
  0
LINE
  5
3CF
330
17
100
AcDbEntity
  8
OBJECT
100
AcDbLine
 10
6.399764999131026
 20
4.866098825543378
 30
0.0
 11
6.368514999131026
 21
4.920225413279905
 31
0.0
  0
LINE
  5
3D0
330
17
100
AcDbEntity
  8
OBJECT
100
AcDbLine
 10
6.306014999131026
 20
5.02847858875296
 30
0.0
 11
6.274764999131026
 21
5.082605176489487
 31
0.0
  0
LINE
  5
3D1
330
17
100
AcDbEntity
  8
OBJECT
100
AcDbLine
 10
6.212264999131026
 20
5.190858351962543
 30
0.0
 11
6.181014999131026
 21
5.24498493969907
 31
0.0
  0
LINE
  5
3D2
330
17
100
AcDbEntity
  8
OBJECT
100
AcDbLine
 10
6.118514999131026
 20
5.353238115172125
 30
0.0
 11
6.087264999131026
 21
5.407364702908652
 31
0.0
  0
LINE
  5
3D3
330
17
100
AcDbEntity
  8
OBJECT
100
AcDbLine
 10
6.024764999131026
 20
5.515617878381707
 30
0.0
 11
5.993514999131026
 21
5.569744466118234
 31
0.0
  0
LINE
  5
3D4
330
17
100
AcDbEntity
  8
OBJECT
100
AcDbLine
 10
5.931014999131026
 20
5.677997641591289
 30
0.0
 11
5.899764999131026
 21
5.732124229327816
 31
0.0
  0
LINE
  5
3D5
330
17
100
AcDbEntity
  8
OBJECT
100
AcDbLine
 10
5.837264999131026
 20
5.840377404800872
 30
0.0
 11
5.806014999131026
 21
5.894503992537399
 31
0.0
  0
LINE
  5
3D6
330
17
100
AcDbEntity
  8
OBJECT
100
AcDbLine
 10
5.743514999131026
 20
6.002757168010454
 30
0.0
 11
5.712264999131026
 21
6.056883755746981
 31
0.0
  0
LINE
  5
3D7
330
17
100
AcDbEntity
  8
OBJECT
100
AcDbLine
 10
5.649764999131026
 20
6.165136931220036
 30
0.0
 11
5.618514999131026
 21
6.219263518956563
 31
0.0
  0
LINE
  5
3D8
330
17
100
AcDbEntity
  8
OBJECT
100
AcDbLine
 10
5.556014999131026
 20
6.327516694429618
 30
0.0
 11
5.524764999131026
 21
6.381643282166145
 31
0.0
  0
LINE
  5
3D9
330
17
100
AcDbEntity
  8
OBJECT
100
AcDbLine
 10
5.462264999131026
 20
6.489896457639201
 30
0.0
 11
5.431014999131026
 21
6.544023045375728
 31
0.0
  0
LINE
  5
3DA
330
17
100
AcDbEntity
  8
OBJECT
100
AcDbLine
 10
5.368514999131026
 20
6.652276220848783
 30
0.0
 11
5.337264999131026
 21
6.70640280858531
 31
0.0
  0
LINE
  5
3DB
330
17
100
AcDbEntity
  8
OBJECT
100
AcDbLine
 10
6.479825743725658
 20
4.835682723213678
 30
0.0
 11
6.462264998926187
 21
4.866098825425114
 31
0.0
  0
LINE
  5
3DC
330
17
100
AcDbEntity
  8
OBJECT
100
AcDbLine
 10
6.399764998926187
 20
4.97435200089817
 30
0.0
 11
6.368514998926187
 21
5.028478588634697
 31
0.0
  0
LINE
  5
3DD
330
17
100
AcDbEntity
  8
OBJECT
100
AcDbLine
 10
6.306014998926187
 20
5.136731764107752
 30
0.0
 11
6.274764998926187
 21
5.190858351844279
 31
0.0
  0
LINE
  5
3DE
330
17
100
AcDbEntity
  8
OBJECT
100
AcDbLine
 10
6.212264998926187
 20
5.299111527317334
 30
0.0
 11
6.181014998926187
 21
5.353238115053861
 31
0.0
  0
LINE
  5
3DF
330
17
100
AcDbEntity
  8
OBJECT
100
AcDbLine
 10
6.118514998926187
 20
5.461491290526916
 30
0.0
 11
6.087264998926187
 21
5.515617878263443
 31
0.0
  0
LINE
  5
3E0
330
17
100
AcDbEntity
  8
OBJECT
100
AcDbLine
 10
6.024764998926187
 20
5.623871053736499
 30
0.0
 11
5.993514998926187
 21
5.677997641473026
 31
0.0
  0
LINE
  5
3E1
330
17
100
AcDbEntity
  8
OBJECT
100
AcDbLine
 10
5.931014998926187
 20
5.786250816946081
 30
0.0
 11
5.899764998926187
 21
5.840377404682608
 31
0.0
  0
LINE
  5
3E2
330
17
100
AcDbEntity
  8
OBJECT
100
AcDbLine
 10
5.837264998926187
 20
5.948630580155663
 30
0.0
 11
5.806014998926187
 21
6.00275716789219
 31
0.0
  0
LINE
  5
3E3
330
17
100
AcDbEntity
  8
OBJECT
100
AcDbLine
 10
5.743514998926187
 20
6.111010343365245
 30
0.0
 11
5.712264998926187
 21
6.165136931101772
 31
0.0
  0
LINE
  5
3E4
330
17
100
AcDbEntity
  8
OBJECT
100
AcDbLine
 10
5.649764998926187
 20
6.273390106574828
 30
0.0
 11
5.618514998926187
 21
6.327516694311355
 31
0.0
  0
LINE
  5
3E5
330
17
100
AcDbEntity
  8
OBJECT
100
AcDbLine
 10
5.556014998926187
 20
6.43576986978441
 30
0.0
 11
5.524764998926187
 21
6.489896457520937
 31
0.0
  0
LINE
  5
3E6
330
17
100
AcDbEntity
  8
OBJECT
100
AcDbLine
 10
5.462264998926187
 20
6.598149632993992
 30
0.0
 11
5.431014998926187
 21
6.652276220730519
 31
0.0
  0
LINE
  5
3E9
330
17
100
AcDbEntity
  8
OBJECT
100
AcDbLine
 10
6.493514998721348
 20
4.920225413043377
 30
0.0
 11
6.462264998721348
 21
4.974352000779904
 31
0.0
  0
LINE
  5
3EA
330
17
100
AcDbEntity
  8
OBJECT
100
AcDbLine
 10
6.399764998721348
 20
5.082605176252959
 30
0.0
 11
6.368514998721348
 21
5.136731763989486
 31
0.0
  0
LINE
  5
3EB
330
17
100
AcDbEntity
  8
OBJECT
100
AcDbLine
 10
6.306014998721348
 20
5.244984939462542
 30
0.0
 11
6.274764998721348
 21
5.299111527199069
 31
0.0
  0
LINE
  5
3EC
330
17
100
AcDbEntity
  8
OBJECT
100
AcDbLine
 10
6.212264998721348
 20
5.407364702672124
 30
0.0
 11
6.181014998721348
 21
5.461491290408651
 31
0.0
  0
LINE
  5
3ED
330
17
100
AcDbEntity
  8
OBJECT
100
AcDbLine
 10
6.118514998721348
 20
5.569744465881706
 30
0.0
 11
6.087264998721348
 21
5.623871053618233
 31
0.0
  0
LINE
  5
3EE
330
17
100
AcDbEntity
  8
OBJECT
100
AcDbLine
 10
6.024764998721348
 20
5.732124229091288
 30
0.0
 11
5.993514998721348
 21
5.786250816827815
 31
0.0
  0
LINE
  5
3EF
330
17
100
AcDbEntity
  8
OBJECT
100
AcDbLine
 10
5.931014998721348
 20
5.894503992300871
 30
0.0
 11
5.899764998721348
 21
5.948630580037398
 31
0.0
  0
LINE
  5
3F0
330
17
100
AcDbEntity
  8
OBJECT
100
AcDbLine
 10
5.837264998721348
 20
6.056883755510453
 30
0.0
 11
5.806014998721348
 21
6.11101034324698
 31
0.0
  0
LINE
  5
3F1
330
17
100
AcDbEntity
  8
OBJECT
100
AcDbLine
 10
5.743514998721348
 20
6.219263518720035
 30
0.0
 11
5.712264998721348
 21
6.273390106456562
 31
0.0
  0
LINE
  5
3F2
330
17
100
AcDbEntity
  8
OBJECT
100
AcDbLine
 10
5.649764998721348
 20
6.381643281929617
 30
0.0
 11
5.618514998721348
 21
6.435769869666144
 31
0.0
  0
LINE
  5
3F3
330
17
100
AcDbEntity
  8
OBJECT
100
AcDbLine
 10
5.556014998721348
 20
6.5440230451392
 30
0.0
 11
5.524764998721348
 21
6.598149632875727
 31
0.0
  0
LINE
  5
3F4
330
17
100
AcDbEntity
  8
OBJECT
100
AcDbLine
 10
5.462264998721348
 20
6.706402808348782
 30
0.0
 11
5.440741429838732
 21
6.743682723213678
 31
0.0
  0
LINE
  5
3F5
330
17
100
AcDbEntity
  8
OBJECT
100
AcDbLine
 10
6.587264998516509
 20
4.866098825188586
 30
0.0
 11
6.556014998516509
 21
4.920225412925113
 31
0.0
  0
LINE
  5
3F6
330
17
100
AcDbEntity
  8
OBJECT
100
AcDbLine
 10
6.493514998516509
 20
5.028478588398169
 30
0.0
 11
6.462264998516509
 21
5.082605176134696
 31
0.0
  0
LINE
  5
3F7
330
17
100
AcDbEntity
  8
OBJECT
100
AcDbLine
 10
6.399764998516509
 20
5.190858351607751
 30
0.0
 11
6.368514998516509
 21
5.244984939344278
 31
0.0
  0
LINE
  5
3F8
330
17
100
AcDbEntity
  8
OBJECT
100
AcDbLine
 10
6.306014998516509
 20
5.353238114817333
 30
0.0
 11
6.274764998516509
 21
5.40736470255386
 31
0.0
  0
LINE
  5
3F9
330
17
100
AcDbEntity
  8
OBJECT
100
AcDbLine
 10
6.212264998516509
 20
5.515617878026915
 30
0.0
 11
6.181014998516509
 21
5.569744465763442
 31
0.0
  0
LINE
  5
3FA
330
17
100
AcDbEntity
  8
OBJECT
100
AcDbLine
 10
6.118514998516509
 20
5.677997641236498
 30
0.0
 11
6.087264998516509
 21
5.732124228973025
 31
0.0
  0
LINE
  5
3FB
330
17
100
AcDbEntity
  8
OBJECT
100
AcDbLine
 10
6.024764998516509
 20
5.84037740444608
 30
0.0
 11
5.993514998516509
 21
5.894503992182607
 31
0.0
  0
LINE
  5
3FC
330
17
100
AcDbEntity
  8
OBJECT
100
AcDbLine
 10
5.931014998516509
 20
6.002757167655662
 30
0.0
 11
5.899764998516509
 21
6.056883755392189
 31
0.0
  0
LINE
  5
3FD
330
17
100
AcDbEntity
  8
OBJECT
100
AcDbLine
 10
5.837264998516509
 20
6.165136930865244
 30
0.0
 11
5.806014998516509
 21
6.219263518601771
 31
0.0
  0
LINE
  5
3FE
330
17
100
AcDbEntity
  8
OBJECT
100
AcDbLine
 10
5.743514998516509
 20
6.327516694074827
 30
0.0
 11
5.712264998516509
 21
6.381643281811354
 31
0.0
  0
LINE
  5
3FF
330
17
100
AcDbEntity
  8
OBJECT
100
AcDbLine
 10
5.649764998516509
 20
6.489896457284409
 30
0.0
 11
5.618514998516509
 21
6.544023045020936
 31
0.0
  0
LINE
  5
400
330
17
100
AcDbEntity
  8
OBJECT
100
AcDbLine
 10
5.556014998516509
 20
6.652276220493991
 30
0.0
 11
5.524764998516509
 21
6.706402808230518
 31
0.0
  0
LINE
  5
401
330
17
100
AcDbEntity
  8
OBJECT
100
AcDbLine
 10
6.667325742906303
 20
4.835682723213678
 30
0.0
 11
6.64976499831167
 21
4.866098825070323
 31
0.0
  0
LINE
  5
402
330
17
100
AcDbEntity
  8
OBJECT
100
AcDbLine
 10
6.58726499831167
 20
4.974352000543378
 30
0.0
 11
6.55601499831167
 21
5.028478588279905
 31
0.0
  0
LINE
  5
403
330
17
100
AcDbEntity
  8
OBJECT
100
AcDbLine
 10
6.49351499831167
 20
5.13673176375296
 30
0.0
 11
6.46226499831167
 21
5.190858351489487
 31
0.0
  0
LINE
  5
404
330
17
100
AcDbEntity
  8
OBJECT
100
AcDbLine
 10
6.39976499831167
 20
5.299111526962542
 30
0.0
 11
6.36851499831167
 21
5.353238114699069
 31
0.0
  0
LINE
  5
405
330
17
100
AcDbEntity
  8
OBJECT
100
AcDbLine
 10
6.30601499831167
 20
5.461491290172125
 30
0.0
 11
6.27476499831167
 21
5.515617877908652
 31
0.0
  0
LINE
  5
406
330
17
100
AcDbEntity
  8
OBJECT
100
AcDbLine
 10
6.21226499831167
 20
5.623871053381707
 30
0.0
 11
6.18101499831167
 21
5.677997641118234
 31
0.0
  0
LINE
  5
407
330
17
100
AcDbEntity
  8
OBJECT
100
AcDbLine
 10
6.11851499831167
 20
5.786250816591289
 30
0.0
 11
6.08726499831167
 21
5.840377404327816
 31
0.0
  0
LINE
  5
408
330
17
100
AcDbEntity
  8
OBJECT
100
AcDbLine
 10
6.02476499831167
 20
5.948630579800871
 30
0.0
 11
5.99351499831167
 21
6.002757167537398
 31
0.0
  0
LINE
  5
409
330
17
100
AcDbEntity
  8
OBJECT
100
AcDbLine
 10
5.93101499831167
 20
6.111010343010454
 30
0.0
 11
5.89976499831167
 21
6.165136930746981
 31
0.0
  0
LINE
  5
40A
330
17
100
AcDbEntity
  8
OBJECT
100
AcDbLine
 10
5.83726499831167
 20
6.273390106220036
 30
0.0
 11
5.80601499831167
 21
6.327516693956563
 31
0.0
  0
LINE
  5
40B
330
17
100
AcDbEntity
  8
OBJECT
100
AcDbLine
 10
5.74351499831167
 20
6.435769869429618
 30
0.0
 11
5.71226499831167
 21
6.489896457166145
 31
0.0
  0
LINE
  5
40C
330
17
100
AcDbEntity
  8
OBJECT
100
AcDbLine
 10
5.64976499831167
 20
6.5981496326392
 30
0.0
 11
5.61851499831167
 21
6.652276220375727
 31
0.0
  0
LINE
  5
40F
330
17
100
AcDbEntity
  8
OBJECT
100
AcDbLine
 10
6.681014998106832
 20
4.920225412688584
 30
0.0
 11
6.649764998106832
 21
4.974352000425112
 31
0.0
  0
LINE
  5
410
330
17
100
AcDbEntity
  8
OBJECT
100
AcDbLine
 10
6.587264998106832
 20
5.082605175898167
 30
0.0
 11
6.556014998106832
 21
5.136731763634694
 31
0.0
  0
LINE
  5
411
330
17
100
AcDbEntity
  8
OBJECT
100
AcDbLine
 10
6.493514998106832
 20
5.244984939107749
 30
0.0
 11
6.462264998106832
 21
5.299111526844276
 31
0.0
  0
LINE
  5
412
330
17
100
AcDbEntity
  8
OBJECT
100
AcDbLine
 10
6.399764998106832
 20
5.407364702317331
 30
0.0
 11
6.368514998106832
 21
5.461491290053858
 31
0.0
  0
LINE
  5
413
330
17
100
AcDbEntity
  8
OBJECT
100
AcDbLine
 10
6.306014998106832
 20
5.569744465526913
 30
0.0
 11
6.274764998106832
 21
5.623871053263441
 31
0.0
  0
LINE
  5
414
330
17
100
AcDbEntity
  8
OBJECT
100
AcDbLine
 10
6.212264998106832
 20
5.732124228736496
 30
0.0
 11
6.181014998106832
 21
5.786250816473023
 31
0.0
  0
LINE
  5
415
330
17
100
AcDbEntity
  8
OBJECT
100
AcDbLine
 10
6.118514998106832
 20
5.894503991946078
 30
0.0
 11
6.087264998106832
 21
5.948630579682605
 31
0.0
  0
LINE
  5
416
330
17
100
AcDbEntity
  8
OBJECT
100
AcDbLine
 10
6.024764998106832
 20
6.05688375515566
 30
0.0
 11
5.993514998106832
 21
6.111010342892187
 31
0.0
  0
LINE
  5
417
330
17
100
AcDbEntity
  8
OBJECT
100
AcDbLine
 10
5.931014998106832
 20
6.219263518365242
 30
0.0
 11
5.899764998106832
 21
6.27339010610177
 31
0.0
  0
LINE
  5
418
330
17
100
AcDbEntity
  8
OBJECT
100
AcDbLine
 10
5.837264998106832
 20
6.381643281574825
 30
0.0
 11
5.806014998106832
 21
6.435769869311352
 31
0.0
  0
LINE
  5
419
330
17
100
AcDbEntity
  8
OBJECT
100
AcDbLine
 10
5.743514998106832
 20
6.544023044784407
 30
0.0
 11
5.712264998106832
 21
6.598149632520934
 31
0.0
  0
LINE
  5
41A
330
17
100
AcDbEntity
  8
OBJECT
100
AcDbLine
 10
5.649764998106832
 20
6.706402807993989
 30
0.0
 11
5.628241429019377
 21
6.743682723213678
 31
0.0
  0
LINE
  5
41B
330
17
100
AcDbEntity
  8
OBJECT
100
AcDbLine
 10
6.774764997901993
 20
4.866098824833795
 30
0.0
 11
6.743514997901993
 21
4.920225412570322
 31
0.0
  0
LINE
  5
41C
330
17
100
AcDbEntity
  8
OBJECT
100
AcDbLine
 10
6.681014997901993
 20
5.028478588043377
 30
0.0
 11
6.649764997901993
 21
5.082605175779904
 31
0.0
  0
LINE
  5
41D
330
17
100
AcDbEntity
  8
OBJECT
100
AcDbLine
 10
6.587264997901993
 20
5.190858351252959
 30
0.0
 11
6.556014997901993
 21
5.244984938989486
 31
0.0
  0
LINE
  5
41E
330
17
100
AcDbEntity
  8
OBJECT
100
AcDbLine
 10
6.493514997901993
 20
5.353238114462541
 30
0.0
 11
6.462264997901993
 21
5.407364702199068
 31
0.0
  0
LINE
  5
41F
330
17
100
AcDbEntity
  8
OBJECT
100
AcDbLine
 10
6.399764997901993
 20
5.515617877672124
 30
0.0
 11
6.368514997901993
 21
5.569744465408651
 31
0.0
  0
LINE
  5
420
330
17
100
AcDbEntity
  8
OBJECT
100
AcDbLine
 10
6.306014997901993
 20
5.677997640881706
 30
0.0
 11
6.274764997901993
 21
5.732124228618233
 31
0.0
  0
LINE
  5
421
330
17
100
AcDbEntity
  8
OBJECT
100
AcDbLine
 10
6.212264997901993
 20
5.840377404091288
 30
0.0
 11
6.181014997901993
 21
5.894503991827815
 31
0.0
  0
LINE
  5
422
330
17
100
AcDbEntity
  8
OBJECT
100
AcDbLine
 10
6.118514997901993
 20
6.00275716730087
 30
0.0
 11
6.087264997901993
 21
6.056883755037397
 31
0.0
  0
LINE
  5
423
330
17
100
AcDbEntity
  8
OBJECT
100
AcDbLine
 10
6.024764997901993
 20
6.165136930510453
 30
0.0
 11
5.993514997901993
 21
6.21926351824698
 31
0.0
  0
LINE
  5
424
330
17
100
AcDbEntity
  8
OBJECT
100
AcDbLine
 10
5.931014997901993
 20
6.327516693720035
 30
0.0
 11
5.899764997901993
 21
6.381643281456562
 31
0.0
  0
LINE
  5
425
330
17
100
AcDbEntity
  8
OBJECT
100
AcDbLine
 10
5.837264997901993
 20
6.489896456929617
 30
0.0
 11
5.806014997901993
 21
6.544023044666144
 31
0.0
  0
LINE
  5
426
330
17
100
AcDbEntity
  8
OBJECT
100
AcDbLine
 10
5.743514997901993
 20
6.652276220139199
 30
0.0
 11
5.712264997901993
 21
6.706402807875726
 31
0.0
  0
LINE
  5
427
330
17
100
AcDbEntity
  8
OBJECT
100
AcDbLine
 10
6.85482574208695
 20
4.835682723213678
 30
0.0
 11
6.837264997697154
 21
4.866098824715531
 31
0.0
  0
LINE
  5
428
330
17
100
AcDbEntity
  8
OBJECT
100
AcDbLine
 10
6.774764997697154
 20
4.974352000188586
 30
0.0
 11
6.743514997697154
 21
5.028478587925113
 31
0.0
  0
LINE
  5
429
330
17
100
AcDbEntity
  8
OBJECT
100
AcDbLine
 10
6.681014997697154
 20
5.136731763398168
 30
0.0
 11
6.649764997697154
 21
5.190858351134695
 31
0.0
  0
LINE
  5
42A
330
17
100
AcDbEntity
  8
OBJECT
100
AcDbLine
 10
6.587264997697154
 20
5.299111526607751
 30
0.0
 11
6.556014997697154
 21
5.353238114344278
 31
0.0
  0
LINE
  5
42B
330
17
100
AcDbEntity
  8
OBJECT
100
AcDbLine
 10
6.493514997697154
 20
5.461491289817333
 30
0.0
 11
6.462264997697154
 21
5.51561787755386
 31
0.0
  0
LINE
  5
42C
330
17
100
AcDbEntity
  8
OBJECT
100
AcDbLine
 10
6.399764997697154
 20
5.623871053026915
 30
0.0
 11
6.368514997697154
 21
5.677997640763442
 31
0.0
  0
LINE
  5
42D
330
17
100
AcDbEntity
  8
OBJECT
100
AcDbLine
 10
6.306014997697154
 20
5.786250816236497
 30
0.0
 11
6.274764997697154
 21
5.840377403973024
 31
0.0
  0
LINE
  5
42E
330
17
100
AcDbEntity
  8
OBJECT
100
AcDbLine
 10
6.212264997697154
 20
5.94863057944608
 30
0.0
 11
6.181014997697154
 21
6.002757167182607
 31
0.0
  0
LINE
  5
42F
330
17
100
AcDbEntity
  8
OBJECT
100
AcDbLine
 10
6.118514997697154
 20
6.111010342655662
 30
0.0
 11
6.087264997697154
 21
6.165136930392189
 31
0.0
  0
LINE
  5
430
330
17
100
AcDbEntity
  8
OBJECT
100
AcDbLine
 10
6.024764997697154
 20
6.273390105865244
 30
0.0
 11
5.993514997697154
 21
6.327516693601771
 31
0.0
  0
LINE
  5
431
330
17
100
AcDbEntity
  8
OBJECT
100
AcDbLine
 10
5.931014997697154
 20
6.435769869074826
 30
0.0
 11
5.899764997697154
 21
6.489896456811353
 31
0.0
  0
LINE
  5
432
330
17
100
AcDbEntity
  8
OBJECT
100
AcDbLine
 10
5.837264997697154
 20
6.598149632284409
 30
0.0
 11
5.806014997697154
 21
6.652276220020936
 31
0.0
  0
LINE
  5
435
330
17
100
AcDbEntity
  8
OBJECT
100
AcDbLine
 10
6.868514997492315
 20
4.920225412333796
 30
0.0
 11
6.837264997492315
 21
4.974352000070323
 31
0.0
  0
LINE
  5
436
330
17
100
AcDbEntity
  8
OBJECT
100
AcDbLine
 10
6.774764997492315
 20
5.082605175543378
 30
0.0
 11
6.743514997492315
 21
5.136731763279906
 31
0.0
  0
LINE
  5
437
330
17
100
AcDbEntity
  8
OBJECT
100
AcDbLine
 10
6.681014997492315
 20
5.244984938752961
 30
0.0
 11
6.649764997492315
 21
5.299111526489488
 31
0.0
  0
LINE
  5
438
330
17
100
AcDbEntity
  8
OBJECT
100
AcDbLine
 10
6.587264997492315
 20
5.407364701962543
 30
0.0
 11
6.556014997492315
 21
5.46149128969907
 31
0.0
  0
LINE
  5
439
330
17
100
AcDbEntity
  8
OBJECT
100
AcDbLine
 10
6.493514997492315
 20
5.569744465172125
 30
0.0
 11
6.462264997492315
 21
5.623871052908652
 31
0.0
  0
LINE
  5
43A
330
17
100
AcDbEntity
  8
OBJECT
100
AcDbLine
 10
6.399764997492315
 20
5.732124228381707
 30
0.0
 11
6.368514997492315
 21
5.786250816118235
 31
0.0
  0
LINE
  5
43B
330
17
100
AcDbEntity
  8
OBJECT
100
AcDbLine
 10
6.306014997492315
 20
5.89450399159129
 30
0.0
 11
6.274764997492315
 21
5.948630579327817
 31
0.0
  0
LINE
  5
43C
330
17
100
AcDbEntity
  8
OBJECT
100
AcDbLine
 10
6.212264997492315
 20
6.056883754800872
 30
0.0
 11
6.181014997492315
 21
6.111010342537399
 31
0.0
  0
LINE
  5
43D
330
17
100
AcDbEntity
  8
OBJECT
100
AcDbLine
 10
6.118514997492315
 20
6.219263518010454
 30
0.0
 11
6.087264997492315
 21
6.273390105746981
 31
0.0
  0
LINE
  5
43E
330
17
100
AcDbEntity
  8
OBJECT
100
AcDbLine
 10
6.024764997492315
 20
6.381643281220036
 30
0.0
 11
5.993514997492315
 21
6.435769868956564
 31
0.0
  0
LINE
  5
43F
330
17
100
AcDbEntity
  8
OBJECT
100
AcDbLine
 10
5.931014997492315
 20
6.544023044429619
 30
0.0
 11
5.899764997492315
 21
6.598149632166146
 31
0.0
  0
LINE
  5
440
330
17
100
AcDbEntity
  8
OBJECT
100
AcDbLine
 10
5.837264997492315
 20
6.706402807639201
 30
0.0
 11
5.815741428200022
 21
6.743682723213678
 31
0.0
  0
LINE
  5
441
330
17
100
AcDbEntity
  8
OBJECT
100
AcDbLine
 10
6.962264997287476
 20
4.866098824479003
 30
0.0
 11
6.931014997287476
 21
4.92022541221553
 31
0.0
  0
LINE
  5
442
330
17
100
AcDbEntity
  8
OBJECT
100
AcDbLine
 10
6.868514997287476
 20
5.028478587688585
 30
0.0
 11
6.837264997287476
 21
5.082605175425112
 31
0.0
  0
LINE
  5
443
330
17
100
AcDbEntity
  8
OBJECT
100
AcDbLine
 10
6.774764997287476
 20
5.190858350898167
 30
0.0
 11
6.743514997287476
 21
5.244984938634694
 31
0.0
  0
LINE
  5
444
330
17
100
AcDbEntity
  8
OBJECT
100
AcDbLine
 10
6.681014997287476
 20
5.35323811410775
 30
0.0
 11
6.649764997287476
 21
5.407364701844277
 31
0.0
  0
LINE
  5
445
330
17
100
AcDbEntity
  8
OBJECT
100
AcDbLine
 10
6.587264997287476
 20
5.515617877317332
 30
0.0
 11
6.556014997287476
 21
5.569744465053859
 31
0.0
  0
LINE
  5
446
330
17
100
AcDbEntity
  8
OBJECT
100
AcDbLine
 10
6.493514997287476
 20
5.677997640526914
 30
0.0
 11
6.462264997287476
 21
5.732124228263441
 31
0.0
  0
LINE
  5
447
330
17
100
AcDbEntity
  8
OBJECT
100
AcDbLine
 10
6.399764997287476
 20
5.840377403736496
 30
0.0
 11
6.368514997287476
 21
5.894503991473023
 31
0.0
  0
LINE
  5
448
330
17
100
AcDbEntity
  8
OBJECT
100
AcDbLine
 10
6.306014997287476
 20
6.002757166946079
 30
0.0
 11
6.274764997287476
 21
6.056883754682606
 31
0.0
  0
LINE
  5
449
330
17
100
AcDbEntity
  8
OBJECT
100
AcDbLine
 10
6.212264997287476
 20
6.165136930155661
 30
0.0
 11
6.181014997287476
 21
6.219263517892188
 31
0.0
  0
LINE
  5
44A
330
17
100
AcDbEntity
  8
OBJECT
100
AcDbLine
 10
6.118514997287476
 20
6.327516693365243
 30
0.0
 11
6.087264997287476
 21
6.38164328110177
 31
0.0
  0
LINE
  5
44B
330
17
100
AcDbEntity
  8
OBJECT
100
AcDbLine
 10
6.024764997287476
 20
6.489896456574825
 30
0.0
 11
5.993514997287476
 21
6.544023044311352
 31
0.0
  0
LINE
  5
44C
330
17
100
AcDbEntity
  8
OBJECT
100
AcDbLine
 10
5.931014997287476
 20
6.652276219784408
 30
0.0
 11
5.899764997287476
 21
6.706402807520935
 31
0.0
  0
LINE
  5
44E
330
17
100
AcDbEntity
  8
OBJECT
100
AcDbLine
 10
6.962264997082638
 20
4.974351999833796
 30
0.0
 11
6.931014997082638
 21
5.028478587570323
 31
0.0
  0
LINE
  5
44F
330
17
100
AcDbEntity
  8
OBJECT
100
AcDbLine
 10
6.868514997082638
 20
5.136731763043378
 30
0.0
 11
6.837264997082638
 21
5.190858350779905
 31
0.0
  0
LINE
  5
450
330
17
100
AcDbEntity
  8
OBJECT
100
AcDbLine
 10
6.774764997082638
 20
5.299111526252961
 30
0.0
 11
6.743514997082638
 21
5.353238113989488
 31
0.0
  0
LINE
  5
451
330
17
100
AcDbEntity
  8
OBJECT
100
AcDbLine
 10
6.681014997082638
 20
5.461491289462543
 30
0.0
 11
6.649764997082638
 21
5.51561787719907
 31
0.0
  0
LINE
  5
452
330
17
100
AcDbEntity
  8
OBJECT
100
AcDbLine
 10
6.587264997082638
 20
5.623871052672125
 30
0.0
 11
6.556014997082638
 21
5.677997640408652
 31
0.0
  0
LINE
  5
453
330
17
100
AcDbEntity
  8
OBJECT
100
AcDbLine
 10
6.493514997082638
 20
5.786250815881707
 30
0.0
 11
6.462264997082638
 21
5.840377403618234
 31
0.0
  0
LINE
  5
454
330
17
100
AcDbEntity
  8
OBJECT
100
AcDbLine
 10
6.399764997082638
 20
5.94863057909129
 30
0.0
 11
6.368514997082638
 21
6.002757166827817
 31
0.0
  0
LINE
  5
455
330
17
100
AcDbEntity
  8
OBJECT
100
AcDbLine
 10
6.306014997082638
 20
6.111010342300872
 30
0.0
 11
6.274764997082638
 21
6.165136930037399
 31
0.0
  0
LINE
  5
456
330
17
100
AcDbEntity
  8
OBJECT
100
AcDbLine
 10
6.212264997082638
 20
6.273390105510454
 30
0.0
 11
6.181014997082638
 21
6.327516693246981
 31
0.0
  0
LINE
  5
457
330
17
100
AcDbEntity
  8
OBJECT
100
AcDbLine
 10
6.118514997082638
 20
6.435769868720036
 30
0.0
 11
6.087264997082638
 21
6.489896456456563
 31
0.0
  0
LINE
  5
458
330
17
100
AcDbEntity
  8
OBJECT
100
AcDbLine
 10
6.024764997082638
 20
6.598149631929619
 30
0.0
 11
5.993514997082638
 21
6.652276219666146
 31
0.0
  0
LINE
  5
45B
330
17
100
AcDbEntity
  8
OBJECT
100
AcDbLine
 10
6.962264996877799
 20
5.082605175188588
 30
0.0
 11
6.931014996877799
 21
5.136731762925115
 31
0.0
  0
LINE
  5
45C
330
17
100
AcDbEntity
  8
OBJECT
100
AcDbLine
 10
6.868514996877799
 20
5.24498493839817
 30
0.0
 11
6.837264996877799
 21
5.299111526134697
 31
0.0
  0
LINE
  5
45D
330
17
100
AcDbEntity
  8
OBJECT
100
AcDbLine
 10
6.774764996877799
 20
5.407364701607752
 30
0.0
 11
6.743514996877799
 21
5.461491289344279
 31
0.0
  0
LINE
  5
45E
330
17
100
AcDbEntity
  8
OBJECT
100
AcDbLine
 10
6.681014996877799
 20
5.569744464817334
 30
0.0
 11
6.649764996877799
 21
5.623871052553861
 31
0.0
  0
LINE
  5
45F
330
17
100
AcDbEntity
  8
OBJECT
100
AcDbLine
 10
6.587264996877799
 20
5.732124228026917
 30
0.0
 11
6.556014996877799
 21
5.786250815763444
 31
0.0
  0
LINE
  5
460
330
17
100
AcDbEntity
  8
OBJECT
100
AcDbLine
 10
6.493514996877799
 20
5.894503991236499
 30
0.0
 11
6.462264996877799
 21
5.948630578973026
 31
0.0
  0
LINE
  5
461
330
17
100
AcDbEntity
  8
OBJECT
100
AcDbLine
 10
6.399764996877799
 20
6.056883754446081
 30
0.0
 11
6.368514996877799
 21
6.111010342182608
 31
0.0
  0
LINE
  5
462
330
17
100
AcDbEntity
  8
OBJECT
100
AcDbLine
 10
6.306014996877799
 20
6.219263517655663
 30
0.0
 11
6.274764996877799
 21
6.27339010539219
 31
0.0
  0
LINE
  5
463
330
17
100
AcDbEntity
  8
OBJECT
100
AcDbLine
 10
6.212264996877799
 20
6.381643280865246
 30
0.0
 11
6.181014996877799
 21
6.435769868601773
 31
0.0
  0
LINE
  5
464
330
17
100
AcDbEntity
  8
OBJECT
100
AcDbLine
 10
6.118514996877799
 20
6.544023044074828
 30
0.0
 11
6.087264996877799
 21
6.598149631811355
 31
0.0
  0
LINE
  5
465
330
17
100
AcDbEntity
  8
OBJECT
100
AcDbLine
 10
6.024764996877799
 20
6.70640280728441
 30
0.0
 11
6.003241427380666
 21
6.743682723213678
 31
0.0
  0
LINE
  5
467
330
17
100
AcDbEntity
  8
OBJECT
100
AcDbLine
 10
6.96226499667296
 20
5.190858350543377
 30
0.0
 11
6.93101499667296
 21
5.244984938279904
 31
0.0
  0
LINE
  5
468
330
17
100
AcDbEntity
  8
OBJECT
100
AcDbLine
 10
6.86851499667296
 20
5.35323811375296
 30
0.0
 11
6.83726499667296
 21
5.407364701489487
 31
0.0
  0
LINE
  5
469
330
17
100
AcDbEntity
  8
OBJECT
100
AcDbLine
 10
6.77476499667296
 20
5.515617876962542
 30
0.0
 11
6.74351499667296
 21
5.569744464699069
 31
0.0
  0
LINE
  5
46A
330
17
100
AcDbEntity
  8
OBJECT
100
AcDbLine
 10
6.68101499667296
 20
5.677997640172124
 30
0.0
 11
6.64976499667296
 21
5.732124227908651
 31
0.0
  0
LINE
  5
46B
330
17
100
AcDbEntity
  8
OBJECT
100
AcDbLine
 10
6.58726499667296
 20
5.840377403381706
 30
0.0
 11
6.55601499667296
 21
5.894503991118233
 31
0.0
  0
LINE
  5
46C
330
17
100
AcDbEntity
  8
OBJECT
100
AcDbLine
 10
6.49351499667296
 20
6.002757166591289
 30
0.0
 11
6.46226499667296
 21
6.056883754327816
 31
0.0
  0
LINE
  5
46D
330
17
100
AcDbEntity
  8
OBJECT
100
AcDbLine
 10
6.39976499667296
 20
6.165136929800871
 30
0.0
 11
6.36851499667296
 21
6.219263517537398
 31
0.0
  0
LINE
  5
46E
330
17
100
AcDbEntity
  8
OBJECT
100
AcDbLine
 10
6.30601499667296
 20
6.327516693010453
 30
0.0
 11
6.27476499667296
 21
6.38164328074698
 31
0.0
  0
LINE
  5
46F
330
17
100
AcDbEntity
  8
OBJECT
100
AcDbLine
 10
6.21226499667296
 20
6.489896456220035
 30
0.0
 11
6.18101499667296
 21
6.544023043956562
 31
0.0
  0
LINE
  5
470
330
17
100
AcDbEntity
  8
OBJECT
100
AcDbLine
 10
6.11851499667296
 20
6.652276219429618
 30
0.0
 11
6.08726499667296
 21
6.706402807166145
 31
0.0
  0
LINE
  5
472
330
17
100
AcDbEntity
  8
OBJECT
100
AcDbLine
 10
6.962264996468121
 20
5.29911152589817
 30
0.0
 11
6.931014996468121
 21
5.353238113634697
 31
0.0
  0
LINE
  5
473
330
17
100
AcDbEntity
  8
OBJECT
100
AcDbLine
 10
6.868514996468121
 20
5.461491289107752
 30
0.0
 11
6.837264996468121
 21
5.515617876844279
 31
0.0
  0
LINE
  5
474
330
17
100
AcDbEntity
  8
OBJECT
100
AcDbLine
 10
6.774764996468121
 20
5.623871052317334
 30
0.0
 11
6.743514996468121
 21
5.677997640053861
 31
0.0
  0
LINE
  5
475
330
17
100
AcDbEntity
  8
OBJECT
100
AcDbLine
 10
6.681014996468121
 20
5.786250815526917
 30
0.0
 11
6.649764996468121
 21
5.840377403263444
 31
0.0
  0
LINE
  5
476
330
17
100
AcDbEntity
  8
OBJECT
100
AcDbLine
 10
6.587264996468121
 20
5.948630578736499
 30
0.0
 11
6.556014996468121
 21
6.002757166473026
 31
0.0
  0
LINE
  5
477
330
17
100
AcDbEntity
  8
OBJECT
100
AcDbLine
 10
6.493514996468121
 20
6.111010341946081
 30
0.0
 11
6.462264996468121
 21
6.165136929682608
 31
0.0
  0
LINE
  5
478
330
17
100
AcDbEntity
  8
OBJECT
100
AcDbLine
 10
6.399764996468121
 20
6.273390105155663
 30
0.0
 11
6.368514996468121
 21
6.32751669289219
 31
0.0
  0
LINE
  5
479
330
17
100
AcDbEntity
  8
OBJECT
100
AcDbLine
 10
6.306014996468121
 20
6.435769868365246
 30
0.0
 11
6.274764996468121
 21
6.489896456101773
 31
0.0
  0
LINE
  5
47A
330
17
100
AcDbEntity
  8
OBJECT
100
AcDbLine
 10
6.212264996468121
 20
6.598149631574828
 30
0.0
 11
6.181014996468121
 21
6.652276219311355
 31
0.0
  0
LINE
  5
47D
330
17
100
AcDbEntity
  8
OBJECT
100
AcDbLine
 10
6.962264996263282
 20
5.407364701252959
 30
0.0
 11
6.931014996263282
 21
5.461491288989487
 31
0.0
  0
LINE
  5
47E
330
17
100
AcDbEntity
  8
OBJECT
100
AcDbLine
 10
6.868514996263282
 20
5.569744464462542
 30
0.0
 11
6.837264996263282
 21
5.623871052199069
 31
0.0
  0
LINE
  5
47F
330
17
100
AcDbEntity
  8
OBJECT
100
AcDbLine
 10
6.774764996263282
 20
5.732124227672124
 30
0.0
 11
6.743514996263282
 21
5.786250815408651
 31
0.0
  0
LINE
  5
480
330
17
100
AcDbEntity
  8
OBJECT
100
AcDbLine
 10
6.681014996263282
 20
5.894503990881706
 30
0.0
 11
6.649764996263282
 21
5.948630578618233
 31
0.0
  0
LINE
  5
481
330
17
100
AcDbEntity
  8
OBJECT
100
AcDbLine
 10
6.587264996263282
 20
6.056883754091288
 30
0.0
 11
6.556014996263282
 21
6.111010341827816
 31
0.0
  0
LINE
  5
482
330
17
100
AcDbEntity
  8
OBJECT
100
AcDbLine
 10
6.493514996263282
 20
6.219263517300871
 30
0.0
 11
6.462264996263282
 21
6.273390105037398
 31
0.0
  0
LINE
  5
483
330
17
100
AcDbEntity
  8
OBJECT
100
AcDbLine
 10
6.399764996263282
 20
6.381643280510453
 30
0.0
 11
6.368514996263282
 21
6.43576986824698
 31
0.0
  0
LINE
  5
484
330
17
100
AcDbEntity
  8
OBJECT
100
AcDbLine
 10
6.306014996263282
 20
6.544023043720035
 30
0.0
 11
6.274764996263282
 21
6.598149631456562
 31
0.0
  0
LINE
  5
485
330
17
100
AcDbEntity
  8
OBJECT
100
AcDbLine
 10
6.212264996263282
 20
6.706402806929617
 30
0.0
 11
6.190741426561315
 21
6.743682723213678
 31
0.0
  0
LINE
  5
487
330
17
100
AcDbEntity
  8
OBJECT
100
AcDbLine
 10
6.962264996058443
 20
5.515617876607752
 30
0.0
 11
6.931014996058443
 21
5.569744464344279
 31
0.0
  0
LINE
  5
488
330
17
100
AcDbEntity
  8
OBJECT
100
AcDbLine
 10
6.868514996058443
 20
5.677997639817334
 30
0.0
 11
6.837264996058443
 21
5.732124227553861
 31
0.0
  0
LINE
  5
489
330
17
100
AcDbEntity
  8
OBJECT
100
AcDbLine
 10
6.774764996058443
 20
5.840377403026916
 30
0.0
 11
6.743514996058443
 21
5.894503990763444
 31
0.0
  0
LINE
  5
48A
330
17
100
AcDbEntity
  8
OBJECT
100
AcDbLine
 10
6.681014996058443
 20
6.002757166236499
 30
0.0
 11
6.649764996058443
 21
6.056883753973026
 31
0.0
  0
LINE
  5
48B
330
17
100
AcDbEntity
  8
OBJECT
100
AcDbLine
 10
6.587264996058443
 20
6.165136929446081
 30
0.0
 11
6.556014996058443
 21
6.219263517182608
 31
0.0
  0
LINE
  5
48C
330
17
100
AcDbEntity
  8
OBJECT
100
AcDbLine
 10
6.493514996058443
 20
6.327516692655663
 30
0.0
 11
6.462264996058443
 21
6.38164328039219
 31
0.0
  0
LINE
  5
48D
330
17
100
AcDbEntity
  8
OBJECT
100
AcDbLine
 10
6.399764996058443
 20
6.489896455865245
 30
0.0
 11
6.368514996058443
 21
6.544023043601773
 31
0.0
  0
LINE
  5
48E
330
17
100
AcDbEntity
  8
OBJECT
100
AcDbLine
 10
6.306014996058443
 20
6.652276219074828
 30
0.0
 11
6.274764996058443
 21
6.706402806811355
 31
0.0
  0
LINE
  5
490
330
17
100
AcDbEntity
  8
OBJECT
100
AcDbLine
 10
6.962264995853605
 20
5.623871051962542
 30
0.0
 11
6.931014995853605
 21
5.67799763969907
 31
0.0
  0
LINE
  5
491
330
17
100
AcDbEntity
  8
OBJECT
100
AcDbLine
 10
6.868514995853605
 20
5.786250815172125
 30
0.0
 11
6.837264995853605
 21
5.840377402908652
 31
0.0
  0
LINE
  5
492
330
17
100
AcDbEntity
  8
OBJECT
100
AcDbLine
 10
6.774764995853605
 20
5.948630578381707
 30
0.0
 11
6.743514995853605
 21
6.002757166118234
 31
0.0
  0
LINE
  5
493
330
17
100
AcDbEntity
  8
OBJECT
100
AcDbLine
 10
6.681014995853605
 20
6.111010341591289
 30
0.0
 11
6.649764995853605
 21
6.165136929327816
 31
0.0
  0
LINE
  5
494
330
17
100
AcDbEntity
  8
OBJECT
100
AcDbLine
 10
6.587264995853605
 20
6.273390104800872
 30
0.0
 11
6.556014995853605
 21
6.327516692537399
 31
0.0
  0
LINE
  5
495
330
17
100
AcDbEntity
  8
OBJECT
100
AcDbLine
 10
6.493514995853605
 20
6.435769868010454
 30
0.0
 11
6.462264995853605
 21
6.489896455746981
 31
0.0
  0
LINE
  5
496
330
17
100
AcDbEntity
  8
OBJECT
100
AcDbLine
 10
6.399764995853605
 20
6.598149631220036
 30
0.0
 11
6.368514995853605
 21
6.652276218956563
 31
0.0
  0
LINE
  5
499
330
17
100
AcDbEntity
  8
OBJECT
100
AcDbLine
 10
6.962264995648766
 20
5.732124227317334
 30
0.0
 11
6.931014995648766
 21
5.786250815053861
 31
0.0
  0
LINE
  5
49A
330
17
100
AcDbEntity
  8
OBJECT
100
AcDbLine
 10
6.868514995648766
 20
5.894503990526916
 30
0.0
 11
6.837264995648766
 21
5.948630578263443
 31
0.0
  0
LINE
  5
49B
330
17
100
AcDbEntity
  8
OBJECT
100
AcDbLine
 10
6.774764995648766
 20
6.056883753736499
 30
0.0
 11
6.743514995648766
 21
6.111010341473026
 31
0.0
  0
LINE
  5
49C
330
17
100
AcDbEntity
  8
OBJECT
100
AcDbLine
 10
6.681014995648766
 20
6.219263516946081
 30
0.0
 11
6.649764995648766
 21
6.273390104682608
 31
0.0
  0
LINE
  5
49D
330
17
100
AcDbEntity
  8
OBJECT
100
AcDbLine
 10
6.587264995648766
 20
6.381643280155663
 30
0.0
 11
6.556014995648766
 21
6.43576986789219
 31
0.0
  0
LINE
  5
49E
330
17
100
AcDbEntity
  8
OBJECT
100
AcDbLine
 10
6.493514995648766
 20
6.544023043365245
 30
0.0
 11
6.462264995648766
 21
6.598149631101772
 31
0.0
  0
LINE
  5
49F
330
17
100
AcDbEntity
  8
OBJECT
100
AcDbLine
 10
6.399764995648766
 20
6.706402806574828
 30
0.0
 11
6.378241425741959
 21
6.743682723213678
 31
0.0
  0
LINE
  5
4A1
330
17
100
AcDbEntity
  8
OBJECT
100
AcDbLine
 10
6.962264995443929
 20
5.840377402672122
 30
0.0
 11
6.931014995443929
 21
5.894503990408649
 31
0.0
  0
LINE
  5
4A2
330
17
100
AcDbEntity
  8
OBJECT
100
AcDbLine
 10
6.868514995443929
 20
6.002757165881704
 30
0.0
 11
6.837264995443929
 21
6.056883753618231
 31
0.0
  0
LINE
  5
4A3
330
17
100
AcDbEntity
  8
OBJECT
100
AcDbLine
 10
6.774764995443929
 20
6.165136929091286
 30
0.0
 11
6.743514995443929
 21
6.219263516827814
 31
0.0
  0
LINE
  5
4A4
330
17
100
AcDbEntity
  8
OBJECT
100
AcDbLine
 10
6.681014995443929
 20
6.327516692300869
 30
0.0
 11
6.649764995443929
 21
6.381643280037396
 31
0.0
  0
LINE
  5
4A5
330
17
100
AcDbEntity
  8
OBJECT
100
AcDbLine
 10
6.587264995443929
 20
6.489896455510451
 30
0.0
 11
6.556014995443929
 21
6.544023043246978
 31
0.0
  0
LINE
  5
4A6
330
17
100
AcDbEntity
  8
OBJECT
100
AcDbLine
 10
6.493514995443929
 20
6.652276218720033
 30
0.0
 11
6.462264995443929
 21
6.70640280645656
 31
0.0
  0
LINE
  5
4A8
330
17
100
AcDbEntity
  8
OBJECT
100
AcDbLine
 10
6.96226499523909
 20
5.948630578026913
 30
0.0
 11
6.93101499523909
 21
6.002757165763441
 31
0.0
  0
LINE
  5
4A9
330
17
100
AcDbEntity
  8
OBJECT
100
AcDbLine
 10
6.86851499523909
 20
6.111010341236496
 30
0.0
 11
6.83726499523909
 21
6.165136928973023
 31
0.0
  0
LINE
  5
4AA
330
17
100
AcDbEntity
  8
OBJECT
100
AcDbLine
 10
6.77476499523909
 20
6.273390104446078
 30
0.0
 11
6.74351499523909
 21
6.327516692182605
 31
0.0
  0
LINE
  5
4AB
330
17
100
AcDbEntity
  8
OBJECT
100
AcDbLine
 10
6.68101499523909
 20
6.43576986765566
 30
0.0
 11
6.64976499523909
 21
6.489896455392187
 31
0.0
  0
LINE
  5
4AC
330
17
100
AcDbEntity
  8
OBJECT
100
AcDbLine
 10
6.58726499523909
 20
6.598149630865242
 30
0.0
 11
6.55601499523909
 21
6.65227621860177
 31
0.0
  0
LINE
  5
4AF
330
17
100
AcDbEntity
  8
OBJECT
100
AcDbLine
 10
6.962264995034249
 20
6.056883753381709
 30
0.0
 11
6.931014995034249
 21
6.111010341118236
 31
0.0
  0
LINE
  5
4B0
330
17
100
AcDbEntity
  8
OBJECT
100
AcDbLine
 10
6.868514995034249
 20
6.219263516591291
 30
0.0
 11
6.837264995034249
 21
6.273390104327818
 31
0.0
  0
LINE
  5
4B1
330
17
100
AcDbEntity
  8
OBJECT
100
AcDbLine
 10
6.774764995034249
 20
6.381643279800873
 30
0.0
 11
6.743514995034249
 21
6.4357698675374
 31
0.0
  0
LINE
  5
4B2
330
17
100
AcDbEntity
  8
OBJECT
100
AcDbLine
 10
6.681014995034249
 20
6.544023043010455
 30
0.0
 11
6.649764995034249
 21
6.598149630746982
 31
0.0
  0
LINE
  5
4B3
330
17
100
AcDbEntity
  8
OBJECT
100
AcDbLine
 10
6.587264995034249
 20
6.706402806220038
 30
0.0
 11
6.565741424922606
 21
6.743682723213678
 31
0.0
  0
LINE
  5
4B5
330
17
100
AcDbEntity
  8
OBJECT
100
AcDbLine
 10
6.962264994829411
 20
6.165136928736498
 30
0.0
 11
6.931014994829411
 21
6.219263516473025
 31
0.0
  0
LINE
  5
4B6
330
17
100
AcDbEntity
  8
OBJECT
100
AcDbLine
 10
6.868514994829411
 20
6.327516691946081
 30
0.0
 11
6.837264994829411
 21
6.381643279682608
 31
0.0
  0
LINE
  5
4B7
330
17
100
AcDbEntity
  8
OBJECT
100
AcDbLine
 10
6.774764994829411
 20
6.489896455155663
 30
0.0
 11
6.743514994829411
 21
6.54402304289219
 31
0.0
  0
LINE
  5
4B8
330
17
100
AcDbEntity
  8
OBJECT
100
AcDbLine
 10
6.681014994829411
 20
6.652276218365245
 30
0.0
 11
6.649764994829411
 21
6.706402806101772
 31
0.0
  0
LINE
  5
4BA
330
17
100
AcDbEntity
  8
OBJECT
100
AcDbLine
 10
6.962264994624574
 20
6.273390104091288
 30
0.0
 11
6.931014994624574
 21
6.327516691827815
 31
0.0
  0
LINE
  5
4BB
330
17
100
AcDbEntity
  8
OBJECT
100
AcDbLine
 10
6.868514994624574
 20
6.43576986730087
 30
0.0
 11
6.837264994624574
 21
6.489896455037397
 31
0.0
  0
LINE
  5
4BC
330
17
100
AcDbEntity
  8
OBJECT
100
AcDbLine
 10
6.774764994624574
 20
6.598149630510453
 30
0.0
 11
6.743514994624574
 21
6.65227621824698
 31
0.0
  0
LINE
  5
4BF
330
17
100
AcDbEntity
  8
OBJECT
100
AcDbLine
 10
6.962264994419735
 20
6.381643279446079
 30
0.0
 11
6.931014994419735
 21
6.435769867182606
 31
0.0
  0
LINE
  5
4C0
330
17
100
AcDbEntity
  8
OBJECT
100
AcDbLine
 10
6.868514994419735
 20
6.544023042655661
 30
0.0
 11
6.837264994419735
 21
6.598149630392188
 31
0.0
  0
LINE
  5
4C1
330
17
100
AcDbEntity
  8
OBJECT
100
AcDbLine
 10
6.774764994419735
 20
6.706402805865243
 30
0.0
 11
6.753241424103251
 21
6.743682723213678
 31
0.0
  0
LINE
  5
4C3
330
17
100
AcDbEntity
  8
OBJECT
100
AcDbLine
 10
6.962264994214894
 20
6.489896454800873
 30
0.0
 11
6.931014994214894
 21
6.5440230425374
 31
0.0
  0
LINE
  5
4C4
330
17
100
AcDbEntity
  8
OBJECT
100
AcDbLine
 10
6.868514994214894
 20
6.652276218010455
 30
0.0
 11
6.837264994214894
 21
6.706402805746982
 31
0.0
  0
LINE
  5
4C6
330
17
100
AcDbEntity
  8
OBJECT
100
AcDbLine
 10
6.962264994010055
 20
6.598149630155664
 30
0.0
 11
6.931014994010055
 21
6.652276217892191
 31
0.0
  0
LINE
  5
4C9
330
17
100
AcDbEntity
  8
OBJECT
100
AcDbLine
 10
6.962264993805217
 20
6.706402805510455
 30
0.0
 11
6.940741423283892
 21
6.743682723213678
 31
0.0
  0
LINE
  5
4CD
330
17
100
AcDbEntity
  8
OBJECT
100
AcDbLine
 10
5.078430699208237
 20
6.691101320102006
 30
0.0
 11
5.087265028013288
 21
6.706402826443127
 31
0.0
  0
LINE
  5
4CE
330
17
100
AcDbEntity
  8
OBJECT
100
AcDbLine
 10
5.078430699208237
 20
6.582848145102007
 30
0.0
 11
5.087265027808449
 21
6.598149651088336
 31
0.0
  0
LINE
  5
4CF
330
17
100
AcDbEntity
  8
OBJECT
100
AcDbLine
 10
5.149765027808449
 20
6.706402826561391
 30
0.0
 11
5.171288586176009
 21
6.743682723213678
 31
0.0
  0
LINE
  5
4D0
330
17
100
AcDbEntity
  8
OBJECT
100
AcDbLine
 10
5.078430699208237
 20
6.474594970102004
 30
0.0
 11
5.087265027603612
 21
6.489896475733544
 31
0.0
  0
LINE
  5
4D1
330
17
100
AcDbEntity
  8
OBJECT
100
AcDbLine
 10
5.149765027603612
 20
6.5981496512066
 30
0.0
 11
5.181015027603612
 21
6.652276238943127
 31
0.0
  0
LINE
  5
4D3
330
17
100
AcDbEntity
  8
OBJECT
100
AcDbLine
 10
5.078430699208237
 20
6.366341795102004
 30
0.0
 11
5.087265027398773
 21
6.381643300378753
 31
0.0
  0
LINE
  5
4D4
330
17
100
AcDbEntity
  8
OBJECT
100
AcDbLine
 10
5.149765027398773
 20
6.489896475851808
 30
0.0
 11
5.181015027398773
 21
6.544023063588335
 31
0.0
  0
LINE
  5
4D5
330
17
100
AcDbEntity
  8
OBJECT
100
AcDbLine
 10
5.243515027398773
 20
6.65227623906139
 30
0.0
 11
5.274765027398773
 21
6.706402826797917
 31
0.0
  0
LINE
  5
4D6
330
17
100
AcDbEntity
  8
OBJECT
100
AcDbLine
 10
5.078430699208237
 20
6.258088620102006
 30
0.0
 11
5.087265027193934
 21
6.273390125023962
 31
0.0
  0
LINE
  5
4D7
330
17
100
AcDbEntity
  8
OBJECT
100
AcDbLine
 10
5.149765027193934
 20
6.381643300497017
 30
0.0
 11
5.181015027193934
 21
6.435769888233545
 31
0.0
  0
LINE
  5
4D8
330
17
100
AcDbEntity
  8
OBJECT
100
AcDbLine
 10
5.243515027193934
 20
6.5440230637066
 30
0.0
 11
5.274765027193934
 21
6.598149651443127
 31
0.0
  0
LINE
  5
4D9
330
17
100
AcDbEntity
  8
OBJECT
100
AcDbLine
 10
5.337265027193934
 20
6.706402826916182
 30
0.0
 11
5.358788585356656
 21
6.743682723213678
 31
0.0
  0
LINE
  5
4DA
330
17
100
AcDbEntity
  8
OBJECT
100
AcDbLine
 10
5.078430699208237
 20
6.149835445102006
 30
0.0
 11
5.087265026989095
 21
6.165136949669171
 31
0.0
  0
LINE
  5
4DB
330
17
100
AcDbEntity
  8
OBJECT
100
AcDbLine
 10
5.149765026989095
 20
6.273390125142226
 30
0.0
 11
5.181015026989095
 21
6.327516712878753
 31
0.0
  0
LINE
  5
4DC
330
17
100
AcDbEntity
  8
OBJECT
100
AcDbLine
 10
5.243515026989095
 20
6.435769888351808
 30
0.0
 11
5.274765026989095
 21
6.489896476088335
 31
0.0
  0
LINE
  5
4DD
330
17
100
AcDbEntity
  8
OBJECT
100
AcDbLine
 10
5.337265026989095
 20
6.59814965156139
 30
0.0
 11
5.368515026989095
 21
6.652276239297918
 31
0.0
  0
LINE
  5
4DF
330
17
100
AcDbEntity
  8
OBJECT
100
AcDbLine
 10
5.078430699208237
 20
6.041582270102005
 30
0.0
 11
5.087265026784256
 21
6.05688377431438
 31
0.0
  0
LINE
  5
4E0
330
17
100
AcDbEntity
  8
OBJECT
100
AcDbLine
 10
5.149765026784256
 20
6.165136949787435
 30
0.0
 11
5.181015026784256
 21
6.219263537523962
 31
0.0
  0
LINE
  5
4E1
330
17
100
AcDbEntity
  8
OBJECT
100
AcDbLine
 10
5.243515026784256
 20
6.327516712997018
 30
0.0
 11
5.274765026784256
 21
6.381643300733545
 31
0.0
  0
LINE
  5
4E2
330
17
100
AcDbEntity
  8
OBJECT
100
AcDbLine
 10
5.337265026784256
 20
6.4898964762066
 30
0.0
 11
5.368515026784256
 21
6.544023063943127
 31
0.0
  0
LINE
  5
4E3
330
17
100
AcDbEntity
  8
OBJECT
100
AcDbLine
 10
5.431015026784256
 20
6.652276239416182
 30
0.0
 11
5.462265026784256
 21
6.706402827152709
 31
0.0
  0
LINE
  5
4E4
330
17
100
AcDbEntity
  8
OBJECT
100
AcDbLine
 10
5.078430699208237
 20
5.933329095102005
 30
0.0
 11
5.087265026579418
 21
5.948630598959589
 31
0.0
  0
LINE
  5
4E5
330
17
100
AcDbEntity
  8
OBJECT
100
AcDbLine
 10
5.149765026579418
 20
6.056883774432644
 30
0.0
 11
5.181015026579418
 21
6.111010362169171
 31
0.0
  0
LINE
  5
4E6
330
17
100
AcDbEntity
  8
OBJECT
100
AcDbLine
 10
5.243515026579418
 20
6.219263537642226
 30
0.0
 11
5.274765026579418
 21
6.273390125378753
 31
0.0
  0
LINE
  5
4E7
330
17
100
AcDbEntity
  8
OBJECT
100
AcDbLine
 10
5.337265026579418
 20
6.381643300851808
 30
0.0
 11
5.368515026579418
 21
6.435769888588335
 31
0.0
  0
LINE
  5
4E8
330
17
100
AcDbEntity
  8
OBJECT
100
AcDbLine
 10
5.431015026579418
 20
6.544023064061391
 30
0.0
 11
5.462265026579418
 21
6.598149651797918
 31
0.0
  0
LINE
  5
4E9
330
17
100
AcDbEntity
  8
OBJECT
100
AcDbLine
 10
5.524765026579418
 20
6.706402827270973
 30
0.0
 11
5.5462885845373
 21
6.743682723213678
 31
0.0
  0
LINE
  5
4EA
330
17
100
AcDbEntity
  8
OBJECT
100
AcDbLine
 10
5.078430699208237
 20
5.825075920102006
 30
0.0
 11
5.087265026374579
 21
5.840377423604797
 31
0.0
  0
LINE
  5
4EB
330
17
100
AcDbEntity
  8
OBJECT
100
AcDbLine
 10
5.149765026374579
 20
5.948630599077852
 30
0.0
 11
5.181015026374579
 21
6.002757186814379
 31
0.0
  0
LINE
  5
4EC
330
17
100
AcDbEntity
  8
OBJECT
100
AcDbLine
 10
5.243515026374579
 20
6.111010362287434
 30
0.0
 11
5.274765026374579
 21
6.165136950023962
 31
0.0
  0
LINE
  5
4ED
330
17
100
AcDbEntity
  8
OBJECT
100
AcDbLine
 10
5.337265026374579
 20
6.273390125497017
 30
0.0
 11
5.368515026374579
 21
6.327516713233544
 31
0.0
  0
LINE
  5
4EE
330
17
100
AcDbEntity
  8
OBJECT
100
AcDbLine
 10
5.431015026374579
 20
6.435769888706599
 30
0.0
 11
5.462265026374579
 21
6.489896476443126
 31
0.0
  0
LINE
  5
4EF
330
17
100
AcDbEntity
  8
OBJECT
100
AcDbLine
 10
5.524765026374579
 20
6.598149651916181
 30
0.0
 11
5.556015026374579
 21
6.652276239652708
 31
0.0
  0
LINE
  5
4F1
330
17
100
AcDbEntity
  8
OBJECT
100
AcDbLine
 10
5.078430699208237
 20
5.716822745102005
 30
0.0
 11
5.08726502616974
 21
5.732124248250006
 31
0.0
  0
LINE
  5
4F2
330
17
100
AcDbEntity
  8
OBJECT
100
AcDbLine
 10
5.14976502616974
 20
5.840377423723062
 30
0.0
 11
5.18101502616974
 21
5.894504011459589
 31
0.0
  0
LINE
  5
4F3
330
17
100
AcDbEntity
  8
OBJECT
100
AcDbLine
 10
5.24351502616974
 20
6.002757186932644
 30
0.0
 11
5.27476502616974
 21
6.056883774669171
 31
0.0
  0
LINE
  5
4F4
330
17
100
AcDbEntity
  8
OBJECT
100
AcDbLine
 10
5.33726502616974
 20
6.165136950142226
 30
0.0
 11
5.36851502616974
 21
6.219263537878753
 31
0.0
  0
LINE
  5
4F5
330
17
100
AcDbEntity
  8
OBJECT
100
AcDbLine
 10
5.43101502616974
 20
6.327516713351808
 30
0.0
 11
5.46226502616974
 21
6.381643301088335
 31
0.0
  0
LINE
  5
4F6
330
17
100
AcDbEntity
  8
OBJECT
100
AcDbLine
 10
5.52476502616974
 20
6.489896476561391
 30
0.0
 11
5.55601502616974
 21
6.544023064297918
 31
0.0
  0
LINE
  5
4F7
330
17
100
AcDbEntity
  8
OBJECT
100
AcDbLine
 10
5.61851502616974
 20
6.652276239770973
 30
0.0
 11
5.64976502616974
 21
6.7064028275075
 31
0.0
  0
LINE
  5
4F8
330
17
100
AcDbEntity
  8
OBJECT
100
AcDbLine
 10
5.078430699208237
 20
5.608569570102005
 30
0.0
 11
5.087265025964901
 21
5.623871072895215
 31
0.0
  0
LINE
  5
4F9
330
17
100
AcDbEntity
  8
OBJECT
100
AcDbLine
 10
5.149765025964901
 20
5.73212424836827
 30
0.0
 11
5.181015025964901
 21
5.786250836104797
 31
0.0
  0
LINE
  5
4FA
330
17
100
AcDbEntity
  8
OBJECT
100
AcDbLine
 10
5.243515025964901
 20
5.894504011577852
 30
0.0
 11
5.274765025964901
 21
5.948630599314379
 31
0.0
  0
LINE
  5
4FB
330
17
100
AcDbEntity
  8
OBJECT
100
AcDbLine
 10
5.337265025964901
 20
6.056883774787435
 30
0.0
 11
5.368515025964901
 21
6.111010362523962
 31
0.0
  0
LINE
  5
4FC
330
17
100
AcDbEntity
  8
OBJECT
100
AcDbLine
 10
5.431015025964901
 20
6.219263537997017
 30
0.0
 11
5.462265025964901
 21
6.273390125733544
 31
0.0
  0
LINE
  5
4FD
330
17
100
AcDbEntity
  8
OBJECT
100
AcDbLine
 10
5.524765025964901
 20
6.381643301206599
 30
0.0
 11
5.556015025964901
 21
6.435769888943126
 31
0.0
  0
LINE
  5
4FE
330
17
100
AcDbEntity
  8
OBJECT
100
AcDbLine
 10
5.618515025964901
 20
6.544023064416181
 30
0.0
 11
5.649765025964901
 21
6.598149652152708
 31
0.0
  0
LINE
  5
4FF
330
17
100
AcDbEntity
  8
OBJECT
100
AcDbLine
 10
5.712265025964901
 20
6.706402827625764
 30
0.0
 11
5.733788583717945
 21
6.743682723213678
 31
0.0
  0
LINE
  5
500
330
17
100
AcDbEntity
  8
OBJECT
100
AcDbLine
 10
5.078430699208237
 20
5.500316395102005
 30
0.0
 11
5.087265025760062
 21
5.515617897540424
 31
0.0
  0
LINE
  5
501
330
17
100
AcDbEntity
  8
OBJECT
100
AcDbLine
 10
5.149765025760062
 20
5.623871073013479
 30
0.0
 11
5.181015025760062
 21
5.677997660750007
 31
0.0
  0
LINE
  5
502
330
17
100
AcDbEntity
  8
OBJECT
100
AcDbLine
 10
5.243515025760062
 20
5.786250836223062
 30
0.0
 11
5.274765025760062
 21
5.840377423959589
 31
0.0
  0
LINE
  5
503
330
17
100
AcDbEntity
  8
OBJECT
100
AcDbLine
 10
5.337265025760062
 20
5.948630599432644
 30
0.0
 11
5.368515025760062
 21
6.002757187169171
 31
0.0
  0
LINE
  5
504
330
17
100
AcDbEntity
  8
OBJECT
100
AcDbLine
 10
5.431015025760062
 20
6.111010362642226
 30
0.0
 11
5.462265025760062
 21
6.165136950378753
 31
0.0
  0
LINE
  5
505
330
17
100
AcDbEntity
  8
OBJECT
100
AcDbLine
 10
5.524765025760062
 20
6.273390125851808
 30
0.0
 11
5.556015025760062
 21
6.327516713588336
 31
0.0
  0
LINE
  5
506
330
17
100
AcDbEntity
  8
OBJECT
100
AcDbLine
 10
5.618515025760062
 20
6.435769889061391
 30
0.0
 11
5.649765025760062
 21
6.489896476797918
 31
0.0
  0
LINE
  5
507
330
17
100
AcDbEntity
  8
OBJECT
100
AcDbLine
 10
5.712265025760062
 20
6.598149652270973
 30
0.0
 11
5.743515025760062
 21
6.6522762400075
 31
0.0
  0
LINE
  5
509
330
17
100
AcDbEntity
  8
OBJECT
100
AcDbLine
 10
5.078430699208237
 20
5.392063220102006
 30
0.0
 11
5.087265025555224
 21
5.407364722185633
 31
0.0
  0
LINE
  5
50A
330
17
100
AcDbEntity
  8
OBJECT
100
AcDbLine
 10
5.149765025555224
 20
5.515617897658688
 30
0.0
 11
5.181015025555224
 21
5.569744485395215
 31
0.0
  0
LINE
  5
50B
330
17
100
AcDbEntity
  8
OBJECT
100
AcDbLine
 10
5.243515025555224
 20
5.67799766086827
 30
0.0
 11
5.274765025555224
 21
5.732124248604797
 31
0.0
  0
LINE
  5
50C
330
17
100
AcDbEntity
  8
OBJECT
100
AcDbLine
 10
5.337265025555224
 20
5.840377424077852
 30
0.0
 11
5.368515025555224
 21
5.89450401181438
 31
0.0
  0
LINE
  5
50D
330
17
100
AcDbEntity
  8
OBJECT
100
AcDbLine
 10
5.431015025555224
 20
6.002757187287435
 30
0.0
 11
5.462265025555224
 21
6.056883775023962
 31
0.0
  0
LINE
  5
50E
330
17
100
AcDbEntity
  8
OBJECT
100
AcDbLine
 10
5.524765025555224
 20
6.165136950497017
 30
0.0
 11
5.556015025555224
 21
6.219263538233544
 31
0.0
  0
LINE
  5
50F
330
17
100
AcDbEntity
  8
OBJECT
100
AcDbLine
 10
5.618515025555224
 20
6.327516713706599
 30
0.0
 11
5.649765025555224
 21
6.381643301443126
 31
0.0
  0
LINE
  5
510
330
17
100
AcDbEntity
  8
OBJECT
100
AcDbLine
 10
5.712265025555224
 20
6.489896476916181
 30
0.0
 11
5.743515025555224
 21
6.544023064652709
 31
0.0
  0
LINE
  5
511
330
17
100
AcDbEntity
  8
OBJECT
100
AcDbLine
 10
5.806015025555224
 20
6.652276240125764
 30
0.0
 11
5.837265025555224
 21
6.706402827862291
 31
0.0
  0
LINE
  5
512
330
17
100
AcDbEntity
  8
OBJECT
100
AcDbLine
 10
5.078430699208237
 20
5.283810045102007
 30
0.0
 11
5.087265025350385
 21
5.299111546830842
 31
0.0
  0
LINE
  5
513
330
17
100
AcDbEntity
  8
OBJECT
100
AcDbLine
 10
5.149765025350385
 20
5.407364722303897
 30
0.0
 11
5.181015025350385
 21
5.461491310040424
 31
0.0
  0
LINE
  5
514
330
17
100
AcDbEntity
  8
OBJECT
100
AcDbLine
 10
5.243515025350385
 20
5.56974448551348
 30
0.0
 11
5.274765025350385
 21
5.623871073250007
 31
0.0
  0
LINE
  5
515
330
17
100
AcDbEntity
  8
OBJECT
100
AcDbLine
 10
5.337265025350385
 20
5.732124248723062
 30
0.0
 11
5.368515025350385
 21
5.786250836459589
 31
0.0
  0
LINE
  5
516
330
17
100
AcDbEntity
  8
OBJECT
100
AcDbLine
 10
5.431015025350385
 20
5.894504011932644
 30
0.0
 11
5.462265025350385
 21
5.948630599669171
 31
0.0
  0
LINE
  5
517
330
17
100
AcDbEntity
  8
OBJECT
100
AcDbLine
 10
5.524765025350385
 20
6.056883775142226
 30
0.0
 11
5.556015025350385
 21
6.111010362878753
 31
0.0
  0
LINE
  5
518
330
17
100
AcDbEntity
  8
OBJECT
100
AcDbLine
 10
5.618515025350385
 20
6.219263538351809
 30
0.0
 11
5.649765025350385
 21
6.273390126088336
 31
0.0
  0
LINE
  5
519
330
17
100
AcDbEntity
  8
OBJECT
100
AcDbLine
 10
5.712265025350385
 20
6.381643301561391
 30
0.0
 11
5.743515025350385
 21
6.435769889297918
 31
0.0
  0
LINE
  5
51A
330
17
100
AcDbEntity
  8
OBJECT
100
AcDbLine
 10
5.806015025350385
 20
6.544023064770973
 30
0.0
 11
5.837265025350385
 21
6.5981496525075
 31
0.0
  0
LINE
  5
51B
330
17
100
AcDbEntity
  8
OBJECT
100
AcDbLine
 10
5.899765025350385
 20
6.706402827980555
 30
0.0
 11
5.92128858289859
 21
6.743682723213678
 31
0.0
  0
LINE
  5
51C
330
17
100
AcDbEntity
  8
OBJECT
100
AcDbLine
 10
5.078430699208237
 20
5.175556870102006
 30
0.0
 11
5.087265025145546
 21
5.190858371476051
 31
0.0
  0
LINE
  5
51D
330
17
100
AcDbEntity
  8
OBJECT
100
AcDbLine
 10
5.149765025145546
 20
5.299111546949106
 30
0.0
 11
5.181015025145546
 21
5.353238134685633
 31
0.0
  0
LINE
  5
51E
330
17
100
AcDbEntity
  8
OBJECT
100
AcDbLine
 10
5.243515025145546
 20
5.461491310158688
 30
0.0
 11
5.274765025145546
 21
5.515617897895215
 31
0.0
  0
LINE
  5
51F
330
17
100
AcDbEntity
  8
OBJECT
100
AcDbLine
 10
5.337265025145546
 20
5.62387107336827
 30
0.0
 11
5.368515025145546
 21
5.677997661104797
 31
0.0
  0
LINE
  5
520
330
17
100
AcDbEntity
  8
OBJECT
100
AcDbLine
 10
5.431015025145546
 20
5.786250836577853
 30
0.0
 11
5.462265025145546
 21
5.84037742431438
 31
0.0
  0
LINE
  5
521
330
17
100
AcDbEntity
  8
OBJECT
100
AcDbLine
 10
5.524765025145546
 20
5.948630599787435
 30
0.0
 11
5.556015025145546
 21
6.002757187523962
 31
0.0
  0
LINE
  5
522
330
17
100
AcDbEntity
  8
OBJECT
100
AcDbLine
 10
5.618515025145546
 20
6.111010362997017
 30
0.0
 11
5.649765025145546
 21
6.165136950733544
 31
0.0
  0
LINE
  5
523
330
17
100
AcDbEntity
  8
OBJECT
100
AcDbLine
 10
5.712265025145546
 20
6.273390126206599
 30
0.0
 11
5.743515025145546
 21
6.327516713943126
 31
0.0
  0
LINE
  5
524
330
17
100
AcDbEntity
  8
OBJECT
100
AcDbLine
 10
5.806015025145546
 20
6.435769889416182
 30
0.0
 11
5.837265025145546
 21
6.489896477152709
 31
0.0
  0
LINE
  5
525
330
17
100
AcDbEntity
  8
OBJECT
100
AcDbLine
 10
5.899765025145546
 20
6.598149652625764
 30
0.0
 11
5.931015025145546
 21
6.652276240362291
 31
0.0
  0
LINE
  5
527
330
17
100
AcDbEntity
  8
OBJECT
100
AcDbLine
 10
5.078430699208237
 20
5.067303695102008
 30
0.0
 11
5.087265024940707
 21
5.08260519612126
 31
0.0
  0
LINE
  5
528
330
17
100
AcDbEntity
  8
OBJECT
100
AcDbLine
 10
5.149765024940707
 20
5.190858371594315
 30
0.0
 11
5.181015024940707
 21
5.244984959330842
 31
0.0
  0
LINE
  5
529
330
17
100
AcDbEntity
  8
OBJECT
100
AcDbLine
 10
5.243515024940707
 20
5.353238134803897
 30
0.0
 11
5.274765024940707
 21
5.407364722540425
 31
0.0
  0
LINE
  5
52A
330
17
100
AcDbEntity
  8
OBJECT
100
AcDbLine
 10
5.337265024940707
 20
5.51561789801348
 30
0.0
 11
5.368515024940707
 21
5.569744485750007
 31
0.0
  0
LINE
  5
52B
330
17
100
AcDbEntity
  8
OBJECT
100
AcDbLine
 10
5.431015024940707
 20
5.677997661223062
 30
0.0
 11
5.462265024940707
 21
5.732124248959589
 31
0.0
  0
LINE
  5
52C
330
17
100
AcDbEntity
  8
OBJECT
100
AcDbLine
 10
5.524765024940707
 20
5.840377424432644
 30
0.0
 11
5.556015024940707
 21
5.894504012169171
 31
0.0
  0
LINE
  5
52D
330
17
100
AcDbEntity
  8
OBJECT
100
AcDbLine
 10
5.618515024940707
 20
6.002757187642226
 30
0.0
 11
5.649765024940707
 21
6.056883775378754
 31
0.0
  0
LINE
  5
52E
330
17
100
AcDbEntity
  8
OBJECT
100
AcDbLine
 10
5.712265024940707
 20
6.165136950851809
 30
0.0
 11
5.743515024940707
 21
6.219263538588336
 31
0.0
  0
LINE
  5
52F
330
17
100
AcDbEntity
  8
OBJECT
100
AcDbLine
 10
5.806015024940707
 20
6.327516714061391
 30
0.0
 11
5.837265024940707
 21
6.381643301797918
 31
0.0
  0
LINE
  5
530
330
17
100
AcDbEntity
  8
OBJECT
100
AcDbLine
 10
5.899765024940707
 20
6.489896477270973
 30
0.0
 11
5.931015024940707
 21
6.5440230650075
 31
0.0
  0
LINE
  5
531
330
17
100
AcDbEntity
  8
OBJECT
100
AcDbLine
 10
5.993515024940707
 20
6.652276240480555
 30
0.0
 11
6.024765024940707
 21
6.706402828217083
 31
0.0
  0
LINE
  5
532
330
17
100
AcDbEntity
  8
OBJECT
100
AcDbLine
 10
5.078430699208237
 20
4.959050520102006
 30
0.0
 11
5.087265024735868
 21
4.974352020766469
 31
0.0
  0
LINE
  5
533
330
17
100
AcDbEntity
  8
OBJECT
100
AcDbLine
 10
5.149765024735868
 20
5.082605196239524
 30
0.0
 11
5.181015024735868
 21
5.136731783976051
 31
0.0
  0
LINE
  5
534
330
17
100
AcDbEntity
  8
OBJECT
100
AcDbLine
 10
5.243515024735868
 20
5.244984959449106
 30
0.0
 11
5.274765024735868
 21
5.299111547185633
 31
0.0
  0
LINE
  5
535
330
17
100
AcDbEntity
  8
OBJECT
100
AcDbLine
 10
5.337265024735868
 20
5.407364722658688
 30
0.0
 11
5.368515024735868
 21
5.461491310395215
 31
0.0
  0
LINE
  5
536
330
17
100
AcDbEntity
  8
OBJECT
100
AcDbLine
 10
5.431015024735868
 20
5.56974448586827
 30
0.0
 11
5.462265024735868
 21
5.623871073604798
 31
0.0
  0
LINE
  5
537
330
17
100
AcDbEntity
  8
OBJECT
100
AcDbLine
 10
5.524765024735868
 20
5.732124249077853
 30
0.0
 11
5.556015024735868
 21
5.78625083681438
 31
0.0
  0
LINE
  5
538
330
17
100
AcDbEntity
  8
OBJECT
100
AcDbLine
 10
5.618515024735868
 20
5.894504012287435
 30
0.0
 11
5.649765024735868
 21
5.948630600023962
 31
0.0
  0
LINE
  5
539
330
17
100
AcDbEntity
  8
OBJECT
100
AcDbLine
 10
5.712265024735868
 20
6.056883775497017
 30
0.0
 11
5.743515024735868
 21
6.111010363233544
 31
0.0
  0
LINE
  5
53A
330
17
100
AcDbEntity
  8
OBJECT
100
AcDbLine
 10
5.806015024735868
 20
6.219263538706599
 30
0.0
 11
5.837265024735868
 21
6.273390126443127
 31
0.0
  0
LINE
  5
53B
330
17
100
AcDbEntity
  8
OBJECT
100
AcDbLine
 10
5.899765024735868
 20
6.381643301916182
 30
0.0
 11
5.931015024735868
 21
6.435769889652709
 31
0.0
  0
LINE
  5
53C
330
17
100
AcDbEntity
  8
OBJECT
100
AcDbLine
 10
5.993515024735868
 20
6.544023065125764
 30
0.0
 11
6.024765024735868
 21
6.598149652862291
 31
0.0
  0
LINE
  5
53D
330
17
100
AcDbEntity
  8
OBJECT
100
AcDbLine
 10
6.087265024735868
 20
6.706402828335346
 30
0.0
 11
6.108788582079235
 21
6.743682723213678
 31
0.0
  0
LINE
  5
53E
330
17
100
AcDbEntity
  8
OBJECT
100
AcDbLine
 10
5.078430699208237
 20
4.850797345102006
 30
0.0
 11
5.08726502453103
 21
4.866098845411676
 31
0.0
  0
LINE
  5
53F
330
17
100
AcDbEntity
  8
OBJECT
100
AcDbLine
 10
5.14976502453103
 20
4.974352020884731
 30
0.0
 11
5.18101502453103
 21
5.028478608621258
 31
0.0
  0
LINE
  5
540
330
17
100
AcDbEntity
  8
OBJECT
100
AcDbLine
 10
5.24351502453103
 20
5.136731784094314
 30
0.0
 11
5.27476502453103
 21
5.190858371830841
 31
0.0
  0
LINE
  5
541
330
17
100
AcDbEntity
  8
OBJECT
100
AcDbLine
 10
5.33726502453103
 20
5.299111547303896
 30
0.0
 11
5.36851502453103
 21
5.353238135040423
 31
0.0
  0
LINE
  5
542
330
17
100
AcDbEntity
  8
OBJECT
100
AcDbLine
 10
5.43101502453103
 20
5.461491310513478
 30
0.0
 11
5.46226502453103
 21
5.515617898250005
 31
0.0
  0
LINE
  5
543
330
17
100
AcDbEntity
  8
OBJECT
100
AcDbLine
 10
5.52476502453103
 20
5.62387107372306
 30
0.0
 11
5.55601502453103
 21
5.677997661459587
 31
0.0
  0
LINE
  5
544
330
17
100
AcDbEntity
  8
OBJECT
100
AcDbLine
 10
5.61851502453103
 20
5.786250836932643
 30
0.0
 11
5.64976502453103
 21
5.84037742466917
 31
0.0
  0
LINE
  5
545
330
17
100
AcDbEntity
  8
OBJECT
100
AcDbLine
 10
5.71226502453103
 20
5.948630600142225
 30
0.0
 11
5.74351502453103
 21
6.002757187878752
 31
0.0
  0
LINE
  5
546
330
17
100
AcDbEntity
  8
OBJECT
100
AcDbLine
 10
5.80601502453103
 20
6.111010363351807
 30
0.0
 11
5.83726502453103
 21
6.165136951088334
 31
0.0
  0
LINE
  5
547
330
17
100
AcDbEntity
  8
OBJECT
100
AcDbLine
 10
5.89976502453103
 20
6.273390126561389
 30
0.0
 11
5.93101502453103
 21
6.327516714297916
 31
0.0
  0
LINE
  5
548
330
17
100
AcDbEntity
  8
OBJECT
100
AcDbLine
 10
5.99351502453103
 20
6.435769889770972
 30
0.0
 11
6.02476502453103
 21
6.489896477507499
 31
0.0
  0
LINE
  5
549
330
17
100
AcDbEntity
  8
OBJECT
100
AcDbLine
 10
6.08726502453103
 20
6.598149652980554
 30
0.0
 11
6.11851502453103
 21
6.652276240717081
 31
0.0
  0
LINE
  5
54B
330
17
100
AcDbEntity
  8
OBJECT
100
AcDbLine
 10
5.149765024326191
 20
4.866098845529942
 30
0.0
 11
5.181015024326191
 21
4.920225433266469
 31
0.0
  0
LINE
  5
54C
330
17
100
AcDbEntity
  8
OBJECT
100
AcDbLine
 10
5.243515024326191
 20
5.028478608739524
 30
0.0
 11
5.274765024326191
 21
5.082605196476051
 31
0.0
  0
LINE
  5
54D
330
17
100
AcDbEntity
  8
OBJECT
100
AcDbLine
 10
5.337265024326191
 20
5.190858371949106
 30
0.0
 11
5.368515024326191
 21
5.244984959685633
 31
0.0
  0
LINE
  5
54E
330
17
100
AcDbEntity
  8
OBJECT
100
AcDbLine
 10
5.431015024326191
 20
5.353238135158688
 30
0.0
 11
5.462265024326191
 21
5.407364722895215
 31
0.0
  0
LINE
  5
54F
330
17
100
AcDbEntity
  8
OBJECT
100
AcDbLine
 10
5.524765024326191
 20
5.515617898368271
 30
0.0
 11
5.556015024326191
 21
5.569744486104798
 31
0.0
  0
LINE
  5
550
330
17
100
AcDbEntity
  8
OBJECT
100
AcDbLine
 10
5.618515024326191
 20
5.677997661577853
 30
0.0
 11
5.649765024326191
 21
5.73212424931438
 31
0.0
  0
LINE
  5
551
330
17
100
AcDbEntity
  8
OBJECT
100
AcDbLine
 10
5.712265024326191
 20
5.840377424787435
 30
0.0
 11
5.743515024326191
 21
5.894504012523962
 31
0.0
  0
LINE
  5
552
330
17
100
AcDbEntity
  8
OBJECT
100
AcDbLine
 10
5.806015024326191
 20
6.002757187997017
 30
0.0
 11
5.837265024326191
 21
6.056883775733544
 31
0.0
  0
LINE
  5
553
330
17
100
AcDbEntity
  8
OBJECT
100
AcDbLine
 10
5.899765024326191
 20
6.1651369512066
 30
0.0
 11
5.931015024326191
 21
6.219263538943127
 31
0.0
  0
LINE
  5
554
330
17
100
AcDbEntity
  8
OBJECT
100
AcDbLine
 10
5.993515024326191
 20
6.327516714416182
 30
0.0
 11
6.024765024326191
 21
6.381643302152709
 31
0.0
  0
LINE
  5
555
330
17
100
AcDbEntity
  8
OBJECT
100
AcDbLine
 10
6.087265024326191
 20
6.489896477625764
 30
0.0
 11
6.118515024326191
 21
6.544023065362291
 31
0.0
  0
LINE
  5
556
330
17
100
AcDbEntity
  8
OBJECT
100
AcDbLine
 10
6.181015024326191
 20
6.652276240835346
 30
0.0
 11
6.212265024326191
 21
6.706402828571873
 31
0.0
  0
LINE
  5
558
330
17
100
AcDbEntity
  8
OBJECT
100
AcDbLine
 10
5.243515024121354
 20
4.920225433384733
 30
0.0
 11
5.274765024121354
 21
4.97435202112126
 31
0.0
  0
LINE
  5
559
330
17
100
AcDbEntity
  8
OBJECT
100
AcDbLine
 10
5.337265024121354
 20
5.082605196594315
 30
0.0
 11
5.368515024121354
 21
5.136731784330843
 31
0.0
  0
LINE
  5
55A
330
17
100
AcDbEntity
  8
OBJECT
100
AcDbLine
 10
5.431015024121354
 20
5.244984959803898
 30
0.0
 11
5.462265024121354
 21
5.299111547540425
 31
0.0
  0
LINE
  5
55B
330
17
100
AcDbEntity
  8
OBJECT
100
AcDbLine
 10
5.524765024121354
 20
5.40736472301348
 30
0.0
 11
5.556015024121354
 21
5.461491310750007
 31
0.0
  0
LINE
  5
55C
330
17
100
AcDbEntity
  8
OBJECT
100
AcDbLine
 10
5.618515024121354
 20
5.569744486223062
 30
0.0
 11
5.649765024121354
 21
5.623871073959589
 31
0.0
  0
LINE
  5
55D
330
17
100
AcDbEntity
  8
OBJECT
100
AcDbLine
 10
5.712265024121354
 20
5.732124249432644
 30
0.0
 11
5.743515024121354
 21
5.786250837169172
 31
0.0
  0
LINE
  5
55E
330
17
100
AcDbEntity
  8
OBJECT
100
AcDbLine
 10
5.806015024121354
 20
5.894504012642227
 30
0.0
 11
5.837265024121354
 21
5.948630600378754
 31
0.0
  0
LINE
  5
55F
330
17
100
AcDbEntity
  8
OBJECT
100
AcDbLine
 10
5.899765024121354
 20
6.056883775851809
 30
0.0
 11
5.931015024121354
 21
6.111010363588336
 31
0.0
  0
LINE
  5
560
330
17
100
AcDbEntity
  8
OBJECT
100
AcDbLine
 10
5.993515024121354
 20
6.219263539061391
 30
0.0
 11
6.024765024121354
 21
6.273390126797918
 31
0.0
  0
LINE
  5
561
330
17
100
AcDbEntity
  8
OBJECT
100
AcDbLine
 10
6.087265024121354
 20
6.381643302270973
 30
0.0
 11
6.118515024121354
 21
6.435769890007501
 31
0.0
  0
LINE
  5
562
330
17
100
AcDbEntity
  8
OBJECT
100
AcDbLine
 10
6.181015024121354
 20
6.544023065480556
 30
0.0
 11
6.212265024121354
 21
6.598149653217083
 31
0.0
  0
LINE
  5
563
330
17
100
AcDbEntity
  8
OBJECT
100
AcDbLine
 10
6.274765024121354
 20
6.706402828690138
 30
0.0
 11
6.296288581259879
 21
6.743682723213678
 31
0.0
  0
LINE
  5
564
330
17
100
AcDbEntity
  8
OBJECT
100
AcDbLine
 10
5.257204267372957
 20
4.835682723213679
 30
0.0
 11
5.274765023916515
 21
4.866098845766468
 31
0.0
  0
LINE
  5
565
330
17
100
AcDbEntity
  8
OBJECT
100
AcDbLine
 10
5.337265023916515
 20
4.974352021239523
 30
0.0
 11
5.368515023916515
 21
5.02847860897605
 31
0.0
  0
LINE
  5
566
330
17
100
AcDbEntity
  8
OBJECT
100
AcDbLine
 10
5.431015023916515
 20
5.136731784449105
 30
0.0
 11
5.462265023916515
 21
5.190858372185632
 31
0.0
  0
LINE
  5
567
330
17
100
AcDbEntity
  8
OBJECT
100
AcDbLine
 10
5.524765023916515
 20
5.299111547658688
 30
0.0
 11
5.556015023916515
 21
5.353238135395215
 31
0.0
  0
LINE
  5
568
330
17
100
AcDbEntity
  8
OBJECT
100
AcDbLine
 10
5.618515023916515
 20
5.46149131086827
 30
0.0
 11
5.649765023916515
 21
5.515617898604797
 31
0.0
  0
LINE
  5
569
330
17
100
AcDbEntity
  8
OBJECT
100
AcDbLine
 10
5.712265023916515
 20
5.623871074077852
 30
0.0
 11
5.743515023916515
 21
5.677997661814379
 31
0.0
  0
LINE
  5
56A
330
17
100
AcDbEntity
  8
OBJECT
100
AcDbLine
 10
5.806015023916515
 20
5.786250837287434
 30
0.0
 11
5.837265023916515
 21
5.840377425023961
 31
0.0
  0
LINE
  5
56B
330
17
100
AcDbEntity
  8
OBJECT
100
AcDbLine
 10
5.899765023916515
 20
5.948630600497017
 30
0.0
 11
5.931015023916515
 21
6.002757188233544
 31
0.0
  0
LINE
  5
56C
330
17
100
AcDbEntity
  8
OBJECT
100
AcDbLine
 10
5.993515023916515
 20
6.111010363706599
 30
0.0
 11
6.024765023916515
 21
6.165136951443126
 31
0.0
  0
LINE
  5
56D
330
17
100
AcDbEntity
  8
OBJECT
100
AcDbLine
 10
6.087265023916515
 20
6.273390126916181
 30
0.0
 11
6.118515023916515
 21
6.327516714652708
 31
0.0
  0
LINE
  5
56E
330
17
100
AcDbEntity
  8
OBJECT
100
AcDbLine
 10
6.181015023916515
 20
6.435769890125763
 30
0.0
 11
6.212265023916515
 21
6.48989647786229
 31
0.0
  0
LINE
  5
56F
330
17
100
AcDbEntity
  8
OBJECT
100
AcDbLine
 10
6.274765023916515
 20
6.598149653335346
 30
0.0
 11
6.306015023916515
 21
6.652276241071873
 31
0.0
  0
LINE
  5
571
330
17
100
AcDbEntity
  8
OBJECT
100
AcDbLine
 10
5.337265023711676
 20
4.866098845884732
 30
0.0
 11
5.368515023711676
 21
4.92022543362126
 31
0.0
  0
LINE
  5
572
330
17
100
AcDbEntity
  8
OBJECT
100
AcDbLine
 10
5.431015023711676
 20
5.028478609094315
 30
0.0
 11
5.462265023711676
 21
5.082605196830842
 31
0.0
  0
LINE
  5
573
330
17
100
AcDbEntity
  8
OBJECT
100
AcDbLine
 10
5.524765023711676
 20
5.190858372303897
 30
0.0
 11
5.556015023711676
 21
5.244984960040424
 31
0.0
  0
LINE
  5
574
330
17
100
AcDbEntity
  8
OBJECT
100
AcDbLine
 10
5.618515023711676
 20
5.353238135513479
 30
0.0
 11
5.649765023711676
 21
5.407364723250006
 31
0.0
  0
LINE
  5
575
330
17
100
AcDbEntity
  8
OBJECT
100
AcDbLine
 10
5.712265023711676
 20
5.515617898723061
 30
0.0
 11
5.743515023711676
 21
5.569744486459589
 31
0.0
  0
LINE
  5
576
330
17
100
AcDbEntity
  8
OBJECT
100
AcDbLine
 10
5.806015023711676
 20
5.677997661932644
 30
0.0
 11
5.837265023711676
 21
5.732124249669171
 31
0.0
  0
LINE
  5
577
330
17
100
AcDbEntity
  8
OBJECT
100
AcDbLine
 10
5.899765023711676
 20
5.840377425142226
 30
0.0
 11
5.931015023711676
 21
5.894504012878753
 31
0.0
  0
LINE
  5
578
330
17
100
AcDbEntity
  8
OBJECT
100
AcDbLine
 10
5.993515023711676
 20
6.002757188351808
 30
0.0
 11
6.024765023711676
 21
6.056883776088335
 31
0.0
  0
LINE
  5
579
330
17
100
AcDbEntity
  8
OBJECT
100
AcDbLine
 10
6.087265023711676
 20
6.16513695156139
 30
0.0
 11
6.118515023711676
 21
6.219263539297918
 31
0.0
  0
LINE
  5
57A
330
17
100
AcDbEntity
  8
OBJECT
100
AcDbLine
 10
6.181015023711676
 20
6.327516714770973
 30
0.0
 11
6.212265023711676
 21
6.3816433025075
 31
0.0
  0
LINE
  5
57B
330
17
100
AcDbEntity
  8
OBJECT
100
AcDbLine
 10
6.274765023711676
 20
6.489896477980555
 30
0.0
 11
6.306015023711676
 21
6.544023065717082
 31
0.0
  0
LINE
  5
57C
330
17
100
AcDbEntity
  8
OBJECT
100
AcDbLine
 10
6.368515023711676
 20
6.652276241190137
 30
0.0
 11
6.399765023711676
 21
6.706402828926664
 31
0.0
  0
LINE
  5
57E
330
17
100
AcDbEntity
  8
OBJECT
100
AcDbLine
 10
5.431015023506837
 20
4.920225433739523
 30
0.0
 11
5.462265023506837
 21
4.97435202147605
 31
0.0
  0
LINE
  5
57F
330
17
100
AcDbEntity
  8
OBJECT
100
AcDbLine
 10
5.524765023506837
 20
5.082605196949105
 30
0.0
 11
5.556015023506837
 21
5.136731784685633
 31
0.0
  0
LINE
  5
580
330
17
100
AcDbEntity
  8
OBJECT
100
AcDbLine
 10
5.618515023506837
 20
5.244984960158688
 30
0.0
 11
5.649765023506837
 21
5.299111547895215
 31
0.0
  0
LINE
  5
581
330
17
100
AcDbEntity
  8
OBJECT
100
AcDbLine
 10
5.712265023506837
 20
5.40736472336827
 30
0.0
 11
5.743515023506837
 21
5.461491311104797
 31
0.0
  0
LINE
  5
582
330
17
100
AcDbEntity
  8
OBJECT
100
AcDbLine
 10
5.806015023506837
 20
5.569744486577852
 30
0.0
 11
5.837265023506837
 21
5.623871074314379
 31
0.0
  0
LINE
  5
583
330
17
100
AcDbEntity
  8
OBJECT
100
AcDbLine
 10
5.899765023506837
 20
5.732124249787434
 30
0.0
 11
5.931015023506837
 21
5.786250837523962
 31
0.0
  0
LINE
  5
584
330
17
100
AcDbEntity
  8
OBJECT
100
AcDbLine
 10
5.993515023506837
 20
5.894504012997017
 30
0.0
 11
6.024765023506837
 21
5.948630600733544
 31
0.0
  0
LINE
  5
585
330
17
100
AcDbEntity
  8
OBJECT
100
AcDbLine
 10
6.087265023506837
 20
6.056883776206599
 30
0.0
 11
6.118515023506837
 21
6.111010363943126
 31
0.0
  0
LINE
  5
586
330
17
100
AcDbEntity
  8
OBJECT
100
AcDbLine
 10
6.181015023506837
 20
6.219263539416181
 30
0.0
 11
6.212265023506837
 21
6.273390127152708
 31
0.0
  0
LINE
  5
587
330
17
100
AcDbEntity
  8
OBJECT
100
AcDbLine
 10
6.274765023506837
 20
6.381643302625763
 30
0.0
 11
6.306015023506837
 21
6.435769890362291
 31
0.0
  0
LINE
  5
588
330
17
100
AcDbEntity
  8
OBJECT
100
AcDbLine
 10
6.368515023506837
 20
6.544023065835346
 30
0.0
 11
6.399765023506837
 21
6.598149653571873
 31
0.0
  0
LINE
  5
589
330
17
100
AcDbEntity
  8
OBJECT
100
AcDbLine
 10
6.462265023506837
 20
6.706402829044928
 30
0.0
 11
6.483788580440524
 21
6.743682723213678
 31
0.0
  0
LINE
  5
58A
330
17
100
AcDbEntity
  8
OBJECT
100
AcDbLine
 10
5.4447042665536
 20
4.835682723213679
 30
0.0
 11
5.462265023301998
 21
4.86609884612126
 31
0.0
  0
LINE
  5
58B
330
17
100
AcDbEntity
  8
OBJECT
100
AcDbLine
 10
5.524765023301998
 20
4.974352021594315
 30
0.0
 11
5.556015023301998
 21
5.028478609330842
 31
0.0
  0
LINE
  5
58C
330
17
100
AcDbEntity
  8
OBJECT
100
AcDbLine
 10
5.618515023301998
 20
5.136731784803897
 30
0.0
 11
5.649765023301998
 21
5.190858372540424
 31
0.0
  0
LINE
  5
58D
330
17
100
AcDbEntity
  8
OBJECT
100
AcDbLine
 10
5.712265023301998
 20
5.299111548013479
 30
0.0
 11
5.743515023301998
 21
5.353238135750006
 31
0.0
  0
LINE
  5
58E
330
17
100
AcDbEntity
  8
OBJECT
100
AcDbLine
 10
5.806015023301998
 20
5.461491311223062
 30
0.0
 11
5.837265023301998
 21
5.515617898959589
 31
0.0
  0
LINE
  5
58F
330
17
100
AcDbEntity
  8
OBJECT
100
AcDbLine
 10
5.899765023301998
 20
5.623871074432644
 30
0.0
 11
5.931015023301998
 21
5.677997662169171
 31
0.0
  0
LINE
  5
590
330
17
100
AcDbEntity
  8
OBJECT
100
AcDbLine
 10
5.993515023301998
 20
5.786250837642226
 30
0.0
 11
6.024765023301998
 21
5.840377425378753
 31
0.0
  0
LINE
  5
591
330
17
100
AcDbEntity
  8
OBJECT
100
AcDbLine
 10
6.087265023301998
 20
5.948630600851808
 30
0.0
 11
6.118515023301998
 21
6.002757188588335
 31
0.0
  0
LINE
  5
592
330
17
100
AcDbEntity
  8
OBJECT
100
AcDbLine
 10
6.181015023301998
 20
6.111010364061391
 30
0.0
 11
6.212265023301998
 21
6.165136951797918
 31
0.0
  0
LINE
  5
593
330
17
100
AcDbEntity
  8
OBJECT
100
AcDbLine
 10
6.274765023301998
 20
6.273390127270973
 30
0.0
 11
6.306015023301998
 21
6.3275167150075
 31
0.0
  0
LINE
  5
594
330
17
100
AcDbEntity
  8
OBJECT
100
AcDbLine
 10
6.368515023301998
 20
6.435769890480555
 30
0.0
 11
6.399765023301998
 21
6.489896478217082
 31
0.0
  0
LINE
  5
595
330
17
100
AcDbEntity
  8
OBJECT
100
AcDbLine
 10
6.462265023301998
 20
6.598149653690137
 30
0.0
 11
6.493515023301998
 21
6.652276241426664
 31
0.0
  0
LINE
  5
597
330
17
100
AcDbEntity
  8
OBJECT
100
AcDbLine
 10
5.52476502309716
 20
4.866098846239523
 30
0.0
 11
5.55601502309716
 21
4.92022543397605
 31
0.0
  0
LINE
  5
598
330
17
100
AcDbEntity
  8
OBJECT
100
AcDbLine
 10
5.61851502309716
 20
5.028478609449106
 30
0.0
 11
5.64976502309716
 21
5.082605197185633
 31
0.0
  0
LINE
  5
599
330
17
100
AcDbEntity
  8
OBJECT
100
AcDbLine
 10
5.71226502309716
 20
5.190858372658688
 30
0.0
 11
5.74351502309716
 21
5.244984960395215
 31
0.0
  0
LINE
  5
59A
330
17
100
AcDbEntity
  8
OBJECT
100
AcDbLine
 10
5.80601502309716
 20
5.35323813586827
 30
0.0
 11
5.83726502309716
 21
5.407364723604797
 31
0.0
  0
LINE
  5
59B
330
17
100
AcDbEntity
  8
OBJECT
100
AcDbLine
 10
5.89976502309716
 20
5.515617899077852
 30
0.0
 11
5.93101502309716
 21
5.569744486814379
 31
0.0
  0
LINE
  5
59C
330
17
100
AcDbEntity
  8
OBJECT
100
AcDbLine
 10
5.99351502309716
 20
5.677997662287435
 30
0.0
 11
6.02476502309716
 21
5.732124250023962
 31
0.0
  0
LINE
  5
59D
330
17
100
AcDbEntity
  8
OBJECT
100
AcDbLine
 10
6.08726502309716
 20
5.840377425497017
 30
0.0
 11
6.11851502309716
 21
5.894504013233544
 31
0.0
  0
LINE
  5
59E
330
17
100
AcDbEntity
  8
OBJECT
100
AcDbLine
 10
6.18101502309716
 20
6.002757188706599
 30
0.0
 11
6.21226502309716
 21
6.056883776443126
 31
0.0
  0
LINE
  5
59F
330
17
100
AcDbEntity
  8
OBJECT
100
AcDbLine
 10
6.27476502309716
 20
6.165136951916181
 30
0.0
 11
6.30601502309716
 21
6.219263539652708
 31
0.0
  0
LINE
  5
5A0
330
17
100
AcDbEntity
  8
OBJECT
100
AcDbLine
 10
6.36851502309716
 20
6.327516715125764
 30
0.0
 11
6.39976502309716
 21
6.381643302862291
 31
0.0
  0
LINE
  5
5A1
330
17
100
AcDbEntity
  8
OBJECT
100
AcDbLine
 10
6.46226502309716
 20
6.489896478335346
 30
0.0
 11
6.49351502309716
 21
6.544023066071873
 31
0.0
  0
LINE
  5
5A2
330
17
100
AcDbEntity
  8
OBJECT
100
AcDbLine
 10
6.55601502309716
 20
6.652276241544928
 30
0.0
 11
6.58726502309716
 21
6.706402829281455
 31
0.0
  0
LINE
  5
5A4
330
17
100
AcDbEntity
  8
OBJECT
100
AcDbLine
 10
5.618515022892321
 20
4.920225434094316
 30
0.0
 11
5.649765022892321
 21
4.974352021830843
 31
0.0
  0
LINE
  5
5A5
330
17
100
AcDbEntity
  8
OBJECT
100
AcDbLine
 10
5.712265022892321
 20
5.082605197303898
 30
0.0
 11
5.743515022892321
 21
5.136731785040425
 31
0.0
  0
LINE
  5
5A6
330
17
100
AcDbEntity
  8
OBJECT
100
AcDbLine
 10
5.806015022892321
 20
5.24498496051348
 30
0.0
 11
5.837265022892321
 21
5.299111548250007
 31
0.0
  0
LINE
  5
5A7
330
17
100
AcDbEntity
  8
OBJECT
100
AcDbLine
 10
5.899765022892321
 20
5.407364723723063
 30
0.0
 11
5.931015022892321
 21
5.46149131145959
 31
0.0
  0
LINE
  5
5A8
330
17
100
AcDbEntity
  8
OBJECT
100
AcDbLine
 10
5.993515022892321
 20
5.569744486932645
 30
0.0
 11
6.024765022892321
 21
5.623871074669172
 31
0.0
  0
LINE
  5
5A9
330
17
100
AcDbEntity
  8
OBJECT
100
AcDbLine
 10
6.087265022892321
 20
5.732124250142227
 30
0.0
 11
6.118515022892321
 21
5.786250837878754
 31
0.0
  0
LINE
  5
5AA
330
17
100
AcDbEntity
  8
OBJECT
100
AcDbLine
 10
6.181015022892321
 20
5.894504013351809
 30
0.0
 11
6.212265022892321
 21
5.948630601088336
 31
0.0
  0
LINE
  5
5AB
330
17
100
AcDbEntity
  8
OBJECT
100
AcDbLine
 10
6.274765022892321
 20
6.056883776561392
 30
0.0
 11
6.306015022892321
 21
6.111010364297919
 31
0.0
  0
LINE
  5
5AC
330
17
100
AcDbEntity
  8
OBJECT
100
AcDbLine
 10
6.368515022892321
 20
6.219263539770974
 30
0.0
 11
6.399765022892321
 21
6.273390127507501
 31
0.0
  0
LINE
  5
5AD
330
17
100
AcDbEntity
  8
OBJECT
100
AcDbLine
 10
6.462265022892321
 20
6.381643302980556
 30
0.0
 11
6.493515022892321
 21
6.435769890717083
 31
0.0
  0
LINE
  5
5AE
330
17
100
AcDbEntity
  8
OBJECT
100
AcDbLine
 10
6.556015022892321
 20
6.544023066190138
 30
0.0
 11
6.587265022892321
 21
6.598149653926665
 31
0.0
  0
LINE
  5
5AF
330
17
100
AcDbEntity
  8
OBJECT
100
AcDbLine
 10
6.649765022892321
 20
6.706402829399721
 30
0.0
 11
6.671288579621169
 21
6.743682723213678
 31
0.0
  0
LINE
  5
5B0
330
17
100
AcDbEntity
  8
OBJECT
100
AcDbLine
 10
5.632204265734246
 20
4.835682723213679
 30
0.0
 11
5.649765022687482
 21
4.866098846476051
 31
0.0
  0
LINE
  5
5B1
330
17
100
AcDbEntity
  8
OBJECT
100
AcDbLine
 10
5.712265022687482
 20
4.974352021949106
 30
0.0
 11
5.743515022687482
 21
5.028478609685633
 31
0.0
  0
LINE
  5
5B2
330
17
100
AcDbEntity
  8
OBJECT
100
AcDbLine
 10
5.806015022687482
 20
5.136731785158688
 30
0.0
 11
5.837265022687482
 21
5.190858372895215
 31
0.0
  0
LINE
  5
5B3
330
17
100
AcDbEntity
  8
OBJECT
100
AcDbLine
 10
5.899765022687482
 20
5.29911154836827
 30
0.0
 11
5.931015022687482
 21
5.353238136104797
 31
0.0
  0
LINE
  5
5B4
330
17
100
AcDbEntity
  8
OBJECT
100
AcDbLine
 10
5.993515022687482
 20
5.461491311577852
 30
0.0
 11
6.024765022687482
 21
5.51561789931438
 31
0.0
  0
LINE
  5
5B5
330
17
100
AcDbEntity
  8
OBJECT
100
AcDbLine
 10
6.087265022687482
 20
5.623871074787435
 30
0.0
 11
6.118515022687482
 21
5.677997662523962
 31
0.0
  0
LINE
  5
5B6
330
17
100
AcDbEntity
  8
OBJECT
100
AcDbLine
 10
6.181015022687482
 20
5.786250837997017
 30
0.0
 11
6.212265022687482
 21
5.840377425733544
 31
0.0
  0
LINE
  5
5B7
330
17
100
AcDbEntity
  8
OBJECT
100
AcDbLine
 10
6.274765022687482
 20
5.948630601206599
 30
0.0
 11
6.306015022687482
 21
6.002757188943126
 31
0.0
  0
LINE
  5
5B8
330
17
100
AcDbEntity
  8
OBJECT
100
AcDbLine
 10
6.368515022687482
 20
6.111010364416181
 30
0.0
 11
6.399765022687482
 21
6.165136952152709
 31
0.0
  0
LINE
  5
5B9
330
17
100
AcDbEntity
  8
OBJECT
100
AcDbLine
 10
6.462265022687482
 20
6.273390127625764
 30
0.0
 11
6.493515022687482
 21
6.327516715362291
 31
0.0
  0
LINE
  5
5BA
330
17
100
AcDbEntity
  8
OBJECT
100
AcDbLine
 10
6.556015022687482
 20
6.435769890835346
 30
0.0
 11
6.587265022687482
 21
6.489896478571873
 31
0.0
  0
LINE
  5
5BB
330
17
100
AcDbEntity
  8
OBJECT
100
AcDbLine
 10
6.649765022687482
 20
6.598149654044928
 30
0.0
 11
6.681015022687482
 21
6.652276241781455
 31
0.0
  0
LINE
  5
5BD
330
17
100
AcDbEntity
  8
OBJECT
100
AcDbLine
 10
5.712265022482643
 20
4.866098846594314
 30
0.0
 11
5.743515022482643
 21
4.920225434330841
 31
0.0
  0
LINE
  5
5BE
330
17
100
AcDbEntity
  8
OBJECT
100
AcDbLine
 10
5.806015022482643
 20
5.028478609803896
 30
0.0
 11
5.837265022482643
 21
5.082605197540424
 31
0.0
  0
LINE
  5
5BF
330
17
100
AcDbEntity
  8
OBJECT
100
AcDbLine
 10
5.899765022482643
 20
5.190858373013479
 30
0.0
 11
5.931015022482643
 21
5.244984960750006
 31
0.0
  0
LINE
  5
5C0
330
17
100
AcDbEntity
  8
OBJECT
100
AcDbLine
 10
5.993515022482643
 20
5.353238136223061
 30
0.0
 11
6.024765022482643
 21
5.407364723959588
 31
0.0
  0
LINE
  5
5C1
330
17
100
AcDbEntity
  8
OBJECT
100
AcDbLine
 10
6.087265022482643
 20
5.515617899432643
 30
0.0
 11
6.118515022482643
 21
5.56974448716917
 31
0.0
  0
LINE
  5
5C2
330
17
100
AcDbEntity
  8
OBJECT
100
AcDbLine
 10
6.181015022482643
 20
5.677997662642225
 30
0.0
 11
6.212265022482643
 21
5.732124250378753
 31
0.0
  0
LINE
  5
5C3
330
17
100
AcDbEntity
  8
OBJECT
100
AcDbLine
 10
6.274765022482643
 20
5.840377425851808
 30
0.0
 11
6.306015022482643
 21
5.894504013588335
 31
0.0
  0
LINE
  5
5C4
330
17
100
AcDbEntity
  8
OBJECT
100
AcDbLine
 10
6.368515022482643
 20
6.00275718906139
 30
0.0
 11
6.399765022482643
 21
6.056883776797917
 31
0.0
  0
LINE
  5
5C5
330
17
100
AcDbEntity
  8
OBJECT
100
AcDbLine
 10
6.462265022482643
 20
6.165136952270972
 30
0.0
 11
6.493515022482643
 21
6.219263540007499
 31
0.0
  0
LINE
  5
5C6
330
17
100
AcDbEntity
  8
OBJECT
100
AcDbLine
 10
6.556015022482643
 20
6.327516715480554
 30
0.0
 11
6.587265022482643
 21
6.381643303217082
 31
0.0
  0
LINE
  5
5C7
330
17
100
AcDbEntity
  8
OBJECT
100
AcDbLine
 10
6.649765022482643
 20
6.489896478690137
 30
0.0
 11
6.681015022482643
 21
6.544023066426664
 31
0.0
  0
LINE
  5
5C8
330
17
100
AcDbEntity
  8
OBJECT
100
AcDbLine
 10
6.743515022482643
 20
6.652276241899719
 30
0.0
 11
6.774765022482643
 21
6.706402829636246
 31
0.0
  0
LINE
  5
5CA
330
17
100
AcDbEntity
  8
OBJECT
100
AcDbLine
 10
5.806015022277804
 20
4.920225434449106
 30
0.0
 11
5.837265022277804
 21
4.974352022185633
 31
0.0
  0
LINE
  5
5CB
330
17
100
AcDbEntity
  8
OBJECT
100
AcDbLine
 10
5.899765022277804
 20
5.082605197658688
 30
0.0
 11
5.931015022277804
 21
5.136731785395215
 31
0.0
  0
LINE
  5
5CC
330
17
100
AcDbEntity
  8
OBJECT
100
AcDbLine
 10
5.993515022277804
 20
5.24498496086827
 30
0.0
 11
6.024765022277804
 21
5.299111548604797
 31
0.0
  0
LINE
  5
5CD
330
17
100
AcDbEntity
  8
OBJECT
100
AcDbLine
 10
6.087265022277804
 20
5.407364724077853
 30
0.0
 11
6.118515022277804
 21
5.46149131181438
 31
0.0
  0
LINE
  5
5CE
330
17
100
AcDbEntity
  8
OBJECT
100
AcDbLine
 10
6.181015022277804
 20
5.569744487287435
 30
0.0
 11
6.212265022277804
 21
5.623871075023962
 31
0.0
  0
LINE
  5
5CF
330
17
100
AcDbEntity
  8
OBJECT
100
AcDbLine
 10
6.274765022277804
 20
5.732124250497017
 30
0.0
 11
6.306015022277804
 21
5.786250838233544
 31
0.0
  0
LINE
  5
5D0
330
17
100
AcDbEntity
  8
OBJECT
100
AcDbLine
 10
6.368515022277804
 20
5.894504013706599
 30
0.0
 11
6.399765022277804
 21
5.948630601443126
 31
0.0
  0
LINE
  5
5D1
330
17
100
AcDbEntity
  8
OBJECT
100
AcDbLine
 10
6.462265022277804
 20
6.056883776916182
 30
0.0
 11
6.493515022277804
 21
6.111010364652709
 31
0.0
  0
LINE
  5
5D2
330
17
100
AcDbEntity
  8
OBJECT
100
AcDbLine
 10
6.556015022277804
 20
6.219263540125764
 30
0.0
 11
6.587265022277804
 21
6.273390127862291
 31
0.0
  0
LINE
  5
5D3
330
17
100
AcDbEntity
  8
OBJECT
100
AcDbLine
 10
6.649765022277804
 20
6.381643303335346
 30
0.0
 11
6.681015022277804
 21
6.435769891071873
 31
0.0
  0
LINE
  5
5D4
330
17
100
AcDbEntity
  8
OBJECT
100
AcDbLine
 10
6.743515022277804
 20
6.544023066544928
 30
0.0
 11
6.774765022277804
 21
6.598149654281455
 31
0.0
  0
LINE
  5
5D5
330
17
100
AcDbEntity
  8
OBJECT
100
AcDbLine
 10
6.837265022277804
 20
6.706402829754511
 30
0.0
 11
6.858788578801814
 21
6.743682723213678
 31
0.0
  0
LINE
  5
5D6
330
17
100
AcDbEntity
  8
OBJECT
100
AcDbLine
 10
5.819704264914893
 20
4.835682723213679
 30
0.0
 11
5.837265022072966
 21
4.866098846830841
 31
0.0
  0
LINE
  5
5D7
330
17
100
AcDbEntity
  8
OBJECT
100
AcDbLine
 10
5.899765022072966
 20
4.974352022303897
 30
0.0
 11
5.931015022072966
 21
5.028478610040424
 31
0.0
  0
LINE
  5
5D8
330
17
100
AcDbEntity
  8
OBJECT
100
AcDbLine
 10
5.993515022072966
 20
5.136731785513479
 30
0.0
 11
6.024765022072966
 21
5.190858373250006
 31
0.0
  0
LINE
  5
5D9
330
17
100
AcDbEntity
  8
OBJECT
100
AcDbLine
 10
6.087265022072966
 20
5.299111548723061
 30
0.0
 11
6.118515022072966
 21
5.353238136459588
 31
0.0
  0
LINE
  5
5DA
330
17
100
AcDbEntity
  8
OBJECT
100
AcDbLine
 10
6.181015022072966
 20
5.461491311932643
 30
0.0
 11
6.212265022072966
 21
5.51561789966917
 31
0.0
  0
LINE
  5
5DB
330
17
100
AcDbEntity
  8
OBJECT
100
AcDbLine
 10
6.274765022072966
 20
5.623871075142226
 30
0.0
 11
6.306015022072966
 21
5.677997662878753
 31
0.0
  0
LINE
  5
5DC
330
17
100
AcDbEntity
  8
OBJECT
100
AcDbLine
 10
6.368515022072966
 20
5.786250838351808
 30
0.0
 11
6.399765022072966
 21
5.840377426088335
 31
0.0
  0
LINE
  5
5DD
330
17
100
AcDbEntity
  8
OBJECT
100
AcDbLine
 10
6.462265022072966
 20
5.94863060156139
 30
0.0
 11
6.493515022072966
 21
6.002757189297917
 31
0.0
  0
LINE
  5
5DE
330
17
100
AcDbEntity
  8
OBJECT
100
AcDbLine
 10
6.556015022072966
 20
6.111010364770972
 30
0.0
 11
6.587265022072966
 21
6.165136952507499
 31
0.0
  0
LINE
  5
5DF
330
17
100
AcDbEntity
  8
OBJECT
100
AcDbLine
 10
6.649765022072966
 20
6.273390127980555
 30
0.0
 11
6.681015022072966
 21
6.327516715717082
 31
0.0
  0
LINE
  5
5E0
330
17
100
AcDbEntity
  8
OBJECT
100
AcDbLine
 10
6.743515022072966
 20
6.435769891190137
 30
0.0
 11
6.774765022072966
 21
6.489896478926664
 31
0.0
  0
LINE
  5
5E1
330
17
100
AcDbEntity
  8
OBJECT
100
AcDbLine
 10
6.837265022072966
 20
6.598149654399719
 30
0.0
 11
6.868515022072966
 21
6.652276242136246
 31
0.0
  0
LINE
  5
5E3
330
17
100
AcDbEntity
  8
OBJECT
100
AcDbLine
 10
5.899765021868127
 20
4.866098846949107
 30
0.0
 11
5.931015021868127
 21
4.920225434685634
 31
0.0
  0
LINE
  5
5E4
330
17
100
AcDbEntity
  8
OBJECT
100
AcDbLine
 10
5.993515021868127
 20
5.028478610158689
 30
0.0
 11
6.024765021868127
 21
5.082605197895216
 31
0.0
  0
LINE
  5
5E5
330
17
100
AcDbEntity
  8
OBJECT
100
AcDbLine
 10
6.087265021868127
 20
5.190858373368271
 30
0.0
 11
6.118515021868127
 21
5.244984961104798
 31
0.0
  0
LINE
  5
5E6
330
17
100
AcDbEntity
  8
OBJECT
100
AcDbLine
 10
6.181015021868127
 20
5.353238136577854
 30
0.0
 11
6.212265021868127
 21
5.407364724314381
 31
0.0
  0
LINE
  5
5E7
330
17
100
AcDbEntity
  8
OBJECT
100
AcDbLine
 10
6.274765021868127
 20
5.515617899787436
 30
0.0
 11
6.306015021868127
 21
5.569744487523963
 31
0.0
  0
LINE
  5
5E8
330
17
100
AcDbEntity
  8
OBJECT
100
AcDbLine
 10
6.368515021868127
 20
5.677997662997018
 30
0.0
 11
6.399765021868127
 21
5.732124250733545
 31
0.0
  0
LINE
  5
5E9
330
17
100
AcDbEntity
  8
OBJECT
100
AcDbLine
 10
6.462265021868127
 20
5.8403774262066
 30
0.0
 11
6.493515021868127
 21
5.894504013943127
 31
0.0
  0
LINE
  5
5EA
330
17
100
AcDbEntity
  8
OBJECT
100
AcDbLine
 10
6.556015021868127
 20
6.002757189416183
 30
0.0
 11
6.587265021868127
 21
6.05688377715271
 31
0.0
  0
LINE
  5
5EB
330
17
100
AcDbEntity
  8
OBJECT
100
AcDbLine
 10
6.649765021868127
 20
6.165136952625765
 30
0.0
 11
6.681015021868127
 21
6.219263540362292
 31
0.0
  0
LINE
  5
5EC
330
17
100
AcDbEntity
  8
OBJECT
100
AcDbLine
 10
6.743515021868127
 20
6.327516715835347
 30
0.0
 11
6.774765021868127
 21
6.381643303571874
 31
0.0
  0
LINE
  5
5ED
330
17
100
AcDbEntity
  8
OBJECT
100
AcDbLine
 10
6.837265021868127
 20
6.489896479044929
 30
0.0
 11
6.868515021868127
 21
6.544023066781456
 31
0.0
  0
LINE
  5
5EE
330
17
100
AcDbEntity
  8
OBJECT
100
AcDbLine
 10
6.931015021868127
 20
6.652276242254512
 30
0.0
 11
6.962265021868127
 21
6.706402829991039
 31
0.0
  0
LINE
  5
5F0
330
17
100
AcDbEntity
  8
OBJECT
100
AcDbLine
 10
5.993515021663288
 20
4.920225434803897
 30
0.0
 11
6.024765021663288
 21
4.974352022540424
 31
0.0
  0
LINE
  5
5F1
330
17
100
AcDbEntity
  8
OBJECT
100
AcDbLine
 10
6.087265021663288
 20
5.082605198013479
 30
0.0
 11
6.118515021663288
 21
5.136731785750006
 31
0.0
  0
LINE
  5
5F2
330
17
100
AcDbEntity
  8
OBJECT
100
AcDbLine
 10
6.181015021663288
 20
5.244984961223061
 30
0.0
 11
6.212265021663288
 21
5.299111548959588
 31
0.0
  0
LINE
  5
5F3
330
17
100
AcDbEntity
  8
OBJECT
100
AcDbLine
 10
6.274765021663288
 20
5.407364724432643
 30
0.0
 11
6.306015021663288
 21
5.461491312169171
 31
0.0
  0
LINE
  5
5F4
330
17
100
AcDbEntity
  8
OBJECT
100
AcDbLine
 10
6.368515021663288
 20
5.569744487642226
 30
0.0
 11
6.399765021663288
 21
5.623871075378753
 31
0.0
  0
LINE
  5
5F5
330
17
100
AcDbEntity
  8
OBJECT
100
AcDbLine
 10
6.462265021663288
 20
5.732124250851808
 30
0.0
 11
6.493515021663288
 21
5.786250838588335
 31
0.0
  0
LINE
  5
5F6
330
17
100
AcDbEntity
  8
OBJECT
100
AcDbLine
 10
6.556015021663288
 20
5.89450401406139
 30
0.0
 11
6.587265021663288
 21
5.948630601797917
 31
0.0
  0
LINE
  5
5F7
330
17
100
AcDbEntity
  8
OBJECT
100
AcDbLine
 10
6.649765021663288
 20
6.056883777270972
 30
0.0
 11
6.681015021663288
 21
6.1110103650075
 31
0.0
  0
LINE
  5
5F8
330
17
100
AcDbEntity
  8
OBJECT
100
AcDbLine
 10
6.743515021663288
 20
6.219263540480555
 30
0.0
 11
6.774765021663288
 21
6.273390128217082
 31
0.0
  0
LINE
  5
5F9
330
17
100
AcDbEntity
  8
OBJECT
100
AcDbLine
 10
6.837265021663288
 20
6.381643303690137
 30
0.0
 11
6.868515021663288
 21
6.435769891426664
 31
0.0
  0
LINE
  5
5FA
330
17
100
AcDbEntity
  8
OBJECT
100
AcDbLine
 10
6.931015021663288
 20
6.544023066899719
 30
0.0
 11
6.962265021663288
 21
6.598149654636246
 31
0.0
  0
LINE
  5
5FC
330
17
100
AcDbEntity
  8
OBJECT
100
AcDbLine
 10
6.007204264095536
 20
4.835682723213679
 30
0.0
 11
6.024765021458449
 21
4.866098847185632
 31
0.0
  0
LINE
  5
5FD
330
17
100
AcDbEntity
  8
OBJECT
100
AcDbLine
 10
6.087265021458449
 20
4.974352022658687
 30
0.0
 11
6.118515021458449
 21
5.028478610395215
 31
0.0
  0
LINE
  5
5FE
330
17
100
AcDbEntity
  8
OBJECT
100
AcDbLine
 10
6.181015021458449
 20
5.13673178586827
 30
0.0
 11
6.212265021458449
 21
5.190858373604797
 31
0.0
  0
LINE
  5
5FF
330
17
100
AcDbEntity
  8
OBJECT
100
AcDbLine
 10
6.274765021458449
 20
5.299111549077852
 30
0.0
 11
6.306015021458449
 21
5.353238136814379
 31
0.0
  0
LINE
  5
600
330
17
100
AcDbEntity
  8
OBJECT
100
AcDbLine
 10
6.368515021458449
 20
5.461491312287434
 30
0.0
 11
6.399765021458449
 21
5.515617900023961
 31
0.0
  0
LINE
  5
601
330
17
100
AcDbEntity
  8
OBJECT
100
AcDbLine
 10
6.462265021458449
 20
5.623871075497016
 30
0.0
 11
6.493515021458449
 21
5.677997663233544
 31
0.0
  0
LINE
  5
602
330
17
100
AcDbEntity
  8
OBJECT
100
AcDbLine
 10
6.556015021458449
 20
5.786250838706599
 30
0.0
 11
6.587265021458449
 21
5.840377426443126
 31
0.0
  0
LINE
  5
603
330
17
100
AcDbEntity
  8
OBJECT
100
AcDbLine
 10
6.649765021458449
 20
5.948630601916181
 30
0.0
 11
6.681015021458449
 21
6.002757189652708
 31
0.0
  0
LINE
  5
604
330
17
100
AcDbEntity
  8
OBJECT
100
AcDbLine
 10
6.743515021458449
 20
6.111010365125763
 30
0.0
 11
6.774765021458449
 21
6.16513695286229
 31
0.0
  0
LINE
  5
605
330
17
100
AcDbEntity
  8
OBJECT
100
AcDbLine
 10
6.837265021458449
 20
6.273390128335345
 30
0.0
 11
6.868515021458449
 21
6.327516716071873
 31
0.0
  0
LINE
  5
606
330
17
100
AcDbEntity
  8
OBJECT
100
AcDbLine
 10
6.931015021458449
 20
6.435769891544928
 30
0.0
 11
6.962265021458449
 21
6.489896479281455
 31
0.0
  0
LINE
  5
608
330
17
100
AcDbEntity
  8
OBJECT
100
AcDbLine
 10
6.08726502125361
 20
4.866098847303897
 30
0.0
 11
6.11851502125361
 21
4.920225435040424
 31
0.0
  0
LINE
  5
609
330
17
100
AcDbEntity
  8
OBJECT
100
AcDbLine
 10
6.18101502125361
 20
5.028478610513479
 30
0.0
 11
6.21226502125361
 21
5.082605198250006
 31
0.0
  0
LINE
  5
60A
330
17
100
AcDbEntity
  8
OBJECT
100
AcDbLine
 10
6.27476502125361
 20
5.190858373723061
 30
0.0
 11
6.30601502125361
 21
5.244984961459588
 31
0.0
  0
LINE
  5
60B
330
17
100
AcDbEntity
  8
OBJECT
100
AcDbLine
 10
6.36851502125361
 20
5.353238136932644
 30
0.0
 11
6.39976502125361
 21
5.407364724669171
 31
0.0
  0
LINE
  5
60C
330
17
100
AcDbEntity
  8
OBJECT
100
AcDbLine
 10
6.46226502125361
 20
5.515617900142226
 30
0.0
 11
6.49351502125361
 21
5.569744487878753
 31
0.0
  0
LINE
  5
60D
330
17
100
AcDbEntity
  8
OBJECT
100
AcDbLine
 10
6.55601502125361
 20
5.677997663351808
 30
0.0
 11
6.58726502125361
 21
5.732124251088335
 31
0.0
  0
LINE
  5
60E
330
17
100
AcDbEntity
  8
OBJECT
100
AcDbLine
 10
6.64976502125361
 20
5.84037742656139
 30
0.0
 11
6.68101502125361
 21
5.894504014297917
 31
0.0
  0
LINE
  5
60F
330
17
100
AcDbEntity
  8
OBJECT
100
AcDbLine
 10
6.74351502125361
 20
6.002757189770973
 30
0.0
 11
6.77476502125361
 21
6.0568837775075
 31
0.0
  0
LINE
  5
610
330
17
100
AcDbEntity
  8
OBJECT
100
AcDbLine
 10
6.83726502125361
 20
6.165136952980555
 30
0.0
 11
6.86851502125361
 21
6.219263540717082
 31
0.0
  0
LINE
  5
611
330
17
100
AcDbEntity
  8
OBJECT
100
AcDbLine
 10
6.93101502125361
 20
6.327516716190137
 30
0.0
 11
6.96226502125361
 21
6.381643303926664
 31
0.0
  0
LINE
  5
614
330
17
100
AcDbEntity
  8
OBJECT
100
AcDbLine
 10
6.181015021048771
 20
4.920225435158688
 30
0.0
 11
6.212265021048771
 21
4.974352022895216
 31
0.0
  0
LINE
  5
615
330
17
100
AcDbEntity
  8
OBJECT
100
AcDbLine
 10
6.274765021048771
 20
5.082605198368271
 30
0.0
 11
6.306015021048771
 21
5.136731786104798
 31
0.0
  0
LINE
  5
616
330
17
100
AcDbEntity
  8
OBJECT
100
AcDbLine
 10
6.368515021048771
 20
5.244984961577853
 30
0.0
 11
6.399765021048771
 21
5.29911154931438
 31
0.0
  0
LINE
  5
617
330
17
100
AcDbEntity
  8
OBJECT
100
AcDbLine
 10
6.462265021048771
 20
5.407364724787435
 30
0.0
 11
6.493515021048771
 21
5.461491312523962
 31
0.0
  0
LINE
  5
618
330
17
100
AcDbEntity
  8
OBJECT
100
AcDbLine
 10
6.556015021048771
 20
5.569744487997017
 30
0.0
 11
6.587265021048771
 21
5.623871075733545
 31
0.0
  0
LINE
  5
619
330
17
100
AcDbEntity
  8
OBJECT
100
AcDbLine
 10
6.649765021048771
 20
5.7321242512066
 30
0.0
 11
6.681015021048771
 21
5.786250838943127
 31
0.0
  0
LINE
  5
61A
330
17
100
AcDbEntity
  8
OBJECT
100
AcDbLine
 10
6.743515021048771
 20
5.894504014416182
 30
0.0
 11
6.774765021048771
 21
5.948630602152709
 31
0.0
  0
LINE
  5
61B
330
17
100
AcDbEntity
  8
OBJECT
100
AcDbLine
 10
6.837265021048771
 20
6.056883777625764
 30
0.0
 11
6.868515021048771
 21
6.111010365362291
 31
0.0
  0
LINE
  5
61C
330
17
100
AcDbEntity
  8
OBJECT
100
AcDbLine
 10
6.931015021048771
 20
6.219263540835346
 30
0.0
 11
6.962265021048771
 21
6.273390128571874
 31
0.0
  0
LINE
  5
61E
330
17
100
AcDbEntity
  8
OBJECT
100
AcDbLine
 10
6.194704263276181
 20
4.835682723213679
 30
0.0
 11
6.212265020843933
 21
4.866098847540424
 31
0.0
  0
LINE
  5
61F
330
17
100
AcDbEntity
  8
OBJECT
100
AcDbLine
 10
6.274765020843933
 20
4.974352023013479
 30
0.0
 11
6.306015020843933
 21
5.028478610750006
 31
0.0
  0
LINE
  5
620
330
17
100
AcDbEntity
  8
OBJECT
100
AcDbLine
 10
6.368515020843933
 20
5.136731786223061
 30
0.0
 11
6.399765020843933
 21
5.190858373959589
 31
0.0
  0
LINE
  5
621
330
17
100
AcDbEntity
  8
OBJECT
100
AcDbLine
 10
6.462265020843933
 20
5.299111549432644
 30
0.0
 11
6.493515020843933
 21
5.353238137169171
 31
0.0
  0
LINE
  5
622
330
17
100
AcDbEntity
  8
OBJECT
100
AcDbLine
 10
6.556015020843933
 20
5.461491312642226
 30
0.0
 11
6.587265020843933
 21
5.515617900378753
 31
0.0
  0
LINE
  5
623
330
17
100
AcDbEntity
  8
OBJECT
100
AcDbLine
 10
6.649765020843933
 20
5.623871075851808
 30
0.0
 11
6.681015020843933
 21
5.677997663588335
 31
0.0
  0
LINE
  5
624
330
17
100
AcDbEntity
  8
OBJECT
100
AcDbLine
 10
6.743515020843933
 20
5.78625083906139
 30
0.0
 11
6.774765020843933
 21
5.840377426797918
 31
0.0
  0
LINE
  5
625
330
17
100
AcDbEntity
  8
OBJECT
100
AcDbLine
 10
6.837265020843933
 20
5.948630602270973
 30
0.0
 11
6.868515020843933
 21
6.0027571900075
 31
0.0
  0
LINE
  5
626
330
17
100
AcDbEntity
  8
OBJECT
100
AcDbLine
 10
6.931015020843933
 20
6.111010365480555
 30
0.0
 11
6.962265020843933
 21
6.165136953217082
 31
0.0
  0
LINE
  5
628
330
17
100
AcDbEntity
  8
OBJECT
100
AcDbLine
 10
6.274765020639094
 20
4.866098847658688
 30
0.0
 11
6.306015020639094
 21
4.920225435395215
 31
0.0
  0
LINE
  5
629
330
17
100
AcDbEntity
  8
OBJECT
100
AcDbLine
 10
6.368515020639094
 20
5.02847861086827
 30
0.0
 11
6.399765020639094
 21
5.082605198604797
 31
0.0
  0
LINE
  5
62A
330
17
100
AcDbEntity
  8
OBJECT
100
AcDbLine
 10
6.462265020639094
 20
5.190858374077852
 30
0.0
 11
6.493515020639094
 21
5.244984961814379
 31
0.0
  0
LINE
  5
62B
330
17
100
AcDbEntity
  8
OBJECT
100
AcDbLine
 10
6.556015020639094
 20
5.353238137287434
 30
0.0
 11
6.587265020639094
 21
5.407364725023962
 31
0.0
  0
LINE
  5
62C
330
17
100
AcDbEntity
  8
OBJECT
100
AcDbLine
 10
6.649765020639094
 20
5.515617900497017
 30
0.0
 11
6.681015020639094
 21
5.569744488233544
 31
0.0
  0
LINE
  5
62D
330
17
100
AcDbEntity
  8
OBJECT
100
AcDbLine
 10
6.743515020639094
 20
5.677997663706599
 30
0.0
 11
6.774765020639094
 21
5.732124251443126
 31
0.0
  0
LINE
  5
62E
330
17
100
AcDbEntity
  8
OBJECT
100
AcDbLine
 10
6.837265020639094
 20
5.840377426916181
 30
0.0
 11
6.868515020639094
 21
5.894504014652708
 31
0.0
  0
LINE
  5
62F
330
17
100
AcDbEntity
  8
OBJECT
100
AcDbLine
 10
6.931015020639094
 20
6.002757190125763
 30
0.0
 11
6.962265020639094
 21
6.056883777862291
 31
0.0
  0
LINE
  5
632
330
17
100
AcDbEntity
  8
OBJECT
100
AcDbLine
 10
6.368515020434255
 20
4.920225435513479
 30
0.0
 11
6.399765020434255
 21
4.974352023250006
 31
0.0
  0
LINE
  5
633
330
17
100
AcDbEntity
  8
OBJECT
100
AcDbLine
 10
6.462265020434255
 20
5.082605198723062
 30
0.0
 11
6.493515020434255
 21
5.136731786459589
 31
0.0
  0
LINE
  5
634
330
17
100
AcDbEntity
  8
OBJECT
100
AcDbLine
 10
6.556015020434255
 20
5.244984961932644
 30
0.0
 11
6.587265020434255
 21
5.299111549669171
 31
0.0
  0
LINE
  5
635
330
17
100
AcDbEntity
  8
OBJECT
100
AcDbLine
 10
6.649765020434255
 20
5.407364725142226
 30
0.0
 11
6.681015020434255
 21
5.461491312878753
 31
0.0
  0
LINE
  5
636
330
17
100
AcDbEntity
  8
OBJECT
100
AcDbLine
 10
6.743515020434255
 20
5.569744488351808
 30
0.0
 11
6.774765020434255
 21
5.623871076088335
 31
0.0
  0
LINE
  5
637
330
17
100
AcDbEntity
  8
OBJECT
100
AcDbLine
 10
6.837265020434255
 20
5.732124251561391
 30
0.0
 11
6.868515020434255
 21
5.786250839297918
 31
0.0
  0
LINE
  5
638
330
17
100
AcDbEntity
  8
OBJECT
100
AcDbLine
 10
6.931015020434255
 20
5.894504014770973
 30
0.0
 11
6.962265020434255
 21
5.9486306025075
 31
0.0
  0
LINE
  5
63A
330
17
100
AcDbEntity
  8
OBJECT
100
AcDbLine
 10
6.382204262456827
 20
4.835682723213679
 30
0.0
 11
6.399765020229416
 21
4.866098847895215
 31
0.0
  0
LINE
  5
63B
330
17
100
AcDbEntity
  8
OBJECT
100
AcDbLine
 10
6.462265020229416
 20
4.97435202336827
 30
0.0
 11
6.493515020229416
 21
5.028478611104797
 31
0.0
  0
LINE
  5
63C
330
17
100
AcDbEntity
  8
OBJECT
100
AcDbLine
 10
6.556015020229416
 20
5.136731786577852
 30
0.0
 11
6.587265020229416
 21
5.190858374314379
 31
0.0
  0
LINE
  5
63D
330
17
100
AcDbEntity
  8
OBJECT
100
AcDbLine
 10
6.649765020229416
 20
5.299111549787435
 30
0.0
 11
6.681015020229416
 21
5.353238137523962
 31
0.0
  0
LINE
  5
63E
330
17
100
AcDbEntity
  8
OBJECT
100
AcDbLine
 10
6.743515020229416
 20
5.461491312997017
 30
0.0
 11
6.774765020229416
 21
5.515617900733544
 31
0.0
  0
LINE
  5
63F
330
17
100
AcDbEntity
  8
OBJECT
100
AcDbLine
 10
6.837265020229416
 20
5.623871076206599
 30
0.0
 11
6.868515020229416
 21
5.677997663943126
 31
0.0
  0
LINE
  5
640
330
17
100
AcDbEntity
  8
OBJECT
100
AcDbLine
 10
6.931015020229416
 20
5.786250839416181
 30
0.0
 11
6.962265020229416
 21
5.840377427152708
 31
0.0
  0
LINE
  5
642
330
17
100
AcDbEntity
  8
OBJECT
100
AcDbLine
 10
6.462265020024577
 20
4.866098848013479
 30
0.0
 11
6.493515020024577
 21
4.920225435750007
 31
0.0
  0
LINE
  5
643
330
17
100
AcDbEntity
  8
OBJECT
100
AcDbLine
 10
6.556015020024577
 20
5.028478611223062
 30
0.0
 11
6.587265020024577
 21
5.082605198959589
 31
0.0
  0
LINE
  5
644
330
17
100
AcDbEntity
  8
OBJECT
100
AcDbLine
 10
6.649765020024577
 20
5.190858374432644
 30
0.0
 11
6.681015020024577
 21
5.244984962169171
 31
0.0
  0
LINE
  5
645
330
17
100
AcDbEntity
  8
OBJECT
100
AcDbLine
 10
6.743515020024577
 20
5.353238137642226
 30
0.0
 11
6.774765020024577
 21
5.407364725378753
 31
0.0
  0
LINE
  5
646
330
17
100
AcDbEntity
  8
OBJECT
100
AcDbLine
 10
6.837265020024577
 20
5.515617900851808
 30
0.0
 11
6.868515020024577
 21
5.569744488588336
 31
0.0
  0
LINE
  5
647
330
17
100
AcDbEntity
  8
OBJECT
100
AcDbLine
 10
6.931015020024577
 20
5.677997664061391
 30
0.0
 11
6.962265020024577
 21
5.732124251797918
 31
0.0
  0
LINE
  5
64A
330
17
100
AcDbEntity
  8
OBJECT
100
AcDbLine
 10
6.556015019819739
 20
4.920225435868271
 30
0.0
 11
6.587265019819739
 21
4.974352023604798
 31
0.0
  0
LINE
  5
64B
330
17
100
AcDbEntity
  8
OBJECT
100
AcDbLine
 10
6.649765019819739
 20
5.082605199077853
 30
0.0
 11
6.681015019819739
 21
5.13673178681438
 31
0.0
  0
LINE
  5
64C
330
17
100
AcDbEntity
  8
OBJECT
100
AcDbLine
 10
6.743515019819739
 20
5.244984962287436
 30
0.0
 11
6.774765019819739
 21
5.299111550023963
 31
0.0
  0
LINE
  5
64D
330
17
100
AcDbEntity
  8
OBJECT
100
AcDbLine
 10
6.837265019819739
 20
5.407364725497018
 30
0.0
 11
6.868515019819739
 21
5.461491313233545
 31
0.0
  0
LINE
  5
64E
330
17
100
AcDbEntity
  8
OBJECT
100
AcDbLine
 10
6.931015019819739
 20
5.5697444887066
 30
0.0
 11
6.962265019819739
 21
5.623871076443127
 31
0.0
  0
LINE
  5
650
330
17
100
AcDbEntity
  8
OBJECT
100
AcDbLine
 10
6.56970426163747
 20
4.835682723213679
 30
0.0
 11
6.5872650196149
 21
4.866098848250005
 31
0.0
  0
LINE
  5
651
330
17
100
AcDbEntity
  8
OBJECT
100
AcDbLine
 10
6.6497650196149
 20
4.97435202372306
 30
0.0
 11
6.6810150196149
 21
5.028478611459587
 31
0.0
  0
LINE
  5
652
330
17
100
AcDbEntity
  8
OBJECT
100
AcDbLine
 10
6.7435150196149
 20
5.136731786932642
 30
0.0
 11
6.7747650196149
 21
5.190858374669169
 31
0.0
  0
LINE
  5
653
330
17
100
AcDbEntity
  8
OBJECT
100
AcDbLine
 10
6.8372650196149
 20
5.299111550142225
 30
0.0
 11
6.8685150196149
 21
5.353238137878752
 31
0.0
  0
LINE
  5
654
330
17
100
AcDbEntity
  8
OBJECT
100
AcDbLine
 10
6.9310150196149
 20
5.461491313351807
 30
0.0
 11
6.9622650196149
 21
5.515617901088334
 31
0.0
  0
LINE
  5
656
330
17
100
AcDbEntity
  8
OBJECT
100
AcDbLine
 10
6.649765019410061
 20
4.866098848368269
 30
0.0
 11
6.681015019410061
 21
4.920225436104796
 31
0.0
  0
LINE
  5
657
330
17
100
AcDbEntity
  8
OBJECT
100
AcDbLine
 10
6.743515019410061
 20
5.028478611577851
 30
0.0
 11
6.774765019410061
 21
5.082605199314378
 31
0.0
  0
LINE
  5
658
330
17
100
AcDbEntity
  8
OBJECT
100
AcDbLine
 10
6.837265019410061
 20
5.190858374787433
 30
0.0
 11
6.868515019410061
 21
5.24498496252396
 31
0.0
  0
LINE
  5
659
330
17
100
AcDbEntity
  8
OBJECT
100
AcDbLine
 10
6.931015019410061
 20
5.353238137997015
 30
0.0
 11
6.962265019410061
 21
5.407364725733542
 31
0.0
  0
LINE
  5
65C
330
17
100
AcDbEntity
  8
OBJECT
100
AcDbLine
 10
6.743515019205222
 20
4.920225436223059
 30
0.0
 11
6.774765019205222
 21
4.974352023959586
 31
0.0
  0
LINE
  5
65D
330
17
100
AcDbEntity
  8
OBJECT
100
AcDbLine
 10
6.837265019205222
 20
5.082605199432641
 30
0.0
 11
6.868515019205222
 21
5.136731787169169
 31
0.0
  0
LINE
  5
65E
330
17
100
AcDbEntity
  8
OBJECT
100
AcDbLine
 10
6.931015019205222
 20
5.244984962642224
 30
0.0
 11
6.962265019205222
 21
5.299111550378751
 31
0.0
  0
LINE
  5
660
330
17
100
AcDbEntity
  8
OBJECT
100
AcDbLine
 10
6.757204260818115
 20
4.835682723213679
 30
0.0
 11
6.774765019000383
 21
4.866098848604796
 31
0.0
  0
LINE
  5
661
330
17
100
AcDbEntity
  8
OBJECT
100
AcDbLine
 10
6.837265019000383
 20
4.974352024077851
 30
0.0
 11
6.868515019000383
 21
5.028478611814378
 31
0.0
  0
LINE
  5
662
330
17
100
AcDbEntity
  8
OBJECT
100
AcDbLine
 10
6.931015019000383
 20
5.136731787287433
 30
0.0
 11
6.962265019000383
 21
5.19085837502396
 31
0.0
  0
LINE
  5
664
330
17
100
AcDbEntity
  8
OBJECT
100
AcDbLine
 10
6.837265018795545
 20
4.866098848723058
 30
0.0
 11
6.868515018795545
 21
4.920225436459586
 31
0.0
  0
LINE
  5
665
330
17
100
AcDbEntity
  8
OBJECT
100
AcDbLine
 10
6.931015018795545
 20
5.028478611932641
 30
0.0
 11
6.962265018795545
 21
5.082605199669168
 31
0.0
  0
LINE
  5
668
330
17
100
AcDbEntity
  8
OBJECT
100
AcDbLine
 10
6.931015018590706
 20
4.92022543657785
 30
0.0
 11
6.962265018590706
 21
4.974352024314377
 31
0.0
  0
LINE
  5
66A
330
17
100
AcDbEntity
  8
OBJECT
100
AcDbLine
 10
6.944704259998761
 20
4.835682723213679
 30
0.0
 11
6.962265018385867
 21
4.866098848959586
 31
0.0
  0
LINE
  5
66E
330
17
100
AcDbEntity
  8
OBJECT
100
AcDbLine
 10
7.005430699208234
 20
4.835682723213678
 30
0.0
 11
7.005430699208233
 21
6.743682723213677
 31
0.0
  0
LINE
  5
66F
330
17
100
AcDbEntity
  8
OBJECT
100
AcDbLine
 10
5.078430699208237
 20
4.835682723213679
 30
0.0
 11
5.078430699208235
 21
6.743682723213678
 31
0.0
  0
LINE
  5
670
330
17
100
AcDbEntity
  8
OBJECT
100
AcDbLine
 10
5.078430699208235
 20
6.74368272321368
 30
0.0
 11
7.005430699208233
 21
6.743682723213678
 31
0.0
  0
LINE
  5
673
330
17
100
AcDbEntity
  8
OBJECT
100
AcDbLine
 10
5.078430699208237
 20
4.835682723213679
 30
0.0
 11
7.005430699208234
 21
4.835682723213677
 31
0.0
  0
LINE
  5
675
330
17
100
AcDbEntity
  8
OBJECT
100
AcDbLine
 10
2.766838268326859
 20
4.835682723213679
 30
0.0
 11
2.702253128837015
 21
4.835682723213679
 31
0.0
  0
LINE
  5
678
330
17
100
AcDbEntity
  8
HIDDEN
100
AcDbLine
 10
2.83583826832686
 20
4.681182723213679
 30
0.0
 11
2.69783826832686
 21
4.681182723213678
 31
0.0
  0
LINE
  5
679
330
17
100
AcDbEntity
  8
HIDDEN
100
AcDbLine
 10
2.83583826832686
 20
4.512182723213681
 30
0.0
 11
2.69783826832686
 21
4.512182723213681
 31
0.0
  0
LINE
  5
690
330
17
100
AcDbEntity
  8
0
100
AcDbLine
 10
2.625214952381881
 20
5.375786259897973
 30
0.0
 11
2.74836278974425
 21
5.31167955308609
 31
0.0
  0
LINE
  5
691
330
17
100
AcDbEntity
  8
0
100
AcDbLine
 10
2.625214952301138
 20
5.186679553411432
 30
0.0
 11
2.748362789643615
 21
5.250786259440793
 31
0.0
  0
LINE
  5
692
330
17
100
AcDbEntity
  8
0
100
AcDbLine
 10
2.625214952325276
 20
5.125786259726311
 30
0.0
 11
2.748362789655519
 21
5.061679553201258
 31
0.0
  0
LINE
  5
693
330
17
100
AcDbEntity
  8
0
100
AcDbLine
 10
2.625214952242137
 20
4.93667955308345
 30
0.0
 11
2.74836278958141
 21
5.000786259542152
 31
0.0
  0
LINE
  5
694
330
17
100
AcDbEntity
  8
0
100
AcDbLine
 10
2.625214952283913
 20
4.875786259407512
 30
0.0
 11
2.702253128837013
 21
4.835682723213679
 31
0.0
  0
ARC
  5
695
330
17
100
AcDbEntity
  8
0
100
AcDbCircle
 10
2.641064473531173
 20
5.406232906746815
 30
0.0
 40
0.034325
100
AcDbArc
 50
117.5
 51
242.5
  0
ARC
  5
696
330
17
100
AcDbEntity
  8
0
100
AcDbCircle
 10
2.732513268494322
 20
5.281232906289636
 30
0.0
 40
0.034325
100
AcDbArc
 50
297.5
 51
62.49999981062043
  0
ARC
  5
697
330
17
100
AcDbEntity
  8
0
100
AcDbCircle
 10
2.641064473474568
 20
5.156232906575152
 30
0.0
 40
0.034325
100
AcDbArc
 50
117.5000000454226
 51
242.5
  0
ARC
  5
698
330
17
100
AcDbEntity
  8
0
100
AcDbCircle
 10
2.732513268432117
 20
5.031232906390994
 30
0.0
 40
0.034325
100
AcDbArc
 50
297.5
 51
62.49999986053799
  0
ARC
  5
699
330
17
100
AcDbEntity
  8
0
100
AcDbCircle
 10
2.641064473433205
 20
4.906232906256354
 30
0.0
 40
0.034325
100
AcDbArc
 50
117.5000000786153
 51
242.5
  0
ARC
  5
69A
330
17
100
AcDbEntity
  8
0
100
AcDbCircle
 10
2.73251326832686
 20
5.531232906416331
 30
0.0
 40
0.034325
100
AcDbArc
 50
297.5
 51
62.49999994500401
  0
LINE
  5
69B
330
17
100
AcDbEntity
  8
0
100
AcDbLine
 10
2.625214952206786
 20
5.436679553291941
 30
0.0
 11
2.748362789476152
 21
5.500786259567489
 31
0.0
  0
ARC
  5
69C
330
17
100
AcDbEntity
  8
0
100
AcDbCircle
 10
2.641064473433205
 20
5.656232906256354
 30
0.0
 40
0.034325
100
AcDbArc
 50
117.5000000786153
 51
242.5
  0
LINE
  5
69D
330
17
100
AcDbEntity
  8
0
100
AcDbLine
 10
2.625214952283913
 20
5.625786259407512
 30
0.0
 11
2.748362789505376
 21
5.561679553249961
 31
0.0
  0
LINE
  5
69E
330
17
100
AcDbEntity
  8
0
100
AcDbLine
 10
2.625214952242137
 20
5.68667955308345
 30
0.0
 11
2.74836278958141
 21
5.750786259542151
 31
0.0
  0
ARC
  5
69F
330
17
100
AcDbEntity
  8
0
100
AcDbCircle
 10
2.73251326832686
 20
5.781232906416331
 30
0.0
 40
0.034325
100
AcDbArc
 50
297.5
 51
0.0
  0
ARC
  5
6A0
330
17
100
AcDbEntity
  8
0
100
AcDbCircle
 10
2.641064473433205
 20
5.87315527913068
 30
0.0
 40
0.034325
100
AcDbArc
 50
117.5
 51
242.4999999213847
  0
LINE
  5
6A1
330
17
100
AcDbEntity
  8
0
100
AcDbLine
 10
2.625214952301138
 20
6.342708631975602
 30
0.0
 11
2.748362789643615
 21
6.27860192594624
 31
0.0
  0
LINE
  5
6A2
330
17
100
AcDbEntity
  8
0
100
AcDbLine
 10
2.625214952283913
 20
6.653601925979522
 30
0.0
 11
2.751319047303773
 21
6.719247562533933
 31
0.0
  0
LINE
  5
6A3
330
17
100
AcDbEntity
  8
0
100
AcDbLine
 10
2.625214952242137
 20
6.592708632303583
 30
0.0
 11
2.74836278958141
 21
6.528601925844881
 31
0.0
  0
LINE
  5
6A4
330
17
100
AcDbEntity
  8
0
100
AcDbLine
 10
2.625214952325276
 20
6.403601925660723
 30
0.0
 11
2.748362789655519
 21
6.467708632185775
 31
0.0
  0
ARC
  5
6A5
330
17
100
AcDbEntity
  8
0
100
AcDbCircle
 10
2.641064473433205
 20
6.62315527913068
 30
0.0
 40
0.034325
100
AcDbArc
 50
117.5
 51
242.4999999213847
  0
ARC
  5
6A6
330
17
100
AcDbEntity
  8
0
100
AcDbCircle
 10
2.641064473474568
 20
6.373155278811881
 30
0.0
 40
0.034325
100
AcDbArc
 50
117.5
 51
242.4999999545774
  0
ARC
  5
6A7
330
17
100
AcDbEntity
  8
0
100
AcDbCircle
 10
2.732513268432117
 20
6.49815527899604
 30
0.0
 40
0.034325
100
AcDbArc
 50
297.500000139462
 51
62.50000000000004
  0
LINE
  5
6A9
330
17
100
AcDbEntity
  8
0
100
AcDbLine
 10
2.625214952283913
 20
5.903601925979522
 30
0.0
 11
2.748362789505376
 21
5.967708632137073
 31
0.0
  0
LINE
  5
6AA
330
17
100
AcDbEntity
  8
0
100
AcDbLine
 10
2.625214952206786
 20
6.092708632095092
 30
0.0
 11
2.748362789476152
 21
6.028601925819545
 31
0.0
  0
LINE
  5
6AB
330
17
100
AcDbEntity
  8
0
100
AcDbLine
 10
2.625214952381881
 20
6.153601925489061
 30
0.0
 11
2.74836278974425
 21
6.217708632300944
 31
0.0
  0
ARC
  5
6AC
330
17
100
AcDbEntity
  8
0
100
AcDbCircle
 10
2.641064473531173
 20
6.123155278640219
 30
0.0
 40
0.034325
100
AcDbArc
 50
117.5
 51
242.5
  0
ARC
  5
6AD
330
17
100
AcDbEntity
  8
0
100
AcDbCircle
 10
2.732513268494322
 20
6.248155279097398
 30
0.0
 40
0.034325
100
AcDbArc
 50
297.5000001893795
 51
62.50000000000004
  0
ARC
  5
6AE
330
17
100
AcDbEntity
  8
0
100
AcDbCircle
 10
2.73251326832686
 20
5.998155278970703
 30
0.0
 40
0.034325
100
AcDbArc
 50
297.500000054996
 51
62.50000000000004
  0
LINE
  5
6AF
330
17
100
AcDbEntity
  8
0
100
AcDbLine
 10
2.625214952242137
 20
5.842708632303583
 30
0.0
 11
2.74836278958141
 21
5.778601925844882
 31
0.0
  0
ARC
  5
6B0
330
17
100
AcDbEntity
  8
0
100
AcDbCircle
 10
2.73251326832686
 20
5.748155278970703
 30
0.0
 40
0.034325
100
AcDbArc
 50
0.0
 51
62.50000000000004
  0
ARC
  5
6B2
330
17
100
AcDbEntity
  8
0
100
AcDbCircle
 10
2.732513268432117
 20
6.747962511707323
 30
0.0
 40
0.034325
100
AcDbArc
 50
297.500000139462
 51
353.5277167553326
  0
LINE
  5
6B5
330
17
100
AcDbEntity
  8
DIM
 62
     1
100
AcDbLine
 10
5.028430699208236
 20
6.856182723213679
 30
0.0
 11
5.028430699208236
 21
7.729866984808758
 31
0.0
  0
LINE
  5
6B6
330
17
100
AcDbEntity
  8
DIM
 62
     1
100
AcDbLine
 10
7.055430699208233
 20
6.856182723213678
 30
0.0
 11
7.055430699208233
 21
7.729866984808758
 31
0.0
  0
LINE
  5
6B7
330
17
100
AcDbEntity
  8
DIM
 62
     1
100
AcDbLine
 10
5.208430699208236
 20
7.549866984808758
 30
0.0
 11
5.677644984922521
 21
7.549866984808758
 31
0.0
  0
LINE
  5
6B8
330
17
100
AcDbEntity
  8
DIM
 62
     1
100
AcDbLine
 10
6.875430699208234
 20
7.549866984808758
 30
0.0
 11
6.406216413493948
 21
7.549866984808758
 31
0.0
  0
SOLID
  5
6B9
330
17
100
AcDbEntity
  8
DIM
 62
     1
100
AcDbTrace
 10
5.208430699208236
 20
7.579866984808758
 30
0.0
 11
5.208430699208236
 21
7.519866984808759
 31
0.0
 12
5.028430699208236
 22
7.549866984808758
 32
0.0
 13
5.028430699208236
 23
7.549866984808758
 33
0.0
  0
SOLID
  5
6BA
330
17
100
AcDbEntity
  8
DIM
 62
     1
100
AcDbTrace
 10
6.875430699208234
 20
7.579866984808758
 30
0.0
 11
6.875430699208234
 21
7.519866984808759
 31
0.0
 12
7.055430699208233
 22
7.549866984808758
 32
0.0
 13
7.055430699208233
 23
7.549866984808758
 33
0.0
  0
MTEXT
  5
6BB
330
17
100
AcDbEntity
  8
DIM
 62
     7
100
AcDbMText
 10
6.041930699208235
 20
7.549866984808758
 30
0.0
 40
0.125
 41
0.0
 71
     5
 72
     1
  1
\A1;51.5
 73
     1
 44
1.0
  0
MTEXT
  5
6BC
330
17
100
AcDbEntity
  8
DIM
 62
     7
100
AcDbMText
 10
6.041930699208235
 20
7.31350742046682
 30
0.0
 40
0.125
 41
0.0
 71
     5
 72
     1
  1
(2.027)
 73
     1
 44
1.0
  0
LINE
  5
6BD
330
17
100
AcDbEntity
  8
DIM
 62
     1
100
AcDbLine
 10
7.117930699208233
 20
6.793682723213678
 30
0.0
 11
7.737502792215181
 21
6.793682723213678
 31
0.0
  0
LINE
  5
6BE
330
17
100
AcDbEntity
  8
DIM
 62
     1
100
AcDbLine
 10
7.117930699208233
 20
4.785682723213678
 30
0.0
 11
7.737502792215181
 21
4.785682723213678
 31
0.0
  0
LINE
  5
6BF
330
17
100
AcDbEntity
  8
DIM
 62
     1
100
AcDbLine
 10
7.557502792215181
 20
6.613682723213679
 30
0.0
 11
7.557502792215181
 21
6.139149018713932
 31
0.0
  0
LINE
  5
6C0
330
17
100
AcDbEntity
  8
DIM
 62
     1
100
AcDbLine
 10
7.557502792215181
 20
4.965682723213678
 30
0.0
 11
7.557502792215181
 21
5.499306306621867
 31
0.0
  0
SOLID
  5
6C1
330
17
100
AcDbEntity
  8
DIM
 62
     1
100
AcDbTrace
 10
7.527502792215182
 20
6.613682723213679
 30
0.0
 11
7.587502792215181
 21
6.613682723213679
 31
0.0
 12
7.557502792215181
 22
6.793682723213678
 32
0.0
 13
7.557502792215181
 23
6.793682723213678
 33
0.0
  0
SOLID
  5
6C2
330
17
100
AcDbEntity
  8
DIM
 62
     1
100
AcDbTrace
 10
7.527502792215182
 20
4.965682723213678
 30
0.0
 11
7.587502792215181
 21
4.965682723213678
 31
0.0
 12
7.557502792215181
 22
4.785682723213678
 32
0.0
 13
7.557502792215181
 23
4.785682723213678
 33
0.0
  0
MTEXT
  5
6C3
330
17
100
AcDbEntity
  8
DIM
 62
     7
100
AcDbMText
 10
7.557502792215181
 20
5.976800713680552
 30
0.0
 40
0.125
 41
0.0
 71
     5
 72
     1
  1
\A1;51
 73
     1
 44
1.0
  0
MTEXT
  5
6C4
330
17
100
AcDbEntity
  8
DIM
 62
     7
100
AcDbMText
 10
7.557502792215181
 20
5.750289454371993
 30
0.0
 40
0.125
 41
0.0
 71
     5
 72
     1
  1
(2.008)
 73
     1
 44
1.0
  0
LINE
  5
6C5
330
17
100
AcDbEntity
  8
DIM
 62
     1
100
AcDbLine
 10
7.117930699208233
 20
6.793682723213678
 30
0.0
 11
8.683949664356916
 21
6.793682723213678
 31
0.0
  0
LINE
  5
6C6
330
17
100
AcDbEntity
  8
DIM
 62
     1
100
AcDbLine
 10
7.117930699208233
 20
4.39168272321368
 30
0.0
 11
8.683949664356916
 21
4.39168272321368
 31
0.0
  0
LINE
  5
6C7
330
17
100
AcDbEntity
  8
DIM
 62
     1
100
AcDbLine
 10
8.503949664356916
 20
6.613682723213679
 30
0.0
 11
8.503949664356916
 21
5.745182723213679
 31
0.0
  0
LINE
  5
6C8
330
17
100
AcDbEntity
  8
DIM
 62
     1
100
AcDbLine
 10
8.503949664356916
 20
4.57168272321368
 30
0.0
 11
8.503949664356916
 21
5.144733279963296
 31
0.0
  0
SOLID
  5
6C9
330
17
100
AcDbEntity
  8
DIM
 62
     1
100
AcDbTrace
 10
8.473949664356917
 20
6.613682723213679
 30
0.0
 11
8.533949664356915
 21
6.613682723213679
 31
0.0
 12
8.503949664356916
 22
6.793682723213678
 32
0.0
 13
8.503949664356916
 23
6.793682723213678
 33
0.0
  0
SOLID
  5
6CA
330
17
100
AcDbEntity
  8
DIM
 62
     1
100
AcDbTrace
 10
8.473949664356917
 20
4.57168272321368
 30
0.0
 11
8.533949664356915
 21
4.57168272321368
 31
0.0
 12
8.503949664356916
 22
4.39168272321368
 32
0.0
 13
8.503949664356916
 23
4.39168272321368
 33
0.0
  0
MTEXT
  5
6CB
330
17
100
AcDbEntity
  8
DIM
 62
     7
100
AcDbMText
 10
8.503949664356916
 20
5.592682723213679
 30
0.0
 40
0.125
 41
0.0
 71
     5
 72
     1
  1
\A1;61
 73
     1
 44
1.0
  0
MTEXT
  5
6CC
330
17
100
AcDbEntity
  8
DIM
 62
     7
100
AcDbMText
 10
8.503949664356916
 20
5.366171488259204
 30
0.0
 40
0.125
 41
0.0
 71
     5
 72
     1
  1
(2.402)
 73
     1
 44
1.0
  0
LINE
  5
6D4
330
17
100
AcDbEntity
  8
DIM
 62
     1
100
AcDbLine
 10
5.647930699208234
 20
4.44968272321368
 30
0.0
 11
5.647930699208234
 21
3.794928531517268
 31
0.0
  0
LINE
  5
6D5
330
17
100
AcDbEntity
  8
DIM
 62
     1
100
AcDbLine
 10
6.435930699208235
 20
4.44968272321368
 30
0.0
 11
6.435930699208235
 21
3.794928531517268
 31
0.0
  0
LINE
  5
6D6
330
17
100
AcDbEntity
  8
DIM
 62
     1
100
AcDbLine
 10
6.435930699208235
 20
3.974928531517267
 30
0.0
 11
6.738307188349768
 21
3.974928531517267
 31
0.0
  0
LINE
  5
6D7
330
17
100
AcDbEntity
  8
DIM
 62
     1
100
AcDbLine
 10
5.312025038539921
 20
3.974928531517267
 30
0.0
 11
5.492025038539921
 21
3.974928531517267
 31
0.0
  0
SOLID
  5
6D8
330
17
100
AcDbEntity
  8
DIM
 62
     1
100
AcDbTrace
 10
6.615930699208234
 20
4.004928531517268
 30
0.0
 11
6.615930699208234
 21
3.944928531517267
 31
0.0
 12
6.435930699208235
 22
3.974928531517267
 32
0.0
 13
6.435930699208235
 23
3.974928531517267
 33
0.0
  0
SOLID
  5
6D9
330
17
100
AcDbEntity
  8
DIM
 62
     1
100
AcDbTrace
 10
5.467930699208235
 20
4.004928531517268
 30
0.0
 11
5.467930699208235
 21
3.944928531517267
 31
0.0
 12
5.647930699208234
 22
3.974928531517267
 32
0.0
 13
5.647930699208234
 23
3.974928531517267
 33
0.0
  0
MTEXT
  5
6DA
330
17
100
AcDbEntity
  8
DIM
 62
     7
100
AcDbMText
 10
6.047991905022497
 20
3.974928531517267
 30
0.0
 40
0.125
 41
0.0
 71
     5
 72
     1
  1
\A1;20
 73
     1
 44
1.0
  0
MTEXT
  5
6DB
330
17
100
AcDbEntity
  8
DIM
 62
     7
100
AcDbMText
 10
6.047991905022497
 20
3.777962236017014
 30
0.0
 40
0.125
 41
0.0
 71
     5
 72
     1
  1
(.788)
 73
     1
 44
1.0
  0
LINE
  5
6E3
330
17
100
AcDbEntity
  8
DIM
 62
     1
100
AcDbLine
 10
6.435930699208235
 20
4.44968272321368
 30
0.0
 11
6.435930699208235
 21
4.011591461438364
 31
0.0
  0
LINE
  5
6E4
330
17
100
AcDbEntity
  8
DIM
 62
     1
100
AcDbLine
 10
6.829930699208235
 20
4.44418272321368
 30
0.0
 11
6.829930699208235
 21
4.011591461438364
 31
0.0
  0
LINE
  5
6E5
330
17
100
AcDbEntity
  8
DIM
 62
     1
100
AcDbLine
 10
6.255930699208235
 20
4.191591461438363
 30
0.0
 11
6.075930699208235
 21
4.191591461438363
 31
0.0
  0
LINE
  5
6E6
330
17
100
AcDbEntity
  8
DIM
 62
     1
100
AcDbLine
 10
7.009930699208235
 20
4.191591461438363
 30
0.0
 11
7.189930699208234
 21
4.191591461438363
 31
0.0
  0
SOLID
  5
6E7
330
17
100
AcDbEntity
  8
DIM
 62
     1
100
AcDbTrace
 10
6.255930699208235
 20
4.221591461438364
 30
0.0
 11
6.255930699208235
 21
4.161591461438363
 31
0.0
 12
6.435930699208235
 22
4.191591461438363
 32
0.0
 13
6.435930699208235
 23
4.191591461438363
 33
0.0
  0
SOLID
  5
6E8
330
17
100
AcDbEntity
  8
DIM
 62
     1
100
AcDbTrace
 10
7.009930699208235
 20
4.221591461438364
 30
0.0
 11
7.009930699208235
 21
4.161591461438363
 31
0.0
 12
6.829930699208235
 22
4.191591461438363
 32
0.0
 13
6.829930699208235
 23
4.191591461438363
 33
0.0
  0
MTEXT
  5
6E9
330
17
100
AcDbEntity
  8
DIM
 62
     7
100
AcDbMText
 10
7.441354035779152
 20
4.191591461438363
 30
0.0
 40
0.125
 41
0.0
 71
     5
 72
     1
  1
10 
 73
     1
 44
1.0
  0
MTEXT
  5
6EA
330
17
100
AcDbEntity
  8
DIM
 62
     7
100
AcDbMText
 10
7.441354085854381
 20
3.994625141584023
 30
0.0
 40
0.125
 41
0.0
 71
     5
 72
     1
  1
(.394)
 73
     1
 44
1.0
  0
LINE
  5
6EB
330
17
100
AcDbEntity
  8
DIM
 62
     1
100
AcDbLine
 10
5.191430699208234
 20
4.681182723213679
 30
0.0
 11
4.271974018037738
 21
4.681182723213679
 31
0.0
  0
LINE
  5
6EC
330
17
100
AcDbEntity
  8
DIM
 62
     1
100
AcDbLine
 10
5.191430699208234
 20
4.50668272321368
 30
0.0
 11
4.271974018037738
 21
4.50668272321368
 31
0.0
  0
LINE
  5
6ED
330
17
100
AcDbEntity
  8
DIM
 62
     1
100
AcDbLine
 10
4.451974018037738
 20
4.861182723213679
 30
0.0
 11
4.451974018037738
 21
5.04118272321368
 31
0.0
  0
LINE
  5
6EE
330
17
100
AcDbEntity
  8
DIM
 62
     1
100
AcDbLine
 10
4.451974018037738
 20
4.32668272321368
 30
0.0
 11
4.451974018037738
 21
4.14668272321368
 31
0.0
  0
LINE
  5
6EF
330
17
100
AcDbEntity
  8
DIM
 62
     1
100
AcDbLine
 10
4.451974018037738
 20
4.14668272321368
 30
0.0
 11
4.271974018037738
 21
4.14668272321368
 31
0.0
  0
SOLID
  5
6F0
330
17
100
AcDbEntity
  8
DIM
 62
     1
100
AcDbTrace
 10
4.421974018037738
 20
4.861182723213679
 30
0.0
 11
4.481974018037737
 21
4.861182723213679
 31
0.0
 12
4.451974018037738
 22
4.681182723213679
 32
0.0
 13
4.451974018037738
 23
4.681182723213679
 33
0.0
  0
SOLID
  5
6F1
330
17
100
AcDbEntity
  8
DIM
 62
     1
100
AcDbTrace
 10
4.421974018037738
 20
4.32668272321368
 30
0.0
 11
4.481974018037737
 21
4.32668272321368
 31
0.0
 12
4.451974018037738
 22
4.50668272321368
 32
0.0
 13
4.451974018037738
 23
4.50668272321368
 33
0.0
  0
MTEXT
  5
6F2
330
17
100
AcDbEntity
  8
DIM
 62
     7
100
AcDbMText
 10
4.051021637085357
 20
4.14668272321368
 30
0.0
 40
0.125
 41
0.0
 71
     5
 72
     1
  1
\A1;4.3
 73
     1
 44
1.0
  0
MTEXT
  5
6F3
330
17
100
AcDbEntity
  8
DIM
 62
     7
100
AcDbMText
 10
4.051021637085357
 20
3.910323158871737
 30
0.0
 40
0.125
 41
0.0
 71
     5
 72
     1
  1
(.169)
 73
     1
 44
1.0
  0
LINE
  5
6F4
330
17
100
AcDbEntity
  8
DIM
 62
     1
100
AcDbLine
 10
2.520838268326858
 20
6.856182723213678
 30
0.0
 11
2.520838268326858
 21
7.729866984808758
 31
0.0
  0
LINE
  5
6F5
330
17
100
AcDbEntity
  8
DIM
 62
     1
100
AcDbLine
 10
2.835838268326859
 20
6.856182723213678
 30
0.0
 11
2.835838268326859
 21
7.729866984808758
 31
0.0
  0
LINE
  5
6F6
330
17
100
AcDbEntity
  8
DIM
 62
     1
100
AcDbLine
 10
2.340838268326859
 20
7.549866984808758
 30
0.0
 11
2.160838268326858
 21
7.549866984808758
 31
0.0
  0
LINE
  5
6F7
330
17
100
AcDbEntity
  8
DIM
 62
     1
100
AcDbLine
 10
3.015838268326858
 20
7.549866984808758
 30
0.0
 11
3.195838268326859
 21
7.549866984808758
 31
0.0
  0
SOLID
  5
6F8
330
17
100
AcDbEntity
  8
DIM
 62
     1
100
AcDbTrace
 10
2.340838268326859
 20
7.579866984808758
 30
0.0
 11
2.340838268326859
 21
7.519866984808759
 31
0.0
 12
2.520838268326858
 22
7.549866984808758
 32
0.0
 13
2.520838268326858
 23
7.549866984808758
 33
0.0
  0
SOLID
  5
6F9
330
17
100
AcDbEntity
  8
DIM
 62
     1
100
AcDbTrace
 10
3.015838268326858
 20
7.579866984808758
 30
0.0
 11
3.015838268326858
 21
7.519866984808759
 31
0.0
 12
2.835838268326859
 22
7.549866984808758
 32
0.0
 13
2.835838268326859
 23
7.549866984808758
 33
0.0
  0
MTEXT
  5
6FA
330
17
100
AcDbEntity
  8
DIM
 62
     7
100
AcDbMText
 10
3.358596982716347
 20
7.549866984808758
 30
0.0
 40
0.125
 41
0.0
 71
     5
 72
     1
  1
\A1;8
 73
     1
 44
1.0
  0
MTEXT
  5
6FB
330
17
100
AcDbEntity
  8
DIM
 62
     7
100
AcDbMText
 10
3.358596982716347
 20
7.343052384275125
 30
0.0
 40
0.125
 41
0.0
 71
     5
 72
     1
  1
(.315)
 73
     1
 44
1.0
  0
LINE
  5
6FC
330
17
100
AcDbEntity
  8
DIM
 62
     1
100
AcDbLine
 10
2.527957930750198
 20
4.59668272321368
 30
0.0
 11
2.181903858749819
 21
4.59668272321368
 31
0.0
  0
LINE
  5
6FD
330
17
100
AcDbEntity
  8
DIM
 62
     1
100
AcDbLine
 10
2.63533826832686
 20
4.39168272321368
 30
0.0
 11
2.181903858749819
 21
4.39168272321368
 31
0.0
  0
LINE
  5
6FE
330
17
100
AcDbEntity
  8
DIM
 62
     1
100
AcDbLine
 10
2.361903858749819
 20
4.77668272321368
 30
0.0
 11
2.361903858749819
 21
4.95668272321368
 31
0.0
  0
LINE
  5
6FF
330
17
100
AcDbEntity
  8
DIM
 62
     1
100
AcDbLine
 10
2.361903858749819
 20
4.21168272321368
 30
0.0
 11
2.361903858749819
 21
4.03168272321368
 31
0.0
  0
LINE
  5
700
330
17
100
AcDbEntity
  8
DIM
 62
     1
100
AcDbLine
 10
2.361903858749819
 20
4.03168272321368
 30
0.0
 11
2.181903858749819
 21
4.03168272321368
 31
0.0
  0
SOLID
  5
701
330
17
100
AcDbEntity
  8
DIM
 62
     1
100
AcDbTrace
 10
2.331903858749819
 20
4.77668272321368
 30
0.0
 11
2.391903858749819
 21
4.77668272321368
 31
0.0
 12
2.361903858749819
 22
4.59668272321368
 32
0.0
 13
2.361903858749819
 23
4.59668272321368
 33
0.0
  0
SOLID
  5
702
330
17
100
AcDbEntity
  8
DIM
 62
     1
100
AcDbTrace
 10
2.331903858749819
 20
4.21168272321368
 30
0.0
 11
2.391903858749819
 21
4.21168272321368
 31
0.0
 12
2.361903858749819
 22
4.39168272321368
 32
0.0
 13
2.361903858749819
 23
4.39168272321368
 33
0.0
  0
MTEXT
  5
703
330
17
100
AcDbEntity
  8
DIM
 62
     7
100
AcDbMText
 10
1.960951477797438
 20
4.03168272321368
 30
0.0
 40
0.125
 41
0.0
 71
     5
 72
     1
  1
\A1;5.2
 73
     1
 44
1.0
  0
MTEXT
  5
704
330
17
100
AcDbEntity
  8
DIM
 62
     7
100
AcDbMText
 10
1.960951477797438
 20
3.82486809832596
 30
0.0
 40
0.125
 41
0.0
 71
     5
 72
     1
  1
(.205)
 73
     1
 44
1.0
  0
LINE
  5
BC7
330
17
100
AcDbEntity
  8
FORM
100
AcDbLine
 10
2.695377489052576
 20
1.989130419728978
 30
0.0
 11
0.25
 21
1.989130419728978
 31
0.0
  0
TEXT
  5
BC8
330
17
100
AcDbEntity
  8
FORM
100
AcDbText
 10
0.9766218010942354
 20
1.831598449722397
 30
0.0
 40
0.09
  1
E.O. N.O.
 72
     4
 11
1.289478943951378
 21
1.876598449722397
 31
0.0
100
AcDbText
  0
TEXT
  5
BC9
330
17
100
AcDbEntity
  8
FORM
100
AcDbText
 10
0.2842857125303047
 20
1.831598449722397
 30
0.0
 40
0.09
  1
REV.
 72
     4
 11
0.4299999982445905
 21
1.876598449722397
 31
0.0
100
AcDbText
  0
TEXT
  5
BCA
330
17
100
AcDbEntity
  8
FORM
100
AcDbText
 10
2.727228862851443
 20
1.755392835964501
 30
0.0
 40
0.05
  1
DIMENSIONS ARE IN INCHES
 72
     1
 11
3.262943148565729
 21
1.755392835964501
 31
0.0
100
AcDbText
  0
TEXT
  5
BCB
330
17
100
AcDbEntity
  8
FORM
100
AcDbText
 10
2.727278038080573
 20
1.588726169297835
 30
0.0
 40
0.05
  1
FRACTION      DECIMALS      ANGLES
 72
     1
 11
3.517754228556763
 21
1.588726169297835
 31
0.0
100
AcDbText
  0
TEXT
  5
BCC
330
17
100
AcDbEntity
  8
FORM
100
AcDbText
 10
2.737399617384427
 20
1.672059502631168
 30
0.0
 40
0.05
  1
TOLERANCES ON
 72
     1
 11
3.043351998336809
 21
1.672059502631168
 31
0.0
100
AcDbText
  0
TEXT
  5
BCD
330
17
100
AcDbEntity
  8
FORM
100
AcDbText
 10
2.723850086181901
 20
0.5138388340507319
 30
0.0
 40
0.07
  1
SCALE
100
AcDbText
  0
TEXT
  5
BCE
330
17
100
AcDbEntity
  8
FORM
100
AcDbText
 10
4.458468624149955
 20
1.872959498187011
 30
0.0
 40
0.07
  1
DWN.
100
AcDbText
  0
TEXT
  5
BCF
330
17
100
AcDbEntity
  8
FORM
100
AcDbText
 10
4.458468624149955
 20
1.398258681090509
 30
0.0
 40
0.07
  1
DATE
100
AcDbText
  0
LINE
  5
BD0
330
17
100
AcDbEntity
  8
FORM
100
AcDbLine
 10
2.695377489052576
 20
1.989130419728978
 30
0.0
 11
4.415211632832586
 21
1.989130419728978
 31
0.0
  0
TEXT
  5
BD1
330
17
100
AcDbEntity
  8
FORM
100
AcDbText
 10
2.97231839781857
 20
1.892684021717673
 30
0.0
 40
0.05
  1
UNLESS OTHERWISE SPECIFIED
 72
     4
 11
3.554461254961427
 21
1.917684021717673
 31
0.0
100
AcDbText
  0
TEXT
  5
BD5
330
17
100
AcDbEntity
  8
FORM
100
AcDbText
 10
7.657869070352465
 20
0.4599197610249633
 30
0.0
 40
0.08
  1
NO.
100
AcDbText
  0
TEXT
  5
BD6
330
17
100
AcDbEntity
  8
FORM
100
AcDbText
 10
7.657869070352465
 20
0.5932530943582961
 30
0.0
 40
0.08
  1
DWG.
100
AcDbText
  0
TEXT
  5
BD8
330
17
100
AcDbEntity
  8
FORM
100
AcDbText
 10
2.030714285468466
 20
1.831598449722397
 30
0.0
 40
0.09
  1
DRAFTER
 72
     4
 11
2.31999999975418
 21
1.876598449722397
 31
0.0
100
AcDbText
  0
TEXT
  5
BD9
330
17
100
AcDbEntity
  8
FORM
100
AcDbText
 10
2.723850086181901
 20
0.8923554340507319
 30
0.0
 40
0.07
  1
FINISH
100
AcDbText
  0
TEXT
  5
BDA
330
17
100
AcDbEntity
  8
FORM
100
AcDbText
 10
2.723850086181901
 20
1.270872034050731
 30
0.0
 40
0.07
  1
MATERIAL
100
AcDbText
  0
TEXT
  5
BDB
330
17
100
AcDbEntity
  8
FORM
100
AcDbText
 10
6.232459418035633
 20
0.2814285576370099
 30
0.0
 40
0.08
  1
CHG LTR
 72
     4
 11
6.497221322797537
 21
0.3214285576370099
 31
0.0
100
AcDbText
  0
TEXT
  5
BDD
330
17
100
AcDbEntity
  8
FORM
100
AcDbText
 10
4.46209378020576
 20
0.8379779333667888
 30
0.0
 40
0.06
  1
THIS DRAWING IS PROPERTY OF THE
 72
     1
 11
5.303522351634332
 21
0.8379779333667888
 31
0.0
100
AcDbText
  0
TEXT
  5
BDF
330
17
100
AcDbEntity
  8
FORM
100
AcDbText
 10
4.686379494491474
 20
0.6436922190810746
 30
0.0
 40
0.06
  1
NOT BE COPIED, USED OR
 72
     1
 11
5.303522351634332
 21
0.6436922190810746
 31
0.0
100
AcDbText
  0
TEXT
  5
BE0
330
17
100
AcDbEntity
  8
FORM
100
AcDbText
 10
4.590665208777189
 20
0.5465493619382174
 30
0.0
 40
0.06
  1
DISCLOSED FOR ANY PURPOSE
 72
     1
 11
5.303522351634332
 21
0.5465493619382174
 31
0.0
100
AcDbText
  0
TEXT
  5
BE1
330
17
100
AcDbEntity
  8
FORM
100
AcDbText
 10
4.477808065920046
 20
0.4494065047953601
 30
0.0
 40
0.06
  1
EXCEPT AS AUTHORIZED IN WRITING
 72
     1
 11
5.303522351634332
 21
0.4494065047953601
 31
0.0
100
AcDbText
  0
TEXT
  5
BE3
330
17
100
AcDbEntity
  8
FORM
100
AcDbText
 10
7.661052896581039
 20
0.2814285576370099
 30
0.0
 40
0.08
  1
SIZE  A  SHEET     OF
 11
7.661052896581039
 21
0.3214285576370099
 31
0.0
100
AcDbText
 73
     2
  0
LINE
  5
BE4
330
17
100
AcDbEntity
  8
FORM
100
AcDbLine
 10
4.426533112099226
 20
1.498081847880708
 30
0.0
 11
6.182221322797538
 21
1.498081847880708
 31
0.0
  0
LINE
  5
BE5
330
17
100
AcDbEntity
  8
FORM
100
AcDbLine
 10
0.25
 20
1.007033276032438
 30
0.0
 11
6.182221322797538
 21
1.007033276032439
 31
0.0
  0
LINE
  5
BE6
330
17
100
AcDbEntity
  8
FORM
100
AcDbLine
 10
0.25
 20
1.989130419728978
 30
0.0
 11
10.71
 21
1.989130419728977
 31
0.0
  0
LINE
  5
BE7
330
17
100
AcDbEntity
  8
FORM
100
AcDbLine
 10
10.71
 20
8.209999999999999
 30
0.0
 11
0.25
 21
8.210016413185645
 31
0.0
  0
LINE
  5
BE8
330
17
100
AcDbEntity
  8
FORM
100
AcDbLine
 10
0.25
 20
8.210016413185645
 30
0.0
 11
0.25
 21
0.25
 31
0.0
  0
LINE
  5
BE9
330
17
100
AcDbEntity
  8
FORM
100
AcDbLine
 10
0.25
 20
0.25
 30
0.0
 11
10.71
 21
0.25
 31
0.0
  0
LINE
  5
BEA
330
17
100
AcDbEntity
  8
FORM
100
AcDbLine
 10
10.71
 20
0.25
 30
0.0
 11
10.71
 21
8.209999999999999
 31
0.0
  0
LINE
  5
BEB
330
17
100
AcDbEntity
  8
FORM
100
AcDbLine
 10
0.25
 20
1.385549876032439
 30
0.0
 11
4.428922508542364
 21
1.385549876032438
 31
0.0
  0
LINE
  5
BEC
330
17
100
AcDbEntity
  8
FORM
100
AcDbLine
 10
0.25
 20
1.764066479715818
 30
0.0
 11
2.68000000138049
 21
1.764066479715818
 31
0.0
  0
LINE
  5
BED
330
17
100
AcDbEntity
  8
FORM
100
AcDbLine
 10
0.25
 20
0.4392583760324392
 30
0.0
 11
2.68000000138049
 21
0.4392583760324389
 31
0.0
  0
LINE
  5
BEE
330
17
100
AcDbEntity
  8
FORM
100
AcDbLine
 10
0.25
 20
0.6285166760324392
 30
0.0
 11
4.428922508542364
 21
0.6285166760324388
 31
0.0
  0
LINE
  5
BEF
330
17
100
AcDbEntity
  8
FORM
100
AcDbLine
 10
0.25
 20
0.817774976032439
 30
0.0
 11
2.68000000138049
 21
0.8177749760324388
 31
0.0
  0
LINE
  5
BF0
330
17
100
AcDbEntity
  8
FORM
100
AcDbLine
 10
0.25
 20
1.196291576032439
 30
0.0
 11
2.68000000138049
 21
1.196291576032438
 31
0.0
  0
LINE
  5
BF1
330
17
100
AcDbEntity
  8
FORM
100
AcDbLine
 10
0.25
 20
1.574808176032439
 30
0.0
 11
2.68000000138049
 21
1.574808176032438
 31
0.0
  0
LINE
  5
BF2
330
17
100
AcDbEntity
  8
FORM
100
AcDbLine
 10
1.95999999812787
 20
1.989130419728978
 30
0.0
 11
1.95999999812787
 21
0.2483302711109045
 31
0.0
  0
LINE
  5
BF3
330
17
100
AcDbEntity
  8
FORM
100
AcDbLine
 10
0.609999996489181
 20
1.989130419728978
 30
0.0
 11
0.609999996489181
 21
0.25
 31
0.0
  0
LINE
  5
BF4
330
17
100
AcDbEntity
  8
FORM
100
AcDbLine
 10
2.68000000138049
 20
1.989130419728978
 30
0.0
 11
2.68000000138049
 21
0.2499999999999999
 31
0.0
  0
LINE
  5
BF5
330
17
100
AcDbEntity
  8
FORM
100
AcDbLine
 10
4.428922508542364
 20
1.989130419728978
 30
0.0
 11
4.428922508542364
 21
0.25
 31
0.0
  0
LINE
  5
BF6
330
17
100
AcDbEntity
  8
FORM
100
AcDbLine
 10
2.68000000138049
 20
1.846237623706368
 30
0.0
 11
4.428922508542364
 21
1.846237623706368
 31
0.0
  0
LINE
  5
BF7
330
17
100
AcDbEntity
  8
FORM
100
AcDbLine
 10
4.428922508542364
 20
1.846237623706368
 30
0.0
 11
4.428922508542364
 21
1.846237623706368
 31
0.0
  0
LINE
  5
BF8
330
17
100
AcDbEntity
  8
FORM
100
AcDbLine
 10
6.182221322797538
 20
0.3928571152740196
 30
0.0
 11
10.24124999999999
 21
0.3928571152740196
 31
0.0
  0
LINE
  5
BF9
330
17
100
AcDbEntity
  8
FORM
100
AcDbLine
 10
10.71
 20
0.739130419728978
 30
0.0
 11
6.182221322797538
 21
0.7391304197289781
 31
0.0
  0
LINE
  5
BFA
330
17
100
AcDbEntity
  8
FORM
100
AcDbLine
 10
6.182221322797538
 20
1.989130419728978
 30
0.0
 11
6.182221322797538
 21
0.25
 31
0.0
  0
LINE
  5
BFB
330
17
100
AcDbEntity
  8
FORM
100
AcDbLine
 10
6.812221322797538
 20
0.7391304197289781
 30
0.0
 11
6.812221322797537
 21
0.25
 31
0.0
  0
LINE
  5
BFC
330
17
100
AcDbEntity
  8
FORM
100
AcDbLine
 10
7.532221322797537
 20
0.7391304197289781
 30
0.0
 11
7.532221322797537
 21
0.25
 31
0.0
  0
LINE
  5
BFD
330
17
100
AcDbEntity
  8
FORM
100
AcDbLine
 10
9.21571735032967
 20
1.989130419728978
 30
0.0
 11
9.215717350329672
 21
0.7391304197289781
 31
0.0
  0
TEXT
  5
C06
330
17
100
AcDbEntity
  8
0
100
AcDbText
 10
10.34610119047619
 20
0.6164179222667118
 30
0.0
 40
0.08
  1
REV.
 72
     4
 11
10.475625
 21
0.6564179222667118
 31
0.0
100
AcDbText
  0
LINE
  5
C07
330
17
100
AcDbEntity
  8
0
100
AcDbLine
 10
10.24124999999999
 20
0.739130419728978
 30
0.0
 11
10.24124999999999
 21
0.25
 31
0.0
  0
LINE
  5
C08
330
17
100
AcDbEntity
  8
0
100
AcDbLine
 10
10.24124999999999
 20
0.5737054248044457
 30
0.0
 11
10.71
 21
0.5737054248044457
 31
0.0
  0
TEXT
  5
C09
330
17
100
AcDbEntity
  8
0
100
AcDbText
 10
10.41610119047619
 20
0.3683483051416797
 30
0.0
 40
0.125
  1
3
 72
     4
 11
10.475625
 21
0.4308483051416797
 31
0.0
100
AcDbText
  0
TEXT
  5
C0A
330
17
100
AcDbEntity
  8
0
100
AcDbText
 10
9.333896903985653
 20
0.2780634965791637
 30
0.0
 40
0.08
  1
1
 72
     4
 11
9.366277856366606
 21
0.3180634965791636
 31
0.0
100
AcDbText
  0
TEXT
  5
C0B
330
17
100
AcDbEntity
  8
0
100
AcDbText
 10
8.882304285335443
 20
0.2878708720998364
 30
0.0
 40
0.08
  1
1
 72
     4
 11
8.914685237716396
 21
0.3278708720998363
 31
0.0
100
AcDbText
  0
TEXT
  5
C0F
330
17
100
AcDbEntity
  8
FORM
100
AcDbText
 10
7.020370346903886
 20
1.445152987055838
 30
0.0
 40
0.2
  1
REFLECTOR
100
AcDbText
  0
TEXT
  5
C10
330
17
100
AcDbEntity
  8
FORM
100
AcDbText
 10
8.227784726103505
 20
0.5041937141522688
 30
0.0
 40
0.15
  1
92-109
100
AcDbText
  0
TEXT
  5
C11
330
17
100
AcDbEntity
  8
FORM
100
AcDbText
 10
6.420036958669951
 20
0.5041937141522724
 30
0.0
 40
0.15
  1
C
100
AcDbText
  0
TEXT
  5
C12
330
17
100
AcDbEntity
  8
FORM
100
AcDbText
 10
4.854687249223998
 20
1.221741701840059
 30
0.0
 40
0.09
  1
1/5/99
100
AcDbText
  0
LINE
  5
C16
330
17
100
AcDbEntity
  8
OBJECT
100
AcDbLine
 10
3.495009112239273
 20
1.170760346989332
 30
0.0
 11
4.07495641081266
 21
1.170760346989332
 31
0.0
  0
LINE
  5
C17
330
17
100
AcDbEntity
  8
OBJECT
100
AcDbLine
 10
3.605686068576602
 20
1.095580614314133
 30
0.0
 11
3.694227675439805
 21
1.237095429071487
 31
0.0
  0
LINE
  5
C18
330
17
100
AcDbEntity
  8
OBJECT
100
AcDbLine
 10
3.773915017133347
 20
1.095580614314133
 30
0.0
 11
3.86245662399655
 21
1.237095429071487
 31
0.0
  0
LINE
  5
C19
330
17
100
AcDbEntity
  8
OBJECT
100
AcDbLine
 10
3.495009112239273
 20
0.825818028233769
 30
0.0
 11
4.07495641081266
 21
0.825818028233769
 31
0.0
  0
LINE
  5
C1A
330
17
100
AcDbEntity
  8
OBJECT
100
AcDbLine
 10
3.773915017133347
 20
0.75063829555857
 30
0.0
 11
3.86245662399655
 21
0.8921531103159239
 31
0.0
  0
LINE
  5
C1B
330
17
100
AcDbEntity
  8
OBJECT
100
AcDbLine
 10
3.605686068576602
 20
0.75063829555857
 30
0.0
 11
3.694227675439805
 21
0.8921531103159239
 31
0.0
  0
TEXT
  5
C29
330
17
100
AcDbEntity
  8
FORM
100
AcDbText
 10
6.914926814622084
 20
0.9887566328378873
 30
0.0
 40
0.2
  1
RECTANGULAR
100
AcDbText
  0
LINE
  5
C2A
330
17
100
AcDbEntity
  8
OBJECT
100
AcDbLine
 10
3.773915017133347
 20
0.3618649076656766
 30
0.0
 11
3.86245662399655
 21
0.5033797224230306
 31
0.0
  0
LINE
  5
C2B
330
17
100
AcDbEntity
  8
OBJECT
100
AcDbLine
 10
3.605686068576602
 20
0.3618649076656766
 30
0.0
 11
3.694227675439805
 21
0.5033797224230306
 31
0.0
  0
LINE
  5
C2C
330
17
100
AcDbEntity
  8
OBJECT
100
AcDbLine
 10
3.495009112239273
 20
0.4370446403408757
 30
0.0
 11
4.07495641081266
 21
0.4370446403408757
 31
0.0
  0
MTEXT
  5
C51
330
17
100
AcDbEntity
  8
DIM
 62
     7
100
AcDbMText
 10
3.387518287728079
 20
3.54486408911027
 30
0.0
 40
0.125
 41
0.0
 71
     1
 72
     1
  1
NOTES:
 73
     1
 44
1.0
  0
MTEXT
  5
C52
330
17
100
AcDbEntity
  8
DIM
 62
     7
100
AcDbMText
 10
3.798686020378342
 20
3.051283364039961
 30
0.0
 40
0.125
 41
0.0
 71
     1
 72
     1
  1
1. UNLESS OTHERWISE SPECIFIED ALL\PDIMENSIONS ARE mm (INCHES)\PAND ARE FOR REFERENCE ONLY.
 73
     1
 44
1.0
  0
TEXT
  5
C54
330
17
100
AcDbEntity
  8
FORM
100
AcDbText
 10
9.294506914046444
 20
1.041900775029183
 30
0.0
 40
0.07
  1
CHELMSFORD, MA. 01824
100
AcDbText
  0
TEXT
  5
C55
330
17
100
AcDbEntity
  8
FORM
100
AcDbText
 10
9.418841673999887
 20
1.199271220002631
 30
0.0
 40
0.07
  1
2 EXECUTIVE DRIVE
100
AcDbText
  0
TEXT
  5
C56
330
17
100
AcDbEntity
  8
FORM
100
AcDbText
 10
9.266258142847716
 20
1.406147490675127
 30
0.0
 40
0.15
  1
AUTOMATION
100
AcDbText
  0
TEXT
  5
C57
330
17
100
AcDbEntity
  8
FORM
100
AcDbText
 10
9.266258142847716
 20
1.619433408912847
 30
0.0
 40
0.15
  1
ROCKWELL
100
AcDbText
  0
TEXT
  5
C61
330
17
100
AcDbEntity
  8
FORM
100
AcDbText
 10
4.536379494491475
 20
0.7408350762239318
 30
0.0
 40
0.06
  1
ROCKWELL AUTOMATION AND MAY
 72
     1
 11
5.303522351634332
 21
0.7408350762239318
 31
0.0
100
AcDbText
  0
TEXT
  5
C62
330
17
100
AcDbEntity
  8
FORM
100
AcDbText
 10
4.673522351634332
 20
0.3522636476525029
 30
0.0
 40
0.06
  1
BY ROCKWELL AUTOMATION.
 72
     1
 11
5.303522351634332
 21
0.3522636476525029
 31
0.0
100
AcDbText
  0
ENDSEC
  0
SECTION
  2
OBJECTS
  0
DICTIONARY
  5
C
330
0
100
AcDbDictionary
281
     1
  3
ACAD_COLOR
350
C90
  3
ACAD_GROUP
350
D
  3
ACAD_LAYOUT
350
C3D
  3
ACAD_MATERIAL
350
C66
  3
ACAD_MLEADERSTYLE
350
CB5
  3
ACAD_MLINESTYLE
350
1A
  3
ACAD_PLOTSETTINGS
350
C3E
  3
ACAD_PLOTSTYLENAME
350
C3B
  3
ACAD_SCALELIST
350
C93
  3
ACAD_TABLESTYLE
350
C91
  3
ACAD_VISUALSTYLE
350
C7F
  3
ACDB_RECOMPOSE_DATA
350
CD7
  3
ACDBVARIABLEDICTIONARY
350
2C
  0
DICTIONARY
  5
CBA
330
E
100
AcDbDictionary
280
     1
281
     1
  3
ADSK_XREC_LAYER_RECONCILED
360
CBB
  0
DICTIONARY
  5
CBC
330
21
100
AcDbDictionary
280
     1
281
     1
  3
ADSK_XREC_LAYER_RECONCILED
360
CBD
  0
DICTIONARY
  5
CBE
330
22
100
AcDbDictionary
280
     1
281
     1
  3
ADSK_XREC_LAYER_RECONCILED
360
CBF
  0
DICTIONARY
  5
CC0
330
23
100
AcDbDictionary
280
     1
281
     1
  3
ADSK_XREC_LAYER_RECONCILED
360
CC1
  0
DICTIONARY
  5
CC2
330
24
100
AcDbDictionary
280
     1
281
     1
  3
ADSK_XREC_LAYER_RECONCILED
360
CC3
  0
DICTIONARY
  5
CC4
330
25
100
AcDbDictionary
280
     1
281
     1
  3
ADSK_XREC_LAYER_RECONCILED
360
CC5
  0
DICTIONARY
  5
CC6
330
26
100
AcDbDictionary
280
     1
281
     1
  3
ADSK_XREC_LAYER_RECONCILED
360
CC7
  0
DICTIONARY
  5
CC8
330
27
100
AcDbDictionary
280
     1
281
     1
  3
ADSK_XREC_LAYER_RECONCILED
360
CC9
  0
DICTIONARY
  5
C90
102
{ACAD_REACTORS
330
C
102
}
330
C
100
AcDbDictionary
281
     1
  0
DICTIONARY
  5
D
102
{ACAD_REACTORS
330
C
102
}
330
C
100
AcDbDictionary
281
     1
  0
DICTIONARY
  5
C3D
102
{ACAD_REACTORS
330
C
102
}
330
C
100
AcDbDictionary
281
     1
  3
Layout1
350
C40
  3
Model
350
C3F
  0
DICTIONARY
  5
C66
102
{ACAD_REACTORS
330
C
102
}
330
C
100
AcDbDictionary
281
     1
  3
ByBlock
350
C6F
  3
ByLayer
350
C67
  3
Global
350
C77
  0
DICTIONARY
  5
CB5
102
{ACAD_REACTORS
330
C
102
}
330
C
100
AcDbDictionary
281
     1
  3
Standard
350
CB6
  0
DICTIONARY
  5
1A
102
{ACAD_REACTORS
330
C
102
}
330
C
100
AcDbDictionary
281
     1
  3
STANDARD
350
1B
  0
DICTIONARY
  5
C3E
102
{ACAD_REACTORS
330
C
102
}
330
C
100
AcDbDictionary
281
     1
  0
ACDBDICTIONARYWDFLT
  5
C3B
102
{ACAD_REACTORS
330
C
102
}
330
C
100
AcDbDictionary
281
     1
  3
Normal
350
C3C
100
AcDbDictionaryWithDefault
340
C3C
  0
DICTIONARY
  5
C93
102
{ACAD_REACTORS
330
C
102
}
330
C
100
AcDbDictionary
281
     1
  3
A0
350
C94
  3
A1
350
C95
  3
A2
350
C96
  3
A3
350
C97
  3
A4
350
C98
  3
A5
350
C99
  3
A6
350
C9A
  3
A7
350
C9B
  3
A8
350
C9C
  3
A9
350
C9D
  3
B0
350
C9E
  3
B1
350
C9F
  3
B2
350
CA0
  3
B3
350
CA1
  3
B4
350
CA2
  3
B5
350
CA3
  3
B6
350
CA4
  3
B7
350
CA5
  3
B8
350
CA6
  3
B9
350
CA7
  3
C0
350
CA8
  3
C1
350
CA9
  3
C2
350
CAA
  3
C3
350
CAB
  3
C4
350
CAC
  3
C5
350
CAD
  3
C6
350
CAE
  3
C7
350
CAF
  3
C8
350
CB0
  3
C9
350
CB1
  3
D0
350
CB2
  3
D1
350
CB3
  3
D2
350
CB4
  0
DICTIONARY
  5
C91
102
{ACAD_REACTORS
330
C
102
}
330
C
100
AcDbDictionary
281
     1
  3
Standard
350
C92
  0
DICTIONARY
  5
C7F
102
{ACAD_REACTORS
330
C
102
}
330
C
100
AcDbDictionary
281
     1
  3
2dWireframe
350
C85
  3
3D Hidden
350
C87
  3
3dWireframe
350
C86
  3
Basic
350
C84
  3
Brighten
350
C8B
  3
ColorChange
350
C8F
  3
Conceptual
350
C88
  3
Dim
350
C8A
  3
Facepattern
350
C8E
  3
Flat
350
C80
  3
FlatWithEdges
350
C81
  3
Gouraud
350
C82
  3
GouraudWithEdges
350
C83
  3
Linepattern
350
C8D
  3
Realistic
350
C89
  3
Thicken
350
C8C
  0
XRECORD
  5
CD7
102
{ACAD_REACTORS
330
C
102
}
330
C
100
AcDbXrecord
280
     1
 90
        1
330
C92
  0
DICTIONARY
  5
2C
102
{ACAD_REACTORS
330
C
102
}
330
C
100
AcDbDictionary
281
     1
  3
CANNOSCALE
350
CD4
  3
CMLEADERSTYLE
350
CD3
  3
CTABLESTYLE
350
CD2
  3
DIMADEC
350
2D
  3
DIMASSOC
350
C64
  3
SORTENTS
350
18C
  0
XRECORD
  5
CBB
102
{ACAD_REACTORS
330
CBA
102
}
330
CBA
100
AcDbXrecord
280
     1
290
     1
  0
XRECORD
  5
CBD
102
{ACAD_REACTORS
330
CBC
102
}
330
CBC
100
AcDbXrecord
280
     1
290
     1
  0
XRECORD
  5
CBF
102
{ACAD_REACTORS
330
CBE
102
}
330
CBE
100
AcDbXrecord
280
     1
290
     1
  0
XRECORD
  5
CC1
102
{ACAD_REACTORS
330
CC0
102
}
330
CC0
100
AcDbXrecord
280
     1
290
     1
  0
XRECORD
  5
CC3
102
{ACAD_REACTORS
330
CC2
102
}
330
CC2
100
AcDbXrecord
280
     1
290
     1
  0
XRECORD
  5
CC5
102
{ACAD_REACTORS
330
CC4
102
}
330
CC4
100
AcDbXrecord
280
     1
290
     1
  0
XRECORD
  5
CC7
102
{ACAD_REACTORS
330
CC6
102
}
330
CC6
100
AcDbXrecord
280
     1
290
     1
  0
XRECORD
  5
CC9
102
{ACAD_REACTORS
330
CC8
102
}
330
CC8
100
AcDbXrecord
280
     1
290
     1
  0
LAYOUT
  5
C40
102
{ACAD_REACTORS
330
C3D
102
}
330
C3D
100
AcDbPlotSettings
  1

  2
Fax
  4

  6

 40
0.0
 41
0.0
 42
0.0
 43
0.0
 44
0.0
 45
0.0
 46
0.0
 47
0.0
 48
0.0
 49
0.0
140
0.0
141
0.0
142
1.0
143
1.0
 70
   688
 72
     0
 73
     0
 74
     5
  7
standard.ctb
 75
    16
147
1.0
 76
     0
 77
     2
 78
   300
148
0.0
149
0.0
100
AcDbLayout
  1
Layout1
 70
     0
 71
     1
 10
0.0
 20
0.0
 11
12.0
 21
9.0
 12
0.0
 22
0.0
 32
0.0
 14
1.000000000000000E+20
 24
1.000000000000000E+20
 34
1.000000000000000E+20
 15
-1.000000000000000E+20
 25
-1.000000000000000E+20
 35
-1.000000000000000E+20
146
0.0
 13
0.0
 23
0.0
 33
0.0
 16
1.0
 26
0.0
 36
0.0
 17
0.0
 27
1.0
 37
0.0
 76
     0
330
14
  0
LAYOUT
  5
C3F
102
{ACAD_REACTORS
330
C3D
102
}
330
C3D
100
AcDbPlotSettings
  1

  2
\\PRINT\LJ4P
  4
Letter
  6

 40
7.143749713897705
 41
6.127734661102294
 42
7.14373779296875
 43
7.14373779296875
 44
215.8999938964844
 45
279.3999938964844
 46
0.0
 47
0.0
 48
0.0
 49
0.0
140
0.0
141
0.0
142
1.0
143
1.003119969975157
 70
 11952
 72
     0
 73
     1
 74
     1
  7
standard.ctb
 75
     0
147
0.9968897339614974
 76
     0
 77
     2
 78
   300
148
-6.343799486039062
149
-6.302135214607808
100
AcDbLayout
  1
Model
 70
     1
 71
     0
 10
0.0
 20
0.0
 11
12.0
 21
9.0
 12
0.0
 22
0.0
 32
0.0
 14
0.0
 24
0.0
 34
0.0
 15
0.0
 25
0.0
 35
0.0
146
0.0
 13
0.0
 23
0.0
 33
0.0
 16
1.0
 26
0.0
 36
0.0
 17
0.0
 27
1.0
 37
0.0
 76
     0
330
17
331
C63
  0
MATERIAL
  5
C6F
102
{ACAD_XDICTIONARY
360
C70
102
}
102
{ACAD_REACTORS
330
C66
102
}
330
C66
100
AcDbMaterial
  1
ByBlock
 72
     0
 43
0.0208333333333333
 43
0.0
 43
0.0
 43
0.0
 43
0.0
 43
0.0208333333333333
 43
0.0
 43
0.0
 43
0.0
 43
0.0
 43
1.0
 43
0.0
 43
0.0
 43
0.0
 43
0.0
 43
1.0
 77
     0
 47
0.0208333333333333
 47
0.0
 47
0.0
 47
0.0
 47
0.0
 47
0.0208333333333333
 47
0.0
 47
0.0
 47
0.0
 47
0.0
 47
1.0
 47
0.0
 47
0.0
 47
0.0
 47
0.0
 47
1.0
171
     0
 49
0.0208333333333333
 49
0.0
 49
0.0
 49
0.0
 49
0.0
 49
0.0208333333333333
 49
0.0
 49
0.0
 49
0.0
 49
0.0
 49
1.0
 49
0.0
 49
0.0
 49
0.0
 49
0.0
 49
1.0
175
     0
142
0.0208333333333333
142
0.0
142
0.0
142
0.0
142
0.0
142
0.0208333333333333
142
0.0
142
0.0
142
0.0
142
0.0
142
1.0
142
0.0
142
0.0
142
0.0
142
0.0
142
1.0
179
     0
144
0.0208333333333333
144
0.0
144
0.0
144
0.0
144
0.0
144
0.0208333333333333
144
0.0
144
0.0
144
0.0
144
0.0
144
1.0
144
0.0
144
0.0
144
0.0
144
0.0
144
1.0
147
0.0208333333333333
147
0.0
147
0.0
147
0.0
147
0.0
147
0.0208333333333333
147
0.0
147
0.0
147
0.0
147
0.0
147
1.0
147
0.0
147
0.0
147
0.0
147
0.0
147
1.0
  0
MATERIAL
  5
C67
102
{ACAD_XDICTIONARY
360
C68
102
}
102
{ACAD_REACTORS
330
C66
102
}
330
C66
100
AcDbMaterial
  1
ByLayer
 72
     0
 43
0.0208333333333333
 43
0.0
 43
0.0
 43
0.0
 43
0.0
 43
0.0208333333333333
 43
0.0
 43
0.0
 43
0.0
 43
0.0
 43
1.0
 43
0.0
 43
0.0
 43
0.0
 43
0.0
 43
1.0
 77
     0
 47
0.0208333333333333
 47
0.0
 47
0.0
 47
0.0
 47
0.0
 47
0.0208333333333333
 47
0.0
 47
0.0
 47
0.0
 47
0.0
 47
1.0
 47
0.0
 47
0.0
 47
0.0
 47
0.0
 47
1.0
171
     0
 49
0.0208333333333333
 49
0.0
 49
0.0
 49
0.0
 49
0.0
 49
0.0208333333333333
 49
0.0
 49
0.0
 49
0.0
 49
0.0
 49
1.0
 49
0.0
 49
0.0
 49
0.0
 49
0.0
 49
1.0
175
     0
142
0.0208333333333333
142
0.0
142
0.0
142
0.0
142
0.0
142
0.0208333333333333
142
0.0
142
0.0
142
0.0
142
0.0
142
1.0
142
0.0
142
0.0
142
0.0
142
0.0
142
1.0
179
     0
144
0.0208333333333333
144
0.0
144
0.0
144
0.0
144
0.0
144
0.0208333333333333
144
0.0
144
0.0
144
0.0
144
0.0
144
1.0
144
0.0
144
0.0
144
0.0
144
0.0
144
1.0
147
0.0208333333333333
147
0.0
147
0.0
147
0.0
147
0.0
147
0.0208333333333333
147
0.0
147
0.0
147
0.0
147
0.0
147
1.0
147
0.0
147
0.0
147
0.0
147
0.0
147
1.0
  0
MATERIAL
  5
C77
102
{ACAD_XDICTIONARY
360
C78
102
}
102
{ACAD_REACTORS
330
C66
102
}
330
C66
100
AcDbMaterial
  1
Global
 72
     0
 43
0.0208333333333333
 43
0.0
 43
0.0
 43
0.0
 43
0.0
 43
0.0208333333333333
 43
0.0
 43
0.0
 43
0.0
 43
0.0
 43
1.0
 43
0.0
 43
0.0
 43
0.0
 43
0.0
 43
1.0
 77
     0
 47
0.0208333333333333
 47
0.0
 47
0.0
 47
0.0
 47
0.0
 47
0.0208333333333333
 47
0.0
 47
0.0
 47
0.0
 47
0.0
 47
1.0
 47
0.0
 47
0.0
 47
0.0
 47
0.0
 47
1.0
171
     0
 49
0.0208333333333333
 49
0.0
 49
0.0
 49
0.0
 49
0.0
 49
0.0208333333333333
 49
0.0
 49
0.0
 49
0.0
 49
0.0
 49
1.0
 49
0.0
 49
0.0
 49
0.0
 49
0.0
 49
1.0
175
     0
142
0.0208333333333333
142
0.0
142
0.0
142
0.0
142
0.0
142
0.0208333333333333
142
0.0
142
0.0
142
0.0
142
0.0
142
1.0
142
0.0
142
0.0
142
0.0
142
0.0
142
1.0
179
     0
144
0.0208333333333333
144
0.0
144
0.0
144
0.0
144
0.0
144
0.0208333333333333
144
0.0
144
0.0
144
0.0
144
0.0
144
1.0
144
0.0
144
0.0
144
0.0
144
0.0
144
1.0
147
0.0208333333333333
147
0.0
147
0.0
147
0.0
147
0.0
147
0.0208333333333333
147
0.0
147
0.0
147
0.0
147
0.0
147
1.0
147
0.0
147
0.0
147
0.0
147
0.0
147
1.0
  0
MLEADERSTYLE
  5
CB6
102
{ACAD_REACTORS
330
CB5
102
}
330
CB5
100
AcDbMLeaderStyle
170
     2
171
     1
172
     0
 90
        2
 40
0.0
 41
0.0
173
     1
 91
-1056964608
340
11
 92
       -2
290
     1
 42
0.09
291
     1
 43
0.36
  3
Standard
 44
0.18
300

342
F
174
     1
178
     6
175
     1
176
     0
 93
-1056964608
 45
0.18
292
     0
297
     0
 46
0.18
 94
-1056964608
 47
1.0
 49
1.0
140
1.0
293
     1
141
0.0
294
     1
177
     0
142
1.0
295
     0
296
     0
143
0.125
1001
ACAD_MLEADERVER
1070
     2
  0
MLINESTYLE
  5
1B
102
{ACAD_REACTORS
330
1A
102
}
330
1A
100
AcDbMlineStyle
  2
STANDARD
 70
     0
  3

 62
   256
 51
90.0
 52
90.0
 71
     2
 49
0.5
 62
   256
  6
BYLAYER
 49
-0.5
 62
   256
  6
BYLAYER
  0
ACDBPLACEHOLDER
  5
C3C
102
{ACAD_REACTORS
330
C3B
102
}
330
C3B
  0
SCALE
  5
C94
102
{ACAD_REACTORS
330
C93
102
}
330
C93
100
AcDbScale
 70
     0
300
1:1
140
1.0
141
1.0
290
     1
  0
SCALE
  5
C95
102
{ACAD_REACTORS
330
C93
102
}
330
C93
100
AcDbScale
 70
     0
300
1:2
140
1.0
141
2.0
290
     0
  0
SCALE
  5
C96
102
{ACAD_REACTORS
330
C93
102
}
330
C93
100
AcDbScale
 70
     0
300
1:4
140
1.0
141
4.0
290
     0
  0
SCALE
  5
C97
102
{ACAD_REACTORS
330
C93
102
}
330
C93
100
AcDbScale
 70
     0
300
1:5
140
1.0
141
5.0
290
     0
  0
SCALE
  5
C98
102
{ACAD_REACTORS
330
C93
102
}
330
C93
100
AcDbScale
 70
     0
300
1:8
140
1.0
141
8.0
290
     0
  0
SCALE
  5
C99
102
{ACAD_REACTORS
330
C93
102
}
330
C93
100
AcDbScale
 70
     0
300
1:10
140
1.0
141
10.0
290
     0
  0
SCALE
  5
C9A
102
{ACAD_REACTORS
330
C93
102
}
330
C93
100
AcDbScale
 70
     0
300
1:16
140
1.0
141
16.0
290
     0
  0
SCALE
  5
C9B
102
{ACAD_REACTORS
330
C93
102
}
330
C93
100
AcDbScale
 70
     0
300
1:20
140
1.0
141
20.0
290
     0
  0
SCALE
  5
C9C
102
{ACAD_REACTORS
330
C93
102
}
330
C93
100
AcDbScale
 70
     0
300
1:30
140
1.0
141
30.0
290
     0
  0
SCALE
  5
C9D
102
{ACAD_REACTORS
330
C93
102
}
330
C93
100
AcDbScale
 70
     0
300
1:40
140
1.0
141
40.0
290
     0
  0
SCALE
  5
C9E
102
{ACAD_REACTORS
330
C93
102
}
330
C93
100
AcDbScale
 70
     0
300
1:50
140
1.0
141
50.0
290
     0
  0
SCALE
  5
C9F
102
{ACAD_REACTORS
330
C93
102
}
330
C93
100
AcDbScale
 70
     0
300
1:100
140
1.0
141
100.0
290
     0
  0
SCALE
  5
CA0
102
{ACAD_REACTORS
330
C93
102
}
330
C93
100
AcDbScale
 70
     0
300
2:1
140
2.0
141
1.0
290
     0
  0
SCALE
  5
CA1
102
{ACAD_REACTORS
330
C93
102
}
330
C93
100
AcDbScale
 70
     0
300
4:1
140
4.0
141
1.0
290
     0
  0
SCALE
  5
CA2
102
{ACAD_REACTORS
330
C93
102
}
330
C93
100
AcDbScale
 70
     0
300
8:1
140
8.0
141
1.0
290
     0
  0
SCALE
  5
CA3
102
{ACAD_REACTORS
330
C93
102
}
330
C93
100
AcDbScale
 70
     0
300
10:1
140
10.0
141
1.0
290
     0
  0
SCALE
  5
CA4
102
{ACAD_REACTORS
330
C93
102
}
330
C93
100
AcDbScale
 70
     0
300
100:1
140
100.0
141
1.0
290
     0
  0
SCALE
  5
CA5
102
{ACAD_REACTORS
330
C93
102
}
330
C93
100
AcDbScale
 70
     0
300
1/128" = 1'-0"
140
0.0078125
141
12.0
290
     0
  0
SCALE
  5
CA6
102
{ACAD_REACTORS
330
C93
102
}
330
C93
100
AcDbScale
 70
     0
300
1/64" = 1'-0"
140
0.015625
141
12.0
290
     0
  0
SCALE
  5
CA7
102
{ACAD_REACTORS
330
C93
102
}
330
C93
100
AcDbScale
 70
     0
300
1/32" = 1'-0"
140
0.03125
141
12.0
290
     0
  0
SCALE
  5
CA8
102
{ACAD_REACTORS
330
C93
102
}
330
C93
100
AcDbScale
 70
     0
300
1/16" = 1'-0"
140
0.0625
141
12.0
290
     0
  0
SCALE
  5
CA9
102
{ACAD_REACTORS
330
C93
102
}
330
C93
100
AcDbScale
 70
     0
300
3/32" = 1'-0"
140
0.09375
141
12.0
290
     0
  0
SCALE
  5
CAA
102
{ACAD_REACTORS
330
C93
102
}
330
C93
100
AcDbScale
 70
     0
300
1/8" = 1'-0"
140
0.125
141
12.0
290
     0
  0
SCALE
  5
CAB
102
{ACAD_REACTORS
330
C93
102
}
330
C93
100
AcDbScale
 70
     0
300
3/16" = 1'-0"
140
0.1875
141
12.0
290
     0
  0
SCALE
  5
CAC
102
{ACAD_REACTORS
330
C93
102
}
330
C93
100
AcDbScale
 70
     0
300
1/4" = 1'-0"
140
0.25
141
12.0
290
     0
  0
SCALE
  5
CAD
102
{ACAD_REACTORS
330
C93
102
}
330
C93
100
AcDbScale
 70
     0
300
3/8" = 1'-0"
140
0.375
141
12.0
290
     0
  0
SCALE
  5
CAE
102
{ACAD_REACTORS
330
C93
102
}
330
C93
100
AcDbScale
 70
     0
300
1/2" = 1'-0"
140
0.5
141
12.0
290
     0
  0
SCALE
  5
CAF
102
{ACAD_REACTORS
330
C93
102
}
330
C93
100
AcDbScale
 70
     0
300
3/4" = 1'-0"
140
0.75
141
12.0
290
     0
  0
SCALE
  5
CB0
102
{ACAD_REACTORS
330
C93
102
}
330
C93
100
AcDbScale
 70
     0
300
1" = 1'-0"
140
1.0
141
12.0
290
     0
  0
SCALE
  5
CB1
102
{ACAD_REACTORS
330
C93
102
}
330
C93
100
AcDbScale
 70
     0
300
1-1/2" = 1'-0"
140
1.5
141
12.0
290
     0
  0
SCALE
  5
CB2
102
{ACAD_REACTORS
330
C93
102
}
330
C93
100
AcDbScale
 70
     0
300
3" = 1'-0"
140
3.0
141
12.0
290
     0
  0
SCALE
  5
CB3
102
{ACAD_REACTORS
330
C93
102
}
330
C93
100
AcDbScale
 70
     0
300
6" = 1'-0"
140
6.0
141
12.0
290
     0
  0
SCALE
  5
CB4
102
{ACAD_REACTORS
330
C93
102
}
330
C93
100
AcDbScale
 70
     0
300
1'-0" = 1'-0"
140
12.0
141
12.0
290
     0
  0
TABLESTYLE
  5
C92
102
{ACAD_XDICTIONARY
360
CD5
102
}
102
{ACAD_REACTORS
330
C91
102
}
330
C91
100
AcDbTableStyle
  3
Standard
 70
     0
 71
     0
 40
0.06
 41
0.06
280
     0
281
     0
  7
STANDARD
140
0.18
170
     2
 62
     0
 63
     7
283
     0
274
    -2
284
     1
 64
     0
275
    -2
285
     1
 65
     0
276
    -2
286
     1
 66
     0
277
    -2
287
     1
 67
     0
278
    -2
288
     1
 68
     0
279
    -2
289
     1
 69
     0
  7
STANDARD
140
0.25
170
     5
 62
     0
 63
     7
283
     0
274
    -2
284
     1
 64
     0
275
    -2
285
     1
 65
     0
276
    -2
286
     1
 66
     0
277
    -2
287
     1
 67
     0
278
    -2
288
     1
 68
     0
279
    -2
289
     1
 69
     0
  7
STANDARD
140
0.18
170
     5
 62
     0
 63
     7
283
     0
274
    -2
284
     1
 64
     0
275
    -2
285
     1
 65
     0
276
    -2
286
     1
 66
     0
277
    -2
287
     1
 67
     0
278
    -2
288
     1
 68
     0
279
    -2
289
     1
 69
     0
  0
VISUALSTYLE
  5
C85
102
{ACAD_REACTORS
330
C7F
102
}
330
C7F
100
AcDbVisualStyle
  2
2dWireframe
 70
     4
 71
     0
 72
     2
 73
     0
 90
        0
 40
-0.6
 41
-30.0
 62
     5
 63
     7
421
 16777215
 74
     1
 91
        4
 64
     7
 65
   257
 75
     1
175
     1
 42
1.0
 92
        0
 66
   257
 43
1.0
 76
     1
 77
     6
 78
     2
 67
     7
 79
     5
170
     0
171
     0
290
     0
174
     0
 93
        1
 44
0.0
173
     0
291
     0
 45
0.0
1001
ACAD
1000
AcDbSavedByObjectVersion
1070
     0
  0
VISUALSTYLE
  5
C87
102
{ACAD_REACTORS
330
C7F
102
}
330
C7F
100
AcDbVisualStyle
  2
3D Hidden
 70
     6
 71
     1
 72
     2
 73
     2
 90
        0
 40
-0.6
 41
-30.0
 62
     5
 63
     7
421
 16777215
 74
     2
 91
        2
 64
     7
 65
   257
 75
     2
175
     1
 42
40.0
 92
        0
 66
   257
 43
1.0
 76
     1
 77
     6
 78
     2
 67
     7
 79
     3
170
     0
171
     0
290
     0
174
     0
 93
        1
 44
0.0
173
     0
291
     0
 45
0.0
1001
ACAD
1000
AcDbSavedByObjectVersion
1070
     0
  0
VISUALSTYLE
  5
C86
102
{ACAD_REACTORS
330
C7F
102
}
330
C7F
100
AcDbVisualStyle
  2
3dWireframe
 70
     5
 71
     0
 72
     2
 73
     0
 90
        0
 40
-0.6
 41
-30.0
 62
     5
 63
     7
421
 16777215
 74
     1
 91
        4
 64
     7
 65
   257
 75
     1
175
     1
 42
1.0
 92
        0
 66
   257
 43
1.0
 76
     1
 77
     6
 78
     2
 67
     7
 79
     5
170
     0
171
     0
290
     0
174
     0
 93
        1
 44
0.0
173
     0
291
     0
 45
0.0
1001
ACAD
1000
AcDbSavedByObjectVersion
1070
     0
  0
VISUALSTYLE
  5
C84
102
{ACAD_REACTORS
330
C7F
102
}
330
C7F
100
AcDbVisualStyle
  2
Basic
 70
     7
 71
     1
 72
     0
 73
     1
 90
        0
 40
-0.6
 41
-30.0
 62
     5
 63
     7
421
 16777215
 74
     0
 91
        4
 64
     7
 65
   257
 75
     1
175
     1
 42
1.0
 92
        8
 66
     7
 43
1.0
 76
     1
 77
     6
 78
     2
 67
     7
 79
     5
170
     0
171
     0
290
     0
174
     0
 93
        1
 44
0.0
173
     0
291
     1
 45
0.0
1001
ACAD
1000
AcDbSavedByObjectVersion
1070
     0
  0
VISUALSTYLE
  5
C8B
102
{ACAD_REACTORS
330
C7F
102
}
330
C7F
100
AcDbVisualStyle
  2
Brighten
 70
    12
 71
     2
 72
     2
 73
     0
 90
        0
 40
-0.6
 41
-30.0
 62
     5
 63
     7
421
 16777215
 74
     1
 91
        4
 64
     7
 65
   257
 75
     1
175
     1
 42
1.0
 92
        8
 66
     7
 43
1.0
 76
     1
 77
     6
 78
     2
 67
     7
 79
     5
170
     0
171
     0
290
     0
174
     0
 93
        1
 44
50.0
173
     0
291
     1
 45
0.0
1001
ACAD
1000
AcDbSavedByObjectVersion
1070
     0
  0
VISUALSTYLE
  5
C8F
102
{ACAD_REACTORS
330
C7F
102
}
330
C7F
100
AcDbVisualStyle
  2
ColorChange
 70
    16
 71
     2
 72
     2
 73
     3
 90
        0
 40
-0.6
 41
-30.0
 62
     5
 63
     8
421
  8421504
 74
     1
 91
        4
 64
     7
 65
   257
 75
     1
175
     1
 42
1.0
 92
        8
 66
     8
424
  8421504
 43
1.0
 76
     1
 77
     6
 78
     2
 67
     7
 79
     5
170
     0
171
     0
290
     0
174
     0
 93
        1
 44
0.0
173
     0
291
     1
 45
0.0
1001
ACAD
1000
AcDbSavedByObjectVersion
1070
     0
  0
VISUALSTYLE
  5
C88
102
{ACAD_REACTORS
330
C7F
102
}
330
C7F
100
AcDbVisualStyle
  2
Conceptual
 70
     9
 71
     3
 72
     2
 73
     0
 90
        0
 40
-0.6
 41
-30.0
 62
     5
 63
     7
421
 16777215
 74
     2
 91
        2
 64
     7
 65
   257
 75
     1
175
     1
 42
40.0
 92
        8
 66
     7
 43
1.0
 76
     1
 77
     6
 78
     2
 67
     7
 79
     3
170
     0
171
     0
290
     0
174
     0
 93
        1
 44
0.0
173
     0
291
     0
 45
0.0
1001
ACAD
1000
AcDbSavedByObjectVersion
1070
     0
  0
VISUALSTYLE
  5
C8A
102
{ACAD_REACTORS
330
C7F
102
}
330
C7F
100
AcDbVisualStyle
  2
Dim
 70
    11
 71
     2
 72
     2
 73
     0
 90
        0
 40
-0.6
 41
-30.0
 62
     5
 63
     7
421
 16777215
 74
     1
 91
        4
 64
     7
 65
   257
 75
     1
175
     1
 42
1.0
 92
        8
 66
     7
 43
1.0
 76
     1
 77
     6
 78
     2
 67
     7
 79
     5
170
     0
171
     0
290
     0
174
     0
 93
        1
 44
-50.0
173
     0
291
     1
 45
0.0
1001
ACAD
1000
AcDbSavedByObjectVersion
1070
     0
  0
VISUALSTYLE
  5
C8E
102
{ACAD_REACTORS
330
C7F
102
}
330
C7F
100
AcDbVisualStyle
  2
Facepattern
 70
    15
 71
     2
 72
     2
 73
     0
 90
        0
 40
-0.6
 41
-30.0
 62
     5
 63
     7
421
 16777215
 74
     1
 91
        4
 64
     7
 65
   257
 75
     1
175
     1
 42
1.0
 92
        8
 66
     7
 43
1.0
 76
     1
 77
     6
 78
     2
 67
     7
 79
     5
170
     0
171
     0
290
     0
174
     0
 93
        1
 44
0.0
173
     0
291
     1
 45
0.0
1001
ACAD
1000
AcDbSavedByObjectVersion
1070
     0
  0
VISUALSTYLE
  5
C80
102
{ACAD_REACTORS
330
C7F
102
}
330
C7F
100
AcDbVisualStyle
  2
Flat
 70
     0
 71
     2
 72
     1
 73
     1
 90
        2
 40
-0.6
 41
30.0
 62
     5
 63
     7
421
 16777215
 74
     0
 91
        4
 64
     7
 65
   257
 75
     1
175
     1
 42
1.0
 92
        8
 66
     7
 43
1.0
 76
     1
 77
     6
 78
     2
 67
     7
 79
     5
170
     0
171
     0
290
     0
174
     0
 93
       13
 44
0.0
173
     0
291
     1
 45
0.0
1001
ACAD
1000
AcDbSavedByObjectVersion
1070
     0
  0
VISUALSTYLE
  5
C81
102
{ACAD_REACTORS
330
C7F
102
}
330
C7F
100
AcDbVisualStyle
  2
FlatWithEdges
 70
     1
 71
     2
 72
     1
 73
     1
 90
        2
 40
-0.6
 41
30.0
 62
     5
 63
     7
421
 16777215
 74
     1
 91
        4
 64
     7
 65
   257
 75
     1
175
     1
 42
1.0
 92
        0
 66
   257
 43
1.0
 76
     1
 77
     6
 78
     2
 67
     7
 79
     5
170
     0
171
     0
290
     0
174
     0
 93
       13
 44
0.0
173
     0
291
     1
 45
0.0
1001
ACAD
1000
AcDbSavedByObjectVersion
1070
     0
  0
VISUALSTYLE
  5
C82
102
{ACAD_REACTORS
330
C7F
102
}
330
C7F
100
AcDbVisualStyle
  2
Gouraud
 70
     2
 71
     2
 72
     2
 73
     1
 90
        2
 40
-0.6
 41
30.0
 62
     5
 63
     7
421
 16777215
 74
     0
 91
        4
 64
     7
 65
   257
 75
     1
175
     1
 42
1.0
 92
        0
 66
     7
 43
1.0
 76
     1
 77
     6
 78
     2
 67
     7
 79
     5
170
     0
171
     0
290
     0
174
     0
 93
       13
 44
0.0
173
     0
291
     1
 45
0.0
1001
ACAD
1000
AcDbSavedByObjectVersion
1070
     0
  0
VISUALSTYLE
  5
C83
102
{ACAD_REACTORS
330
C7F
102
}
330
C7F
100
AcDbVisualStyle
  2
GouraudWithEdges
 70
     3
 71
     2
 72
     2
 73
     1
 90
        2
 40
-0.6
 41
30.0
 62
     5
 63
     7
421
 16777215
 74
     1
 91
        4
 64
     7
 65
   257
 75
     1
175
     1
 42
1.0
 92
        0
 66
   257
 43
1.0
 76
     1
 77
     6
 78
     2
 67
     7
 79
     5
170
     0
171
     0
290
     0
174
     0
 93
       13
 44
0.0
173
     0
291
     1
 45
0.0
1001
ACAD
1000
AcDbSavedByObjectVersion
1070
     0
  0
VISUALSTYLE
  5
C8D
102
{ACAD_REACTORS
330
C7F
102
}
330
C7F
100
AcDbVisualStyle
  2
Linepattern
 70
    14
 71
     2
 72
     2
 73
     0
 90
        0
 40
-0.6
 41
-30.0
 62
     5
 63
     7
421
 16777215
 74
     1
 91
        4
 64
     7
 65
   257
 75
     7
175
     7
 42
1.0
 92
        8
 66
     7
 43
1.0
 76
     1
 77
     6
 78
     2
 67
     7
 79
     5
170
     0
171
     0
290
     0
174
     0
 93
        1
 44
0.0
173
     0
291
     1
 45
0.0
1001
ACAD
1000
AcDbSavedByObjectVersion
1070
     0
  0
VISUALSTYLE
  5
C89
102
{ACAD_REACTORS
330
C7F
102
}
330
C7F
100
AcDbVisualStyle
  2
Realistic
 70
     8
 71
     2
 72
     2
 73
     0
 90
        0
 40
-0.6
 41
-30.0
 62
     5
 63
     7
421
 16777215
 74
     1
 91
        0
 64
     7
 65
   257
 75
     1
175
     1
 42
1.0
 92
        8
 66
     8
424
  7895160
 43
1.0
 76
     1
 77
     6
 78
     2
 67
     7
 79
     5
170
     0
171
     0
290
     0
174
     0
 93
       13
 44
0.0
173
     0
291
     0
 45
0.0
1001
ACAD
1000
AcDbSavedByObjectVersion
1070
     0
  0
VISUALSTYLE
  5
C8C
102
{ACAD_REACTORS
330
C7F
102
}
330
C7F
100
AcDbVisualStyle
  2
Thicken
 70
    13
 71
     2
 72
     2
 73
     0
 90
        0
 40
-0.6
 41
-30.0
 62
     5
 63
     7
421
 16777215
 74
     1
 91
        4
 64
     7
 65
   257
 75
     1
175
     1
 42
1.0
 92
       12
 66
     7
 43
1.0
 76
     1
 77
     6
 78
     2
 67
     7
 79
     5
170
     0
171
     0
290
     0
174
     0
 93
        1
 44
0.0
173
     0
291
     1
 45
0.0
1001
ACAD
1000
AcDbSavedByObjectVersion
1070
     0
  0
DICTIONARYVAR
  5
CD4
102
{ACAD_REACTORS
330
2C
102
}
330
2C
100
DictionaryVariables
280
     0
  1
1:1
  0
DICTIONARYVAR
  5
CD3
102
{ACAD_REACTORS
330
2C
102
}
330
2C
100
DictionaryVariables
280
     0
  1
STANDARD
  0
DICTIONARYVAR
  5
CD2
102
{ACAD_REACTORS
330
2C
102
}
330
2C
100
DictionaryVariables
280
     0
  1
STANDARD
  0
DICTIONARYVAR
  5
2D
102
{ACAD_REACTORS
330
2C
102
}
330
2C
100
DictionaryVariables
280
     0
  1
0
  0
DICTIONARYVAR
  5
C64
102
{ACAD_REACTORS
330
2C
102
}
330
2C
100
DictionaryVariables
280
     0
  1
0
  0
DICTIONARYVAR
  5
18C
102
{ACAD_REACTORS
330
2C
102
}
330
2C
100
DictionaryVariables
280
     0
  1
96
  0
DICTIONARY
  5
C70
330
C6F
100
AcDbDictionary
280
     1
281
     1
  3
ACAD_XREC_ROUNDTRIP
360
CD9
  3
BUMPTILE
360
C72
  3
DIFFUSETILE
360
C71
  3
OPACITYTILE
360
C75
  3
REFLECTIONTILE
360
C74
  3
REFRACTIONTILE
360
C76
  3
SPECULARTILE
360
C73
  0
DICTIONARY
  5
C68
330
C67
100
AcDbDictionary
280
     1
281
     1
  3
ACAD_XREC_ROUNDTRIP
360
CD8
  3
BUMPTILE
360
C6A
  3
DIFFUSETILE
360
C69
  3
OPACITYTILE
360
C6D
  3
REFLECTIONTILE
360
C6C
  3
REFRACTIONTILE
360
C6E
  3
SPECULARTILE
360
C6B
  0
DICTIONARY
  5
C78
330
C77
100
AcDbDictionary
280
     1
281
     1
  3
ACAD_XREC_ROUNDTRIP
360
CDA
  3
BUMPTILE
360
C7A
  3
DIFFUSETILE
360
C79
  3
OPACITYTILE
360
C7D
  3
REFLECTIONTILE
360
C7C
  3
REFRACTIONTILE
360
C7E
  3
SPECULARTILE
360
C7B
  0
DICTIONARY
  5
CD5
330
C92
100
AcDbDictionary
280
     1
281
     1
  3
ACAD_ROUNDTRIP_2008_TABLESTYLE_CELLSTYLEMAP
360
CD6
  3
ACAD_XREC_ROUNDTRIP
360
CDB
  0
XRECORD
  5
CD9
102
{ACAD_REACTORS
330
C70
102
}
330
C70
100
AcDbXrecord
280
     1
102
MATERIAL
148
0.0
149
0.0
149
0.0
 93
        0
 94
      127
282
     0
 72
     0
 77
     0
171
     0
175
     0
179
     0
273
     0
  0
XRECORD
  5
C72
102
{ACAD_REACTORS
330
C70
102
}
330
C70
100
AcDbXrecord
280
     1
270
     1
271
     1
  0
XRECORD
  5
C71
102
{ACAD_REACTORS
330
C70
102
}
330
C70
100
AcDbXrecord
280
     1
270
     1
271
     1
  0
XRECORD
  5
C75
102
{ACAD_REACTORS
330
C70
102
}
330
C70
100
AcDbXrecord
280
     1
270
     1
271
     1
  0
XRECORD
  5
C74
102
{ACAD_REACTORS
330
C70
102
}
330
C70
100
AcDbXrecord
280
     1
270
     1
271
     1
  0
XRECORD
  5
C76
102
{ACAD_REACTORS
330
C70
102
}
330
C70
100
AcDbXrecord
280
     1
270
     1
271
     1
  0
XRECORD
  5
C73
102
{ACAD_REACTORS
330
C70
102
}
330
C70
100
AcDbXrecord
280
     1
270
     1
271
     1
  0
XRECORD
  5
CD8
102
{ACAD_REACTORS
330
C68
102
}
330
C68
100
AcDbXrecord
280
     1
102
MATERIAL
148
0.0
149
0.0
149
0.0
 93
        0
 94
      127
282
     0
 72
     0
 77
     0
171
     0
175
     0
179
     0
273
     0
  0
XRECORD
  5
C6A
102
{ACAD_REACTORS
330
C68
102
}
330
C68
100
AcDbXrecord
280
     1
270
     1
271
     1
  0
XRECORD
  5
C69
102
{ACAD_REACTORS
330
C68
102
}
330
C68
100
AcDbXrecord
280
     1
270
     1
271
     1
  0
XRECORD
  5
C6D
102
{ACAD_REACTORS
330
C68
102
}
330
C68
100
AcDbXrecord
280
     1
270
     1
271
     1
  0
XRECORD
  5
C6C
102
{ACAD_REACTORS
330
C68
102
}
330
C68
100
AcDbXrecord
280
     1
270
     1
271
     1
  0
XRECORD
  5
C6E
102
{ACAD_REACTORS
330
C68
102
}
330
C68
100
AcDbXrecord
280
     1
270
     1
271
     1
  0
XRECORD
  5
C6B
102
{ACAD_REACTORS
330
C68
102
}
330
C68
100
AcDbXrecord
280
     1
270
     1
271
     1
  0
XRECORD
  5
CDA
102
{ACAD_REACTORS
330
C78
102
}
330
C78
100
AcDbXrecord
280
     1
102
MATERIAL
148
0.0
149
0.0
149
0.0
 93
        0
 94
      127
282
     0
 72
     0
 77
     0
171
     0
175
     0
179
     0
273
     0
  0
XRECORD
  5
C7A
102
{ACAD_REACTORS
330
C78
102
}
330
C78
100
AcDbXrecord
280
     1
270
     1
271
     1
  0
XRECORD
  5
C79
102
{ACAD_REACTORS
330
C78
102
}
330
C78
100
AcDbXrecord
280
     1
270
     1
271
     1
  0
XRECORD
  5
C7D
102
{ACAD_REACTORS
330
C78
102
}
330
C78
100
AcDbXrecord
280
     1
270
     1
271
     1
  0
XRECORD
  5
C7C
102
{ACAD_REACTORS
330
C78
102
}
330
C78
100
AcDbXrecord
280
     1
270
     1
271
     1
  0
XRECORD
  5
C7E
102
{ACAD_REACTORS
330
C78
102
}
330
C78
100
AcDbXrecord
280
     1
270
     1
271
     1
  0
XRECORD
  5
C7B
102
{ACAD_REACTORS
330
C78
102
}
330
C78
100
AcDbXrecord
280
     1
270
     1
271
     1
  0
CELLSTYLEMAP
  5
CD6
102
{ACAD_REACTORS
330
CD5
102
}
330
CD5
100
AcDbCellStyleMap
 90
        3
300
CELLSTYLE
  1
TABLEFORMAT_BEGIN
 90
        5
170
     1
 91
        0
 92
    32768
 62
   257
 93
        1
300
CONTENTFORMAT
  1
CONTENTFORMAT_BEGIN
 90
        0
 91
        0
 92
      512
 93
        0
300

 40
0.0
140
1.0
 94
        5
 62
     0
340
F
144
0.25
309
CONTENTFORMAT_END
171
     0
 94
        0
309
TABLEFORMAT_END
  1
CELLSTYLE_BEGIN
 90
        1
 91
        1
300
_TITLE
309
CELLSTYLE_END
300
CELLSTYLE
  1
TABLEFORMAT_BEGIN
 90
        5
170
     1
 91
        0
 92
        0
 62
   257
 93
        1
300
CONTENTFORMAT
  1
CONTENTFORMAT_BEGIN
 90
        0
 91
        0
 92
      512
 93
        0
300

 40
0.0
140
1.0
 94
        5
 62
     0
340
F
144
0.18
309
CONTENTFORMAT_END
171
     0
 94
        0
309
TABLEFORMAT_END
  1
CELLSTYLE_BEGIN
 90
        2
 91
        1
300
_HEADER
309
CELLSTYLE_END
300
CELLSTYLE
  1
TABLEFORMAT_BEGIN
 90
        5
170
     1
 91
        0
 92
        0
 62
   257
 93
        1
300
CONTENTFORMAT
  1
CONTENTFORMAT_BEGIN
 90
        0
 91
        0
 92
      512
 93
        0
300

 40
0.0
140
1.0
 94
        2
 62
     0
340
F
144
0.18
309
CONTENTFORMAT_END
171
     0
 94
        0
309
TABLEFORMAT_END
  1
CELLSTYLE_BEGIN
 90
        3
 91
        2
300
_DATA
309
CELLSTYLE_END
  0
XRECORD
  5
CDB
102
{ACAD_REACTORS
330
CD5
102
}
330
CD5
100
AcDbXrecord
280
     1
102
ACAD_ROUNDTRIP_PRE2007_TABLESTYLE
 90
      512
 91
        0
  1

 92
      512
 93
        0
  2

 94
      512
 95
        0
  3

  0
ENDSEC
  0
EOF
