  0
SECTION
  2
HEADER
  9
$ACADVER
  1
AC1018
  9
$ACADMAINTVER
 70
   104
  9
$DWGCODEPAGE
  3
ANSI_1252
  9
$LASTSAVEDBY
  1
aereyes
  9
$INSBASE
 10
0.0
 20
0.0
 30
0.0
  9
$EXTMIN
 10
0.25
 20
0.2483302711109045
 30
0.0
  9
$EXTMAX
 10
10.71
 20
8.210016413185645
 30
0.0
  9
$LIMMIN
 10
0.0
 20
0.0
  9
$LIMMAX
 10
11.0
 20
8.5
  9
$ORTHOMODE
 70
     0
  9
$REGENMODE
 70
     1
  9
$FILLMODE
 70
     1
  9
$QTEXTMODE
 70
     0
  9
$MIRRTEXT
 70
     1
  9
$LTSCALE
 40
0.25
  9
$ATTMODE
 70
     1
  9
$TEXTSIZE
 40
0.12
  9
$TRACEWID
 40
0.05
  9
$TEXTSTYLE
  7
STANDARD
  9
$CLAYER
  8
OBJECT
  9
$CELTYPE
  6
BYLAYER
  9
$CECOLOR
 62
   256
  9
$CELTSCALE
 40
1.0
  9
$DISPSILH
 70
     0
  9
$DIMSCALE
 40
0.0
  9
$DIMASZ
 40
0.18
  9
$DIMEXO
 40
0.0625
  9
$DIMDLI
 40
0.38
  9
$DIMRND
 40
0.0
  9
$DIMDLE
 40
0.0
  9
$DIMEXE
 40
0.18
  9
$DIMTP
 40
0.0
  9
$DIMTM
 40
0.0
  9
$DIMTXT
 40
0.125
  9
$DIMCEN
 40
0.09
  9
$DIMTSZ
 40
0.0
  9
$DIMTOL
 70
     0
  9
$DIMLIM
 70
     0
  9
$DIMTIH
 70
     1
  9
$DIMTOH
 70
     1
  9
$DIMSE1
 70
     0
  9
$DIMSE2
 70
     0
  9
$DIMTAD
 70
     0
  9
$DIMZIN
 70
     0
  9
$DIMBLK
  1

  9
$DIMASO
 70
     0
  9
$DIMSHO
 70
     1
  9
$DIMPOST
  1

  9
$DIMAPOST
  1

  9
$DIMALT
 70
     0
  9
$DIMALTD
 70
     2
  9
$DIMALTF
 40
25.4
  9
$DIMLFAC
 40
1.0
  9
$DIMTOFL
 70
     0
  9
$DIMTVP
 40
0.0
  9
$DIMTIX
 70
     0
  9
$DIMSOXD
 70
     0
  9
$DIMSAH
 70
     0
  9
$DIMBLK1
  1

  9
$DIMBLK2
  1

  9
$DIMSTYLE
  2
STANDARD
  9
$DIMCLRD
 70
     1
  9
$DIMCLRE
 70
     1
  9
$DIMCLRT
 70
     7
  9
$DIMTFAC
 40
1.0
  9
$DIMGAP
 40
0.09
  9
$DIMJUST
 70
     0
  9
$DIMSD1
 70
     0
  9
$DIMSD2
 70
     0
  9
$DIMTOLJ
 70
     1
  9
$DIMTZIN
 70
     0
  9
$DIMALTZ
 70
     0
  9
$DIMALTTZ
 70
     0
  9
$DIMUPT
 70
     0
  9
$DIMDEC
 70
     4
  9
$DIMTDEC
 70
     4
  9
$DIMALTU
 70
     2
  9
$DIMALTTD
 70
     2
  9
$DIMTXSTY
  7
STANDARD
  9
$DIMAUNIT
 70
     0
  9
$DIMADEC
 70
     0
  9
$DIMALTRND
 40
0.0
  9
$DIMAZIN
 70
     0
  9
$DIMDSEP
 70
    46
  9
$DIMATFIT
 70
     3
  9
$DIMFRAC
 70
     0
  9
$DIMLDRBLK
  1

  9
$DIMLUNIT
 70
     2
  9
$DIMLWD
 70
    -2
  9
$DIMLWE
 70
    -2
  9
$DIMTMOVE
 70
     0
  9
$LUNITS
 70
     2
  9
$LUPREC
 70
     4
  9
$SKETCHINC
 40
0.1
  9
$FILLETRAD
 40
0.0
  9
$AUNITS
 70
     0
  9
$AUPREC
 70
     0
  9
$MENU
  1
acad
  9
$ELEVATION
 40
0.0
  9
$PELEVATION
 40
0.0
  9
$THICKNESS
 40
0.0
  9
$LIMCHECK
 70
     0
  9
$CHAMFERA
 40
0.0
  9
$CHAMFERB
 40
0.0
  9
$CHAMFERC
 40
0.0
  9
$CHAMFERD
 40
0.0
  9
$SKPOLY
 70
     0
  9
$TDCREATE
 40
2450156.494675000
  9
$TDUCREATE
 40
2450156.703008333
  9
$TDUPDATE
 40
2454821.742232535
  9
$TDUUPDATE
 40
2454821.950565868
  9
$TDINDWG
 40
0.3193516898
  9
$TDUSRTIMER
 40
0.3193516898
  9
$USRTIMER
 70
     1
  9
$ANGBASE
 50
0.0
  9
$ANGDIR
 70
     0
  9
$PDMODE
 70
     0
  9
$PDSIZE
 40
0.0
  9
$PLINEWID
 40
0.0
  9
$SPLFRAME
 70
     0
  9
$SPLINETYPE
 70
     6
  9
$SPLINESEGS
 70
     8
  9
$HANDSEED
  5
D15
  9
$SURFTAB1
 70
     6
  9
$SURFTAB2
 70
     6
  9
$SURFTYPE
 70
     6
  9
$SURFU
 70
     6
  9
$SURFV
 70
     6
  9
$UCSBASE
  2

  9
$UCSNAME
  2

  9
$UCSORG
 10
0.0
 20
0.0
 30
0.0
  9
$UCSXDIR
 10
1.0
 20
0.0
 30
0.0
  9
$UCSYDIR
 10
0.0
 20
1.0
 30
0.0
  9
$UCSORTHOREF
  2

  9
$UCSORTHOVIEW
 70
     0
  9
$UCSORGTOP
 10
0.0
 20
0.0
 30
0.0
  9
$UCSORGBOTTOM
 10
0.0
 20
0.0
 30
0.0
  9
$UCSORGLEFT
 10
0.0
 20
0.0
 30
0.0
  9
$UCSORGRIGHT
 10
0.0
 20
0.0
 30
0.0
  9
$UCSORGFRONT
 10
0.0
 20
0.0
 30
0.0
  9
$UCSORGBACK
 10
0.0
 20
0.0
 30
0.0
  9
$PUCSBASE
  2

  9
$PUCSNAME
  2

  9
$PUCSORG
 10
0.0
 20
0.0
 30
0.0
  9
$PUCSXDIR
 10
1.0
 20
0.0
 30
0.0
  9
$PUCSYDIR
 10
0.0
 20
1.0
 30
0.0
  9
$PUCSORTHOREF
  2

  9
$PUCSORTHOVIEW
 70
     0
  9
$PUCSORGTOP
 10
0.0
 20
0.0
 30
0.0
  9
$PUCSORGBOTTOM
 10
0.0
 20
0.0
 30
0.0
  9
$PUCSORGLEFT
 10
0.0
 20
0.0
 30
0.0
  9
$PUCSORGRIGHT
 10
0.0
 20
0.0
 30
0.0
  9
$PUCSORGFRONT
 10
0.0
 20
0.0
 30
0.0
  9
$PUCSORGBACK
 10
0.0
 20
0.0
 30
0.0
  9
$USERI1
 70
     0
  9
$USERI2
 70
     0
  9
$USERI3
 70
     0
  9
$USERI4
 70
     0
  9
$USERI5
 70
     0
  9
$USERR1
 40
0.0
  9
$USERR2
 40
0.0
  9
$USERR3
 40
0.0
  9
$USERR4
 40
0.0
  9
$USERR5
 40
0.0
  9
$WORLDVIEW
 70
     1
  9
$SHADEDGE
 70
     3
  9
$SHADEDIF
 70
    70
  9
$TILEMODE
 70
     1
  9
$MAXACTVP
 70
    16
  9
$PINSBASE
 10
0.0
 20
0.0
 30
0.0
  9
$PLIMCHECK
 70
     0
  9
$PEXTMIN
 10
1.000000000000000E+20
 20
1.000000000000000E+20
 30
1.000000000000000E+20
  9
$PEXTMAX
 10
-1.000000000000000E+20
 20
-1.000000000000000E+20
 30
-1.000000000000000E+20
  9
$PLIMMIN
 10
0.0
 20
0.0
  9
$PLIMMAX
 10
12.0
 20
9.0
  9
$UNITMODE
 70
     0
  9
$VISRETAIN
 70
     0
  9
$PLINEGEN
 70
     0
  9
$PSLTSCALE
 70
     0
  9
$TREEDEPTH
 70
  3020
  9
$CMLSTYLE
  2
STANDARD
  9
$CMLJUST
 70
     0
  9
$CMLSCALE
 40
1.0
  9
$PROXYGRAPHICS
 70
     1
  9
$MEASUREMENT
 70
     0
  9
$CELWEIGHT
370
    -1
  9
$ENDCAPS
280
     0
  9
$JOINSTYLE
280
     0
  9
$LWDISPLAY
290
     0
  9
$INSUNITS
 70
     0
  9
$HYPERLINKBASE
  1

  9
$STYLESHEET
  1
standard.ctb
  9
$XEDIT
290
     1
  9
$CEPSNTYPE
380
     0
  9
$PSTYLEMODE
290
     1
  9
$FINGERPRINTGUID
  2
{8AB12838-533B-486F-A8B6-56111A91323B}
  9
$VERSIONGUID
  2
{DDB6B67C-7AD8-4014-BC6C-79CD64010A00}
  9
$EXTNAMES
290
     1
  9
$PSVPSCALE
 40
0.0
  9
$OLESTARTUP
290
     0
  9
$SORTENTS
280
    96
  9
$INDEXCTL
280
     0
  9
$HIDETEXT
280
     0
  9
$XCLIPFRAME
290
     0
  9
$HALOGAP
280
     0
  9
$OBSCOLOR
 70
   257
  9
$OBSLTYPE
280
     0
  9
$INTERSECTIONDISPLAY
280
     0
  9
$INTERSECTIONCOLOR
 70
   257
  9
$DIMASSOC
280
     0
  9
$PROJECTNAME
  1

  0
ENDSEC
  0
SECTION
  2
CLASSES
  0
CLASS
  1
DICTIONARYVAR
  2
AcDbDictionaryVar
  3
ObjectDBX Classes
 90
        0
 91
        6
280
     0
281
     0
  0
CLASS
  1
ACDBDICTIONARYWDFLT
  2
AcDbDictionaryWithDefault
  3
ObjectDBX Classes
 90
        0
 91
        1
280
     0
281
     0
  0
CLASS
  1
MATERIAL
  2
AcDbMaterial
  3
ObjectDBX Classes
 90
     1153
 91
        3
280
     0
281
     0
  0
CLASS
  1
VISUALSTYLE
  2
AcDbVisualStyle
  3
ObjectDBX Classes
 90
     4095
 91
       16
280
     0
281
     0
  0
CLASS
  1
TABLESTYLE
  2
AcDbTableStyle
  3
ObjectDBX Classes
 90
     4095
 91
        1
280
     0
281
     0
  0
CLASS
  1
SCALE
  2
AcDbScale
  3
ObjectDBX Classes
 90
     1153
 91
       33
280
     0
281
     0
  0
CLASS
  1
MLEADERSTYLE
  2
AcDbMLeaderStyle
  3
ACDB_MLEADERSTYLE_CLASS
 90
     4095
 91
        1
280
     0
281
     0
  0
CLASS
  1
CELLSTYLEMAP
  2
AcDbCellStyleMap
  3
ObjectDBX Classes
 90
     1152
 91
        1
280
     0
281
     0
  0
ENDSEC
  0
SECTION
  2
TABLES
  0
TABLE
  2
VPORT
  5
8
330
0
100
AcDbSymbolTable
 70
     1
  0
VPORT
  5
CA4
330
8
100
AcDbSymbolTableRecord
100
AcDbViewportTableRecord
  2
*Active
 70
     0
 10
0.0
 20
0.0
 11
1.0
 21
1.0
 12
10.52642713153422
 22
4.25
 13
0.0
 23
0.0
 14
0.062
 24
0.062
 15
0.25
 25
0.25
 16
0.0
 26
0.0
 36
1.0
 17
0.0
 27
0.0
 37
0.0
 40
12.61505565370526
 41
1.680522565320664
 42
50.0
 43
0.0
 44
0.0
 50
0.0
 51
0.0
 71
     0
 72
   500
 73
     1
 74
     0
 75
     0
 76
     0
 77
     0
 78
     0
281
     0
 65
     1
110
0.0
120
0.0
130
0.0
111
1.0
121
0.0
131
0.0
112
0.0
122
1.0
132
0.0
 79
     0
146
0.0
  0
ENDTAB
  0
TABLE
  2
LTYPE
  5
5
330
0
100
AcDbSymbolTable
 70
     3
  0
LTYPE
  5
11
330
5
100
AcDbSymbolTableRecord
100
AcDbLinetypeTableRecord
  2
BYBLOCK
 70
     0
  3

 72
    65
 73
     0
 40
0.0
  0
LTYPE
  5
12
330
5
100
AcDbSymbolTableRecord
100
AcDbLinetypeTableRecord
  2
BYLAYER
 70
     0
  3

 72
    65
 73
     0
 40
0.0
  0
LTYPE
  5
13
330
5
100
AcDbSymbolTableRecord
100
AcDbLinetypeTableRecord
  2
CONTINUOUS
 70
     0
  3
Solid line
 72
    65
 73
     0
 40
0.0
  0
LTYPE
  5
1D
330
5
100
AcDbSymbolTableRecord
100
AcDbLinetypeTableRecord
  2
CENTER
 70
     0
  3
____ _ ____ _ ____ _ ____ _ ____ _ ____ _ ____ 
 72
    65
 73
     4
 40
2.0
 49
1.25
 74
     0
 49
-0.25
 74
     0
 49
0.25
 74
     0
 49
-0.25
 74
     0
  0
LTYPE
  5
1E
330
5
100
AcDbSymbolTableRecord
100
AcDbLinetypeTableRecord
  2
HIDDEN
 70
     0
  3
__ __ __ __ __ __ __ __ __ __ __ __ __ __ __ __
 72
    65
 73
     2
 40
0.375
 49
0.25
 74
     0
 49
-0.125
 74
     0
  0
ENDTAB
  0
TABLE
  2
LAYER
  5
2
330
0
100
AcDbSymbolTable
 70
     8
  0
LAYER
  5
E
102
{ACAD_XDICTIONARY
360
CFB
102
}
330
2
100
AcDbSymbolTableRecord
100
AcDbLayerTableRecord
  2
0
 70
     0
 62
     7
  6
CONTINUOUS
370
    -3
390
C7D
  0
LAYER
  5
21
102
{ACAD_XDICTIONARY
360
CFD
102
}
330
2
100
AcDbSymbolTableRecord
100
AcDbLayerTableRecord
  2
FORM
 70
     0
 62
     7
  6
CONTINUOUS
370
    -3
390
C7D
  0
LAYER
  5
22
102
{ACAD_XDICTIONARY
360
CFF
102
}
330
2
100
AcDbSymbolTableRecord
100
AcDbLayerTableRecord
  2
CENTER
 70
     0
 62
     3
  6
CENTER
370
    -3
390
C7D
  0
LAYER
  5
23
102
{ACAD_XDICTIONARY
360
D01
102
}
330
2
100
AcDbSymbolTableRecord
100
AcDbLayerTableRecord
  2
DIM
 70
     0
 62
     1
  6
CONTINUOUS
370
    -3
390
C7D
  0
LAYER
  5
24
102
{ACAD_XDICTIONARY
360
D03
102
}
330
2
100
AcDbSymbolTableRecord
100
AcDbLayerTableRecord
  2
HATCH
 70
     0
 62
     4
  6
CONTINUOUS
370
    -3
390
C7D
  0
LAYER
  5
25
102
{ACAD_XDICTIONARY
360
D05
102
}
330
2
100
AcDbSymbolTableRecord
100
AcDbLayerTableRecord
  2
HIDDEN
 70
     0
 62
     5
  6
HIDDEN
370
    -3
390
C7D
  0
LAYER
  5
26
102
{ACAD_XDICTIONARY
360
D07
102
}
330
2
100
AcDbSymbolTableRecord
100
AcDbLayerTableRecord
  2
OBJECT
 70
     0
 62
     7
  6
CONTINUOUS
370
    -3
390
C7D
  0
LAYER
  5
27
102
{ACAD_XDICTIONARY
360
D09
102
}
330
2
100
AcDbSymbolTableRecord
100
AcDbLayerTableRecord
  2
TEXT
 70
     0
 62
     7
  6
CONTINUOUS
370
    -3
390
C7D
  0
ENDTAB
  0
TABLE
  2
STYLE
  5
3
330
0
100
AcDbSymbolTable
 70
     4
  0
STYLE
  5
F
330
3
100
AcDbSymbolTableRecord
100
AcDbTextStyleTableRecord
  2
STANDARD
 70
     0
 40
0.0
 41
1.0
 50
0.0
 71
     0
 42
0.12
  3
ROMANS.SHX
  4

  0
STYLE
  5
1C
330
3
100
AcDbSymbolTableRecord
100
AcDbTextStyleTableRecord
  2
ROMANS
 70
     0
 40
0.0
 41
1.0
 50
0.0
 71
     0
 42
0.08
  3
romans
  4

  0
STYLE
  5
B79
330
3
100
AcDbSymbolTableRecord
100
AcDbTextStyleTableRecord
  2
HELV
 70
     0
 40
0.0
 41
1.0
 50
0.0
 71
     0
 42
0.15
  3
HELVMED
  4

  0
STYLE
  5
B7A
330
3
100
AcDbSymbolTableRecord
100
AcDbTextStyleTableRecord
  2
HELR
 70
     0
 40
0.0
 41
1.0
 50
0.0
 71
     0
 42
0.2
  3
HELV
  4

  0
ENDTAB
  0
TABLE
  2
VIEW
  5
6
330
0
100
AcDbSymbolTable
 70
     0
  0
ENDTAB
  0
TABLE
  2
UCS
  5
7
330
0
100
AcDbSymbolTable
 70
     0
  0
ENDTAB
  0
TABLE
  2
APPID
  5
9
330
0
100
AcDbSymbolTable
 70
     2
  0
APPID
  5
10
330
9
100
AcDbSymbolTableRecord
100
AcDbRegAppTableRecord
  2
ACAD
 70
     0
  0
APPID
  5
CF8
330
9
100
AcDbSymbolTableRecord
100
AcDbRegAppTableRecord
  2
ACAD_MLEADERVER
 70
     0
  0
ENDTAB
  0
TABLE
  2
DIMSTYLE
  5
A
330
0
100
AcDbSymbolTable
 70
     1
100
AcDbDimStyleTable
 71
     0
  0
DIMSTYLE
105
FA
330
A
100
AcDbSymbolTableRecord
100
AcDbDimStyleTableRecord
  2
STANDARD
 70
     0
340
F
  0
ENDTAB
  0
TABLE
  2
BLOCK_RECORD
  5
1
330
0
100
AcDbSymbolTable
 70
     0
  0
BLOCK_RECORD
  5
17
330
1
100
AcDbSymbolTableRecord
100
AcDbBlockTableRecord
  2
*MODEL_SPACE
340
C80
  0
BLOCK_RECORD
  5
14
330
1
100
AcDbSymbolTableRecord
100
AcDbBlockTableRecord
  2
*PAPER_SPACE
340
C81
  0
ENDTAB
  0
ENDSEC
  0
SECTION
  2
BLOCKS
  0
BLOCK
  5
2A
330
17
100
AcDbEntity
  8
0
100
AcDbBlockBegin
  2
*MODEL_SPACE
 70
     0
 10
0.0
 20
0.0
 30
0.0
  3
*MODEL_SPACE
  1

  0
ENDBLK
  5
2B
330
17
100
AcDbEntity
  8
0
100
AcDbBlockEnd
  0
BLOCK
  5
28
330
14
100
AcDbEntity
 67
     1
  8
0
100
AcDbBlockBegin
  2
*PAPER_SPACE
 70
     0
 10
0.0
 20
0.0
 30
0.0
  3
*PAPER_SPACE
  1

  0
ENDBLK
  5
29
330
14
100
AcDbEntity
 67
     1
  8
0
100
AcDbBlockEnd
  0
ENDSEC
  0
SECTION
  2
ENTITIES
  0
LINE
  5
14B
330
17
100
AcDbEntity
  8
OBJECT
100
AcDbLine
 10
5.028430699208236
 20
4.39168272321368
 30
0.0
 11
5.028430699208236
 21
6.793682723213678
 31
0.0
  0
LINE
  5
14C
330
17
100
AcDbEntity
  8
OBJECT
100
AcDbLine
 10
5.028430699208236
 20
4.39168272321368
 30
0.0
 11
7.055430699208233
 21
4.39168272321368
 31
0.0
  0
LINE
  5
14D
330
17
100
AcDbEntity
  8
OBJECT
100
AcDbLine
 10
5.028430699208236
 20
6.793682723213679
 30
0.0
 11
7.055430699208233
 21
6.793682723213678
 31
0.0
  0
LINE
  5
14E
330
17
100
AcDbEntity
  8
OBJECT
100
AcDbLine
 10
7.055430699208233
 20
4.39168272321368
 30
0.0
 11
7.055430699208233
 21
6.793682723213678
 31
0.0
  0
LINE
  5
14F
330
17
100
AcDbEntity
  8
OBJECT
100
AcDbLine
 10
5.028430699208236
 20
4.785682723213679
 30
0.0
 11
7.055430699208233
 21
4.785682723213678
 31
0.0
  0
LINE
  5
16D
330
17
100
AcDbEntity
  8
OBJECT
100
AcDbLine
 10
2.83583826832686
 20
4.39168272321368
 30
0.0
 11
2.835838268326859
 21
6.793682723213678
 31
0.0
  0
LINE
  5
16E
330
17
100
AcDbEntity
  8
OBJECT
100
AcDbLine
 10
2.69783826832686
 20
4.39168272321368
 30
0.0
 11
2.83583826832686
 21
4.391682723213679
 31
0.0
  0
LINE
  5
16F
330
17
100
AcDbEntity
  8
OBJECT
100
AcDbLine
 10
2.69783826832686
 20
4.39168272321368
 30
0.0
 11
2.69783826832686
 21
4.785682723213679
 31
0.0
  0
LINE
  5
170
330
17
100
AcDbEntity
  8
OBJECT
100
AcDbLine
 10
2.697838268326859
 20
4.785682723213678
 30
0.0
 11
2.505371098079427
 21
4.785682723213684
 31
0.0
  0
LINE
  5
178
330
17
100
AcDbEntity
  8
OBJECT
100
AcDbLine
 10
5.253930699208234
 20
4.681182723213679
 30
0.0
 11
5.647930699208234
 21
4.681182723213679
 31
0.0
  0
LINE
  5
179
330
17
100
AcDbEntity
  8
OBJECT
100
AcDbLine
 10
5.253930699208234
 20
4.512182723213681
 30
0.0
 11
5.647930699208234
 21
4.51218272321368
 31
0.0
  0
ARC
  5
17A
330
17
100
AcDbEntity
  8
OBJECT
100
AcDbCircle
 10
5.253930699208234
 20
4.59668272321368
 30
0.0
 40
0.0845000000000003
100
AcDbArc
 50
90.0
 51
269.9999999999998
  0
ARC
  5
17B
330
17
100
AcDbEntity
  8
OBJECT
100
AcDbCircle
 10
5.647930699208234
 20
4.59668272321368
 30
0.0
 40
0.0845000000000003
100
AcDbArc
 50
270.0
 51
90.0
  0
ARC
  5
17C
330
17
100
AcDbEntity
  8
OBJECT
100
AcDbCircle
 10
6.435930699208235
 20
4.59668272321368
 30
0.0
 40
0.0845000000000003
100
AcDbArc
 50
90.0
 51
269.9999999999998
  0
ARC
  5
17D
330
17
100
AcDbEntity
  8
OBJECT
100
AcDbCircle
 10
6.829930699208235
 20
4.59668272321368
 30
0.0
 40
0.0845000000000003
100
AcDbArc
 50
270.0
 51
90.0
  0
LINE
  5
17E
330
17
100
AcDbEntity
  8
HIDDEN
 62
     3
100
AcDbLine
 10
2.590457930750198
 20
4.59668272321368
 30
0.0
 11
2.907710739716886
 21
4.59668272321368
 31
0.0
  0
LINE
  5
17F
330
17
100
AcDbEntity
  8
OBJECT
100
AcDbLine
 10
6.435930699208235
 20
4.681182723213679
 30
0.0
 11
6.829930699208235
 21
4.681182723213679
 31
0.0
  0
LINE
  5
180
330
17
100
AcDbEntity
  8
OBJECT
100
AcDbLine
 10
6.435930699208235
 20
4.51218272321368
 30
0.0
 11
6.829930699208235
 21
4.51218272321368
 31
0.0
  0
LINE
  5
181
330
17
100
AcDbEntity
  8
OBJECT
 62
     1
100
AcDbLine
 10
6.739930699208235
 20
4.59668272321368
 30
0.0
 11
6.919930699208235
 21
4.59668272321368
 31
0.0
  0
LINE
  5
182
330
17
100
AcDbEntity
  8
OBJECT
 62
     1
100
AcDbLine
 10
6.829930699208235
 20
4.50668272321368
 30
0.0
 11
6.829930699208235
 21
4.68668272321368
 31
0.0
  0
LINE
  5
183
330
17
100
AcDbEntity
  8
OBJECT
 62
     1
100
AcDbLine
 10
6.345930699208235
 20
4.59668272321368
 30
0.0
 11
6.525930699208235
 21
4.59668272321368
 31
0.0
  0
LINE
  5
184
330
17
100
AcDbEntity
  8
OBJECT
 62
     1
100
AcDbLine
 10
6.435930699208235
 20
4.50668272321368
 30
0.0
 11
6.435930699208235
 21
4.68668272321368
 31
0.0
  0
LINE
  5
185
330
17
100
AcDbEntity
  8
OBJECT
 62
     1
100
AcDbLine
 10
5.557930699208235
 20
4.59668272321368
 30
0.0
 11
5.737930699208234
 21
4.59668272321368
 31
0.0
  0
LINE
  5
186
330
17
100
AcDbEntity
  8
OBJECT
 62
     1
100
AcDbLine
 10
5.647930699208234
 20
4.50668272321368
 30
0.0
 11
5.647930699208234
 21
4.68668272321368
 31
0.0
  0
LINE
  5
187
330
17
100
AcDbEntity
  8
OBJECT
 62
     1
100
AcDbLine
 10
5.163930699208234
 20
4.59668272321368
 30
0.0
 11
5.343930699208234
 21
4.59668272321368
 31
0.0
  0
LINE
  5
188
330
17
100
AcDbEntity
  8
OBJECT
 62
     1
100
AcDbLine
 10
5.253930699208234
 20
4.50668272321368
 30
0.0
 11
5.253930699208234
 21
4.68668272321368
 31
0.0
  0
LINE
  5
189
330
17
100
AcDbEntity
  8
OBJECT
100
AcDbLine
 10
2.505371098079426
 20
6.793682723213679
 30
0.0
 11
2.835838268326859
 21
6.793682723213678
 31
0.0
  0
LINE
  5
18A
330
17
100
AcDbEntity
  8
OBJECT
100
AcDbLine
 10
2.532574621382187
 20
4.810761461465411
 30
0.0
 11
2.532574621382184
 21
6.763414167669981
 31
0.0
  0
LINE
  5
18B
330
17
100
AcDbEntity
  8
OBJECT
100
AcDbLine
 10
2.789378321162148
 20
4.837310286871102
 30
0.0
 11
2.789378321162149
 21
6.742767954799348
 31
0.0
  0
LINE
  5
66E
330
17
100
AcDbEntity
  8
OBJECT
100
AcDbLine
 10
7.005430699208234
 20
4.835682723213678
 30
0.0
 11
7.005430699208233
 21
6.743682723213677
 31
0.0
  0
LINE
  5
66F
330
17
100
AcDbEntity
  8
OBJECT
100
AcDbLine
 10
5.078430699208237
 20
4.835682723213679
 30
0.0
 11
5.078430699208235
 21
6.743682723213678
 31
0.0
  0
LINE
  5
670
330
17
100
AcDbEntity
  8
OBJECT
100
AcDbLine
 10
5.078430699208235
 20
6.74368272321368
 30
0.0
 11
7.005430699208233
 21
6.743682723213678
 31
0.0
  0
LINE
  5
673
330
17
100
AcDbEntity
  8
OBJECT
100
AcDbLine
 10
5.078430699208237
 20
4.835682723213679
 30
0.0
 11
7.005430699208234
 21
4.835682723213677
 31
0.0
  0
LINE
  5
678
330
17
100
AcDbEntity
  8
HIDDEN
100
AcDbLine
 10
2.83583826832686
 20
4.681182723213679
 30
0.0
 11
2.69783826832686
 21
4.681182723213678
 31
0.0
  0
LINE
  5
679
330
17
100
AcDbEntity
  8
HIDDEN
100
AcDbLine
 10
2.83583826832686
 20
4.512182723213681
 30
0.0
 11
2.69783826832686
 21
4.512182723213681
 31
0.0
  0
LINE
  5
6B5
330
17
100
AcDbEntity
  8
DIM
 62
     1
100
AcDbLine
 10
5.028430699208236
 20
6.856182723213679
 30
0.0
 11
5.028430699208236
 21
7.952380083552064
 31
0.0
  0
LINE
  5
6B6
330
17
100
AcDbEntity
  8
DIM
 62
     1
100
AcDbLine
 10
7.055430699208233
 20
6.856182723213678
 30
0.0
 11
7.055430699208233
 21
7.952380083552064
 31
0.0
  0
LINE
  5
6B7
330
17
100
AcDbEntity
  8
DIM
 62
     1
100
AcDbLine
 10
5.208430699208236
 20
7.772380083552064
 30
0.0
 11
5.677644984922521
 21
7.772380083552064
 31
0.0
  0
LINE
  5
6B8
330
17
100
AcDbEntity
  8
DIM
 62
     1
100
AcDbLine
 10
6.875430699208234
 20
7.772380083552064
 30
0.0
 11
6.406216413493948
 21
7.772380083552064
 31
0.0
  0
SOLID
  5
6B9
330
17
100
AcDbEntity
  8
DIM
 62
     1
100
AcDbTrace
 10
5.208430699208236
 20
7.802380083552064
 30
0.0
 11
5.208430699208236
 21
7.742380083552065
 31
0.0
 12
5.028430699208236
 22
7.772380083552064
 32
0.0
 13
5.028430699208236
 23
7.772380083552064
 33
0.0
  0
SOLID
  5
6BA
330
17
100
AcDbEntity
  8
DIM
 62
     1
100
AcDbTrace
 10
6.875430699208234
 20
7.802380083552064
 30
0.0
 11
6.875430699208234
 21
7.742380083552065
 31
0.0
 12
7.055430699208233
 22
7.772380083552064
 32
0.0
 13
7.055430699208233
 23
7.772380083552064
 33
0.0
  0
MTEXT
  5
6BB
330
17
100
AcDbEntity
  8
DIM
 62
     7
100
AcDbMText
 10
6.041930699208235
 20
7.772380083552064
 30
0.0
 40
0.125
 41
0.0
 71
     5
 72
     1
  1
51
 73
     1
 44
1.0
  0
MTEXT
  5
6BC
330
17
100
AcDbEntity
  8
DIM
 62
     7
100
AcDbMText
 10
6.041930699208235
 20
7.590593817335744
 30
0.0
 40
0.125
 41
0.0
 71
     5
 72
     1
  1
(2.008)
 73
     1
 44
1.0
  0
LINE
  5
6BD
330
17
100
AcDbEntity
  8
DIM
 62
     1
100
AcDbLine
 10
7.117930699208233
 20
6.793682723213678
 30
0.0
 11
7.737502792215181
 21
6.793682723213678
 31
0.0
  0
LINE
  5
6BE
330
17
100
AcDbEntity
  8
DIM
 62
     1
100
AcDbLine
 10
7.117930699208233
 20
4.785682723213678
 30
0.0
 11
7.737502792215181
 21
4.785682723213678
 31
0.0
  0
LINE
  5
6BF
330
17
100
AcDbEntity
  8
DIM
 62
     1
100
AcDbLine
 10
7.557502792215181
 20
6.613682723213679
 30
0.0
 11
7.557502792215181
 21
6.139149018713932
 31
0.0
  0
LINE
  5
6C0
330
17
100
AcDbEntity
  8
DIM
 62
     1
100
AcDbLine
 10
7.557502792215181
 20
4.965682723213678
 30
0.0
 11
7.557502792215181
 21
5.499306306621867
 31
0.0
  0
SOLID
  5
6C1
330
17
100
AcDbEntity
  8
DIM
 62
     1
100
AcDbTrace
 10
7.527502792215182
 20
6.613682723213679
 30
0.0
 11
7.587502792215181
 21
6.613682723213679
 31
0.0
 12
7.557502792215181
 22
6.793682723213678
 32
0.0
 13
7.557502792215181
 23
6.793682723213678
 33
0.0
  0
SOLID
  5
6C2
330
17
100
AcDbEntity
  8
DIM
 62
     1
100
AcDbTrace
 10
7.527502792215182
 20
4.965682723213678
 30
0.0
 11
7.587502792215181
 21
4.965682723213678
 31
0.0
 12
7.557502792215181
 22
4.785682723213678
 32
0.0
 13
7.557502792215181
 23
4.785682723213678
 33
0.0
  0
MTEXT
  5
6C3
330
17
100
AcDbEntity
  8
DIM
 62
     7
100
AcDbMText
 10
7.557502792215181
 20
5.976800713680552
 30
0.0
 40
0.125
 41
0.0
 71
     5
 72
     1
  1
\A1;51
 73
     1
 44
1.0
  0
MTEXT
  5
6C4
330
17
100
AcDbEntity
  8
DIM
 62
     7
100
AcDbMText
 10
7.557502792215181
 20
5.750289454371993
 30
0.0
 40
0.125
 41
0.0
 71
     5
 72
     1
  1
(2.008)
 73
     1
 44
1.0
  0
LINE
  5
6C5
330
17
100
AcDbEntity
  8
DIM
 62
     1
100
AcDbLine
 10
7.117930699208233
 20
6.793682723213678
 30
0.0
 11
8.683949664356916
 21
6.793682723213678
 31
0.0
  0
LINE
  5
6C6
330
17
100
AcDbEntity
  8
DIM
 62
     1
100
AcDbLine
 10
7.117930699208233
 20
4.39168272321368
 30
0.0
 11
8.683949664356916
 21
4.39168272321368
 31
0.0
  0
LINE
  5
6C7
330
17
100
AcDbEntity
  8
DIM
 62
     1
100
AcDbLine
 10
8.503949664356916
 20
6.613682723213679
 30
0.0
 11
8.503949664356916
 21
5.745182723213679
 31
0.0
  0
LINE
  5
6C8
330
17
100
AcDbEntity
  8
DIM
 62
     1
100
AcDbLine
 10
8.503949664356916
 20
4.57168272321368
 30
0.0
 11
8.503949664356916
 21
5.144733279963296
 31
0.0
  0
SOLID
  5
6C9
330
17
100
AcDbEntity
  8
DIM
 62
     1
100
AcDbTrace
 10
8.473949664356917
 20
6.613682723213679
 30
0.0
 11
8.533949664356915
 21
6.613682723213679
 31
0.0
 12
8.503949664356916
 22
6.793682723213678
 32
0.0
 13
8.503949664356916
 23
6.793682723213678
 33
0.0
  0
SOLID
  5
6CA
330
17
100
AcDbEntity
  8
DIM
 62
     1
100
AcDbTrace
 10
8.473949664356917
 20
4.57168272321368
 30
0.0
 11
8.533949664356915
 21
4.57168272321368
 31
0.0
 12
8.503949664356916
 22
4.39168272321368
 32
0.0
 13
8.503949664356916
 23
4.39168272321368
 33
0.0
  0
MTEXT
  5
6CB
330
17
100
AcDbEntity
  8
DIM
 62
     7
100
AcDbMText
 10
8.503949664356916
 20
5.592682723213679
 30
0.0
 40
0.125
 41
0.0
 71
     5
 72
     1
  1
60.7
 73
     1
 44
1.0
  0
MTEXT
  5
6CC
330
17
100
AcDbEntity
  8
DIM
 62
     7
100
AcDbMText
 10
8.503949664356916
 20
5.366171488259204
 30
0.0
 40
0.125
 41
0.0
 71
     5
 72
     1
  1
(2.390)
 73
     1
 44
1.0
  0
LINE
  5
6D4
330
17
100
AcDbEntity
  8
DIM
 62
     1
100
AcDbLine
 10
5.647930699208234
 20
4.44968272321368
 30
0.0
 11
5.647930699208234
 21
3.794928531517268
 31
0.0
  0
LINE
  5
6D5
330
17
100
AcDbEntity
  8
DIM
 62
     1
100
AcDbLine
 10
6.435930699208235
 20
4.44968272321368
 30
0.0
 11
6.435930699208235
 21
3.794928531517268
 31
0.0
  0
LINE
  5
6D6
330
17
100
AcDbEntity
  8
DIM
 62
     1
100
AcDbLine
 10
6.435930699208235
 20
3.974928531517267
 30
0.0
 11
6.738307188349768
 21
3.974928531517267
 31
0.0
  0
LINE
  5
6D7
330
17
100
AcDbEntity
  8
DIM
 62
     1
100
AcDbLine
 10
5.312025038539921
 20
3.974928531517267
 30
0.0
 11
5.492025038539921
 21
3.974928531517267
 31
0.0
  0
SOLID
  5
6D8
330
17
100
AcDbEntity
  8
DIM
 62
     1
100
AcDbTrace
 10
6.615930699208234
 20
4.004928531517268
 30
0.0
 11
6.615930699208234
 21
3.944928531517267
 31
0.0
 12
6.435930699208235
 22
3.974928531517267
 32
0.0
 13
6.435930699208235
 23
3.974928531517267
 33
0.0
  0
SOLID
  5
6D9
330
17
100
AcDbEntity
  8
DIM
 62
     1
100
AcDbTrace
 10
5.467930699208235
 20
4.004928531517268
 30
0.0
 11
5.467930699208235
 21
3.944928531517267
 31
0.0
 12
5.647930699208234
 22
3.974928531517267
 32
0.0
 13
5.647930699208234
 23
3.974928531517267
 33
0.0
  0
MTEXT
  5
6DA
330
17
100
AcDbEntity
  8
DIM
 62
     7
100
AcDbMText
 10
6.047991905022497
 20
3.974928531517267
 30
0.0
 40
0.125
 41
0.0
 71
     5
 72
     1
  1
\A1;20
 73
     1
 44
1.0
  0
MTEXT
  5
6DB
330
17
100
AcDbEntity
  8
DIM
 62
     7
100
AcDbMText
 10
6.047991905022497
 20
3.777962236017014
 30
0.0
 40
0.125
 41
0.0
 71
     5
 72
     1
  1
(.788)
 73
     1
 44
1.0
  0
LINE
  5
6E3
330
17
100
AcDbEntity
  8
DIM
 62
     1
100
AcDbLine
 10
6.435930699208235
 20
4.44968272321368
 30
0.0
 11
6.435930699208235
 21
4.011591461438364
 31
0.0
  0
LINE
  5
6E4
330
17
100
AcDbEntity
  8
DIM
 62
     1
100
AcDbLine
 10
6.829930699208235
 20
4.44418272321368
 30
0.0
 11
6.829930699208235
 21
4.128255706990518
 31
0.0
  0
LINE
  5
6E5
330
17
100
AcDbEntity
  8
DIM
 62
     1
100
AcDbLine
 10
6.255930699208235
 20
4.191591461438363
 30
0.0
 11
6.075930699208235
 21
4.191591461438363
 31
0.0
  0
LINE
  5
6E6
330
17
100
AcDbEntity
  8
DIM
 62
     1
100
AcDbLine
 10
7.009930699208235
 20
4.191591461438363
 30
0.0
 11
7.189930699208234
 21
4.191591461438363
 31
0.0
  0
SOLID
  5
6E7
330
17
100
AcDbEntity
  8
DIM
 62
     1
100
AcDbTrace
 10
6.255930699208235
 20
4.221591461438364
 30
0.0
 11
6.255930699208235
 21
4.161591461438363
 31
0.0
 12
6.435930699208235
 22
4.191591461438363
 32
0.0
 13
6.435930699208235
 23
4.191591461438363
 33
0.0
  0
SOLID
  5
6E8
330
17
100
AcDbEntity
  8
DIM
 62
     1
100
AcDbTrace
 10
7.009930699208235
 20
4.221591461438364
 30
0.0
 11
7.009930699208235
 21
4.161591461438363
 31
0.0
 12
6.829930699208235
 22
4.191591461438363
 32
0.0
 13
6.829930699208235
 23
4.191591461438363
 33
0.0
  0
MTEXT
  5
6E9
330
17
100
AcDbEntity
  8
DIM
 62
     7
100
AcDbMText
 10
7.441354035779152
 20
4.191591461438363
 30
0.0
 40
0.125
 41
0.0
 71
     5
 72
     1
  1
10 
 73
     1
 44
1.0
  0
MTEXT
  5
6EA
330
17
100
AcDbEntity
  8
DIM
 62
     7
100
AcDbMText
 10
7.441354085854381
 20
3.994625141584023
 30
0.0
 40
0.125
 41
0.0
 71
     5
 72
     1
  1
(.394)
 73
     1
 44
1.0
  0
LINE
  5
6EB
330
17
100
AcDbEntity
  8
DIM
 62
     1
100
AcDbLine
 10
5.191430699208234
 20
4.681182723213679
 30
0.0
 11
4.16528450809001
 21
4.681182723213679
 31
0.0
  0
LINE
  5
6EC
330
17
100
AcDbEntity
  8
DIM
 62
     1
100
AcDbLine
 10
5.191430699208234
 20
4.50668272321368
 30
0.0
 11
4.16528450809001
 21
4.50668272321368
 31
0.0
  0
LINE
  5
6ED
330
17
100
AcDbEntity
  8
DIM
 62
     1
100
AcDbLine
 10
4.264347559653295
 20
4.861182723213679
 30
0.0
 11
4.264347559653295
 21
5.04118272321368
 31
0.0
  0
LINE
  5
6EE
330
17
100
AcDbEntity
  8
DIM
 62
     1
100
AcDbLine
 10
4.264347559653295
 20
4.32668272321368
 30
0.0
 11
4.264347559653295
 21
4.14668272321368
 31
0.0
  0
LINE
  5
6EF
330
17
100
AcDbEntity
  8
DIM
 62
     1
100
AcDbLine
 10
4.444347559653294
 20
4.14668272321368
 30
0.0
 11
4.264347559653295
 21
4.14668272321368
 31
0.0
  0
SOLID
  5
6F0
330
17
100
AcDbEntity
  8
DIM
 62
     1
100
AcDbTrace
 10
4.234347559653295
 20
4.861182723213679
 30
0.0
 11
4.294347559653294
 21
4.861182723213679
 31
0.0
 12
4.264347559653295
 22
4.681182723213679
 32
0.0
 13
4.264347559653295
 23
4.681182723213679
 33
0.0
  0
SOLID
  5
6F1
330
17
100
AcDbEntity
  8
DIM
 62
     1
100
AcDbTrace
 10
4.234347559653295
 20
4.32668272321368
 30
0.0
 11
4.294347559653294
 21
4.32668272321368
 31
0.0
 12
4.264347559653295
 22
4.50668272321368
 32
0.0
 13
4.264347559653295
 23
4.50668272321368
 33
0.0
  0
MTEXT
  5
6F2
330
17
100
AcDbEntity
  8
DIM
 62
     7
100
AcDbMText
 10
4.673334075873549
 20
4.14668272321368
 30
0.0
 40
0.125
 41
0.0
 71
     5
 72
     1
  1
\A1;4.3
 73
     1
 44
1.0
  0
MTEXT
  5
6F3
330
17
100
AcDbEntity
  8
DIM
 62
     7
100
AcDbMText
 10
4.673334075873549
 20
3.910323158871737
 30
0.0
 40
0.125
 41
0.0
 71
     5
 72
     1
  1
(.169)
 73
     1
 44
1.0
  0
LINE
  5
6F4
330
17
100
AcDbEntity
  8
DIM
 62
     1
100
AcDbLine
 10
2.503538183747508
 20
6.856182723213678
 30
0.0
 11
2.503538183747508
 21
7.729866984808758
 31
0.0
  0
LINE
  5
6F5
330
17
100
AcDbEntity
  8
DIM
 62
     1
100
AcDbLine
 10
2.835838268326859
 20
6.856182723213678
 30
0.0
 11
2.835838268326859
 21
7.729866984808758
 31
0.0
  0
LINE
  5
6F6
330
17
100
AcDbEntity
  8
DIM
 62
     1
100
AcDbLine
 10
2.323538183747508
 20
7.549866984808758
 30
0.0
 11
2.143538183747508
 21
7.549866984808758
 31
0.0
  0
LINE
  5
6F7
330
17
100
AcDbEntity
  8
DIM
 62
     1
100
AcDbLine
 10
3.015838268326858
 20
7.549866984808758
 30
0.0
 11
3.195838268326859
 21
7.549866984808758
 31
0.0
  0
SOLID
  5
6F8
330
17
100
AcDbEntity
  8
DIM
 62
     1
100
AcDbTrace
 10
2.323538183747508
 20
7.579866984808758
 30
0.0
 11
2.323538183747508
 21
7.519866984808759
 31
0.0
 12
2.503538183747508
 22
7.549866984808758
 32
0.0
 13
2.503538183747508
 23
7.549866984808758
 33
0.0
  0
SOLID
  5
6F9
330
17
100
AcDbEntity
  8
DIM
 62
     1
100
AcDbTrace
 10
3.015838268326858
 20
7.579866984808758
 30
0.0
 11
3.015838268326858
 21
7.519866984808759
 31
0.0
 12
2.835838268326859
 22
7.549866984808758
 32
0.0
 13
2.835838268326859
 23
7.549866984808758
 33
0.0
  0
MTEXT
  5
6FA
330
17
100
AcDbEntity
  8
DIM
 62
     7
100
AcDbMText
 10
3.358596982716347
 20
7.549866984808758
 30
0.0
 40
0.125
 41
0.0
 71
     5
 72
     1
  1
7
 73
     1
 44
1.0
  0
MTEXT
  5
6FB
330
17
100
AcDbEntity
  8
DIM
 62
     7
100
AcDbMText
 10
3.358596982716347
 20
7.343052384275125
 30
0.0
 40
0.125
 41
0.0
 71
     5
 72
     1
  1
(.276)
 73
     1
 44
1.0
  0
LINE
  5
6FC
330
17
100
AcDbEntity
  8
DIM
 62
     1
100
AcDbLine
 10
2.69783826832686
 20
4.3327860009963
 30
0.0
 11
2.69783826832686
 21
3.986731928995921
 31
0.0
  0
LINE
  5
6FD
330
17
100
AcDbEntity
  8
DIM
 62
     1
100
AcDbLine
 10
2.83583826832686
 20
4.332786000996299
 30
0.0
 11
2.83583826832686
 21
3.983553470248083
 31
0.0
  0
LINE
  5
6FE
330
17
100
AcDbEntity
  8
DIM
 62
     1
100
AcDbLine
 10
2.51783826832686
 20
4.166731928995921
 30
0.0
 11
2.337838268326859
 21
4.166731928995921
 31
0.0
  0
LINE
  5
6FF
330
17
100
AcDbEntity
  8
DIM
 62
     1
100
AcDbLine
 10
3.015838268326859
 20
4.163553470248083
 30
0.0
 11
3.19583826832686
 21
4.163553470248083
 31
0.0
  0
SOLID
  5
701
330
17
100
AcDbEntity
  8
DIM
 62
     1
100
AcDbTrace
 10
2.51783826832686
 20
4.136731928995921
 30
0.0
 11
2.51783826832686
 21
4.196731928995921
 31
0.0
 12
2.69783826832686
 22
4.166731928995921
 32
0.0
 13
2.69783826832686
 23
4.166731928995921
 33
0.0
  0
SOLID
  5
702
330
17
100
AcDbEntity
  8
DIM
 62
     1
100
AcDbTrace
 10
3.01583826832686
 20
4.133553470248083
 30
0.0
 11
3.01583826832686
 21
4.193553470248083
 31
0.0
 12
2.83583826832686
 22
4.163553470248083
 32
0.0
 13
2.83583826832686
 23
4.163553470248083
 33
0.0
  0
MTEXT
  5
703
330
17
100
AcDbEntity
  8
DIM
 62
     7
100
AcDbMText
 10
2.128706408907051
 20
4.167598239604273
 30
0.0
 40
0.125
 41
0.0
 71
     5
 72
     1
  1
3.5
 73
     1
 44
1.0
  0
MTEXT
  5
704
330
17
100
AcDbEntity
  8
DIM
 62
     7
100
AcDbMText
 10
2.128706408907051
 20
3.960783614716553
 30
0.0
 40
0.125
 41
0.0
 71
     5
 72
     1
  1
(.138)
 73
     1
 44
1.0
  0
LINE
  5
BC7
330
17
100
AcDbEntity
  8
FORM
100
AcDbLine
 10
2.695377489052576
 20
1.989130419728978
 30
0.0
 11
0.25
 21
1.989130419728978
 31
0.0
  0
TEXT
  5
BC8
330
17
100
AcDbEntity
  8
FORM
100
AcDbText
 10
0.9766218010942354
 20
1.831598449722397
 30
0.0
 40
0.09
  1
E.O. N.O.
 72
     4
 11
1.289478943951378
 21
1.876598449722397
 31
0.0
100
AcDbText
  0
TEXT
  5
BC9
330
17
100
AcDbEntity
  8
FORM
100
AcDbText
 10
0.2842857125303047
 20
1.831598449722397
 30
0.0
 40
0.09
  1
REV.
 72
     4
 11
0.4299999982445905
 21
1.876598449722397
 31
0.0
100
AcDbText
  0
TEXT
  5
BCA
330
17
100
AcDbEntity
  8
FORM
100
AcDbText
 10
2.727228862851443
 20
1.755392835964501
 30
0.0
 40
0.05
  1
DIMENSIONS ARE IN INCHES
 72
     1
 11
3.262943148565729
 21
1.755392835964501
 31
0.0
100
AcDbText
  0
TEXT
  5
BCB
330
17
100
AcDbEntity
  8
FORM
100
AcDbText
 10
2.727278038080573
 20
1.588726169297835
 30
0.0
 40
0.05
  1
FRACTION      DECIMALS      ANGLES
 72
     1
 11
3.517754228556763
 21
1.588726169297835
 31
0.0
100
AcDbText
  0
TEXT
  5
BCC
330
17
100
AcDbEntity
  8
FORM
100
AcDbText
 10
2.737399617384427
 20
1.672059502631168
 30
0.0
 40
0.05
  1
TOLERANCES ON
 72
     1
 11
3.043351998336809
 21
1.672059502631168
 31
0.0
100
AcDbText
  0
TEXT
  5
BCD
330
17
100
AcDbEntity
  8
FORM
100
AcDbText
 10
2.723850086181901
 20
0.5138388340507319
 30
0.0
 40
0.07
  1
SCALE
100
AcDbText
  0
TEXT
  5
BCE
330
17
100
AcDbEntity
  8
FORM
100
AcDbText
 10
4.458468624149955
 20
1.872959498187011
 30
0.0
 40
0.07
  1
DWN.
100
AcDbText
  0
TEXT
  5
BCF
330
17
100
AcDbEntity
  8
FORM
100
AcDbText
 10
4.458468624149955
 20
1.398258681090509
 30
0.0
 40
0.07
  1
DATE
100
AcDbText
  0
LINE
  5
BD0
330
17
100
AcDbEntity
  8
FORM
100
AcDbLine
 10
2.695377489052576
 20
1.989130419728978
 30
0.0
 11
4.415211632832586
 21
1.989130419728978
 31
0.0
  0
TEXT
  5
BD1
330
17
100
AcDbEntity
  8
FORM
100
AcDbText
 10
2.97231839781857
 20
1.892684021717673
 30
0.0
 40
0.05
  1
UNLESS OTHERWISE SPECIFIED
 72
     4
 11
3.554461254961427
 21
1.917684021717673
 31
0.0
100
AcDbText
  0
TEXT
  5
BD5
330
17
100
AcDbEntity
  8
FORM
100
AcDbText
 10
7.657869070352465
 20
0.4599197610249633
 30
0.0
 40
0.08
  1
NO.
100
AcDbText
  0
TEXT
  5
BD6
330
17
100
AcDbEntity
  8
FORM
100
AcDbText
 10
7.657869070352465
 20
0.5932530943582961
 30
0.0
 40
0.08
  1
DWG.
100
AcDbText
  0
TEXT
  5
BD8
330
17
100
AcDbEntity
  8
FORM
100
AcDbText
 10
2.030714285468466
 20
1.831598449722397
 30
0.0
 40
0.09
  1
DRAFTER
 72
     4
 11
2.31999999975418
 21
1.876598449722397
 31
0.0
100
AcDbText
  0
TEXT
  5
BD9
330
17
100
AcDbEntity
  8
FORM
100
AcDbText
 10
2.723850086181901
 20
0.8923554340507319
 30
0.0
 40
0.07
  1
FINISH
100
AcDbText
  0
TEXT
  5
BDA
330
17
100
AcDbEntity
  8
FORM
100
AcDbText
 10
2.723850086181901
 20
1.270872034050731
 30
0.0
 40
0.07
  1
MATERIAL
100
AcDbText
  0
TEXT
  5
BDD
330
17
100
AcDbEntity
  8
FORM
100
AcDbText
 10
4.46209378020576
 20
0.8379779333667888
 30
0.0
 40
0.06
  1
THIS DRAWING IS PROPERTY OF THE
 72
     1
 11
5.303522351634332
 21
0.8379779333667888
 31
0.0
100
AcDbText
  0
TEXT
  5
BDF
330
17
100
AcDbEntity
  8
FORM
100
AcDbText
 10
4.686379494491474
 20
0.6436922190810746
 30
0.0
 40
0.06
  1
NOT BE COPIED, USED OR
 72
     1
 11
5.303522351634332
 21
0.6436922190810746
 31
0.0
100
AcDbText
  0
TEXT
  5
BE0
330
17
100
AcDbEntity
  8
FORM
100
AcDbText
 10
4.590665208777189
 20
0.5465493619382174
 30
0.0
 40
0.06
  1
DISCLOSED FOR ANY PURPOSE
 72
     1
 11
5.303522351634332
 21
0.5465493619382174
 31
0.0
100
AcDbText
  0
TEXT
  5
BE1
330
17
100
AcDbEntity
  8
FORM
100
AcDbText
 10
4.477808065920046
 20
0.4494065047953601
 30
0.0
 40
0.06
  1
EXCEPT AS AUTHORIZED IN WRITING
 72
     1
 11
5.303522351634332
 21
0.4494065047953601
 31
0.0
100
AcDbText
  0
TEXT
  5
BE3
330
17
100
AcDbEntity
  8
FORM
100
AcDbText
 10
7.661052896581039
 20
0.2814285576370099
 30
0.0
 40
0.08
  1
SIZE  A  SHEET     OF
 11
7.661052896581039
 21
0.3214285576370099
 31
0.0
100
AcDbText
 73
     2
  0
LINE
  5
BE4
330
17
100
AcDbEntity
  8
FORM
100
AcDbLine
 10
4.426533112099226
 20
1.498081847880708
 30
0.0
 11
6.182221322797538
 21
1.498081847880708
 31
0.0
  0
LINE
  5
BE5
330
17
100
AcDbEntity
  8
FORM
100
AcDbLine
 10
0.25
 20
1.007033276032438
 30
0.0
 11
6.182221322797538
 21
1.007033276032439
 31
0.0
  0
LINE
  5
BE6
330
17
100
AcDbEntity
  8
FORM
100
AcDbLine
 10
0.25
 20
1.989130419728978
 30
0.0
 11
10.71
 21
1.989130419728977
 31
0.0
  0
LINE
  5
BE7
330
17
100
AcDbEntity
  8
FORM
100
AcDbLine
 10
10.71
 20
8.209999999999999
 30
0.0
 11
0.25
 21
8.210016413185645
 31
0.0
  0
LINE
  5
BE8
330
17
100
AcDbEntity
  8
FORM
100
AcDbLine
 10
0.25
 20
8.210016413185645
 30
0.0
 11
0.25
 21
0.25
 31
0.0
  0
LINE
  5
BE9
330
17
100
AcDbEntity
  8
FORM
100
AcDbLine
 10
0.25
 20
0.25
 30
0.0
 11
10.71
 21
0.25
 31
0.0
  0
LINE
  5
BEA
330
17
100
AcDbEntity
  8
FORM
100
AcDbLine
 10
10.71
 20
0.25
 30
0.0
 11
10.71
 21
8.209999999999999
 31
0.0
  0
LINE
  5
BEB
330
17
100
AcDbEntity
  8
FORM
100
AcDbLine
 10
0.25
 20
1.385549876032439
 30
0.0
 11
4.428922508542364
 21
1.385549876032438
 31
0.0
  0
LINE
  5
BEC
330
17
100
AcDbEntity
  8
FORM
100
AcDbLine
 10
0.25
 20
1.764066479715818
 30
0.0
 11
2.68000000138049
 21
1.764066479715818
 31
0.0
  0
LINE
  5
BED
330
17
100
AcDbEntity
  8
FORM
100
AcDbLine
 10
0.25
 20
0.4392583760324392
 30
0.0
 11
2.68000000138049
 21
0.4392583760324389
 31
0.0
  0
LINE
  5
BEE
330
17
100
AcDbEntity
  8
FORM
100
AcDbLine
 10
0.25
 20
0.6285166760324392
 30
0.0
 11
4.428922508542364
 21
0.6285166760324388
 31
0.0
  0
LINE
  5
BEF
330
17
100
AcDbEntity
  8
FORM
100
AcDbLine
 10
0.25
 20
0.817774976032439
 30
0.0
 11
2.68000000138049
 21
0.8177749760324388
 31
0.0
  0
LINE
  5
BF0
330
17
100
AcDbEntity
  8
FORM
100
AcDbLine
 10
0.25
 20
1.196291576032439
 30
0.0
 11
2.68000000138049
 21
1.196291576032438
 31
0.0
  0
LINE
  5
BF1
330
17
100
AcDbEntity
  8
FORM
100
AcDbLine
 10
0.25
 20
1.574808176032439
 30
0.0
 11
2.68000000138049
 21
1.574808176032438
 31
0.0
  0
LINE
  5
BF2
330
17
100
AcDbEntity
  8
FORM
100
AcDbLine
 10
1.95999999812787
 20
1.989130419728978
 30
0.0
 11
1.95999999812787
 21
0.2483302711109045
 31
0.0
  0
LINE
  5
BF3
330
17
100
AcDbEntity
  8
FORM
100
AcDbLine
 10
0.609999996489181
 20
1.989130419728978
 30
0.0
 11
0.609999996489181
 21
0.25
 31
0.0
  0
LINE
  5
BF4
330
17
100
AcDbEntity
  8
FORM
100
AcDbLine
 10
2.68000000138049
 20
1.989130419728978
 30
0.0
 11
2.68000000138049
 21
0.2499999999999999
 31
0.0
  0
LINE
  5
BF5
330
17
100
AcDbEntity
  8
FORM
100
AcDbLine
 10
4.428922508542364
 20
1.989130419728978
 30
0.0
 11
4.428922508542364
 21
0.25
 31
0.0
  0
LINE
  5
BF6
330
17
100
AcDbEntity
  8
FORM
100
AcDbLine
 10
2.68000000138049
 20
1.846237623706368
 30
0.0
 11
4.428922508542364
 21
1.846237623706368
 31
0.0
  0
LINE
  5
BF7
330
17
100
AcDbEntity
  8
FORM
100
AcDbLine
 10
4.428922508542364
 20
1.846237623706368
 30
0.0
 11
4.428922508542364
 21
1.846237623706368
 31
0.0
  0
LINE
  5
BF8
330
17
100
AcDbEntity
  8
FORM
100
AcDbLine
 10
6.182221322797538
 20
0.3928571152740196
 30
0.0
 11
10.24124999999999
 21
0.3928571152740196
 31
0.0
  0
LINE
  5
BF9
330
17
100
AcDbEntity
  8
FORM
100
AcDbLine
 10
10.71
 20
0.739130419728978
 30
0.0
 11
6.182221322797538
 21
0.7391304197289781
 31
0.0
  0
LINE
  5
BFA
330
17
100
AcDbEntity
  8
FORM
100
AcDbLine
 10
6.182221322797538
 20
1.989130419728978
 30
0.0
 11
6.182221322797538
 21
0.25
 31
0.0
  0
LINE
  5
BFB
330
17
100
AcDbEntity
  8
FORM
100
AcDbLine
 10
6.812221322797538
 20
0.7391304197289781
 30
0.0
 11
6.812221322797537
 21
0.25
 31
0.0
  0
LINE
  5
BFC
330
17
100
AcDbEntity
  8
FORM
100
AcDbLine
 10
7.532221322797537
 20
0.7391304197289781
 30
0.0
 11
7.532221322797537
 21
0.25
 31
0.0
  0
LINE
  5
BFD
330
17
100
AcDbEntity
  8
FORM
100
AcDbLine
 10
9.21571735032967
 20
1.989130419728978
 30
0.0
 11
9.215717350329672
 21
0.7391304197289781
 31
0.0
  0
TEXT
  5
C06
330
17
100
AcDbEntity
  8
0
100
AcDbText
 10
10.34610119047619
 20
0.6164179222667118
 30
0.0
 40
0.08
  1
REV.
 72
     4
 11
10.475625
 21
0.6564179222667118
 31
0.0
100
AcDbText
  0
LINE
  5
C07
330
17
100
AcDbEntity
  8
0
100
AcDbLine
 10
10.24124999999999
 20
0.739130419728978
 30
0.0
 11
10.24124999999999
 21
0.25
 31
0.0
  0
LINE
  5
C08
330
17
100
AcDbEntity
  8
0
100
AcDbLine
 10
10.24124999999999
 20
0.5737054248044457
 30
0.0
 11
10.71
 21
0.5737054248044457
 31
0.0
  0
TEXT
  5
C09
330
17
100
AcDbEntity
  8
0
100
AcDbText
 10
10.41610119047619
 20
0.3683483051416797
 30
0.0
 40
0.125
  1
2
 72
     4
 11
10.475625
 21
0.4308483051416797
 31
0.0
100
AcDbText
  0
TEXT
  5
C0A
330
17
100
AcDbEntity
  8
0
100
AcDbText
 10
9.333896903985653
 20
0.2780634965791637
 30
0.0
 40
0.08
  1
1
 72
     4
 11
9.366277856366606
 21
0.3180634965791636
 31
0.0
100
AcDbText
  0
TEXT
  5
C0B
330
17
100
AcDbEntity
  8
0
100
AcDbText
 10
8.882304285335443
 20
0.2878708720998364
 30
0.0
 40
0.08
  1
1
 72
     4
 11
8.914685237716396
 21
0.3278708720998363
 31
0.0
100
AcDbText
  0
TEXT
  5
C0F
330
17
100
AcDbEntity
  8
FORM
100
AcDbText
 10
7.020370346903886
 20
1.593495045125333
 30
0.0
 40
0.2
  1
REFLECTOR
100
AcDbText
  0
TEXT
  5
C10
330
17
100
AcDbEntity
  8
FORM
100
AcDbText
 10
8.227784726103505
 20
0.5041937141522688
 30
0.0
 40
0.15
  1
92-118
100
AcDbText
  0
TEXT
  5
C12
330
17
100
AcDbEntity
  8
FORM
100
AcDbText
 10
4.854687249223998
 20
1.221741701840059
 30
0.0
 40
0.09
  1
10/1/00
100
AcDbText
  0
LINE
  5
C16
330
17
100
AcDbEntity
  8
OBJECT
100
AcDbLine
 10
3.495009112239273
 20
1.170760346989332
 30
0.0
 11
4.07495641081266
 21
1.170760346989332
 31
0.0
  0
LINE
  5
C17
330
17
100
AcDbEntity
  8
OBJECT
100
AcDbLine
 10
3.605686068576602
 20
1.095580614314133
 30
0.0
 11
3.694227675439805
 21
1.237095429071487
 31
0.0
  0
LINE
  5
C18
330
17
100
AcDbEntity
  8
OBJECT
100
AcDbLine
 10
3.773915017133347
 20
1.095580614314133
 30
0.0
 11
3.86245662399655
 21
1.237095429071487
 31
0.0
  0
LINE
  5
C19
330
17
100
AcDbEntity
  8
OBJECT
100
AcDbLine
 10
3.495009112239273
 20
0.825818028233769
 30
0.0
 11
4.07495641081266
 21
0.825818028233769
 31
0.0
  0
LINE
  5
C1A
330
17
100
AcDbEntity
  8
OBJECT
100
AcDbLine
 10
3.773915017133347
 20
0.75063829555857
 30
0.0
 11
3.86245662399655
 21
0.8921531103159239
 31
0.0
  0
LINE
  5
C1B
330
17
100
AcDbEntity
  8
OBJECT
100
AcDbLine
 10
3.605686068576602
 20
0.75063829555857
 30
0.0
 11
3.694227675439805
 21
0.8921531103159239
 31
0.0
  0
TEXT
  5
C29
330
17
100
AcDbEntity
  8
FORM
100
AcDbText
 10
6.805966963519544
 20
0.9129212136623259
 30
0.0
 40
0.2
  1
RECTANGULAR
100
AcDbText
  0
LINE
  5
C2A
330
17
100
AcDbEntity
  8
OBJECT
100
AcDbLine
 10
3.773915017133347
 20
0.3618649076656766
 30
0.0
 11
3.86245662399655
 21
0.5033797224230306
 31
0.0
  0
LINE
  5
C2B
330
17
100
AcDbEntity
  8
OBJECT
100
AcDbLine
 10
3.605686068576602
 20
0.3618649076656766
 30
0.0
 11
3.694227675439805
 21
0.5033797224230306
 31
0.0
  0
LINE
  5
C2C
330
17
100
AcDbEntity
  8
OBJECT
100
AcDbLine
 10
3.495009112239273
 20
0.4370446403408757
 30
0.0
 11
4.07495641081266
 21
0.4370446403408757
 31
0.0
  0
TEXT
  5
C3D
330
17
100
AcDbEntity
  8
FORM
100
AcDbText
 10
7.42119451108474
 20
1.222639888312532
 30
0.0
 40
0.2
  1
MICRO
100
AcDbText
  0
LINE
  5
C3F
102
{ACAD_REACTORS
330
C78
102
}
330
17
100
AcDbEntity
  8
OBJECT
100
AcDbLine
 10
5.233330699208234
 20
6.588764942157677
 30
0.0
 11
6.850530699208234
 21
6.588764942157674
 31
0.0
  0
LINE
  5
C40
102
{ACAD_REACTORS
330
C78
102
}
330
17
100
AcDbEntity
  8
OBJECT
100
AcDbLine
 10
5.233330699208236
 20
4.990582723213678
 30
0.0
 11
6.850530699208235
 21
4.990582723213677
 31
0.0
  0
LINE
  5
C41
102
{ACAD_REACTORS
330
C78
102
}
330
17
100
AcDbEntity
  8
OBJECT
100
AcDbLine
 10
5.233330699208236
 20
4.990582723213679
 30
0.0
 11
5.233330699208234
 21
6.588764942157677
 31
0.0
  0
LINE
  5
C42
102
{ACAD_REACTORS
330
C78
102
}
330
17
100
AcDbEntity
  8
OBJECT
100
AcDbLine
 10
6.850530699208235
 20
4.990582723213677
 30
0.0
 11
6.850530699208233
 21
6.588764942157674
 31
0.0
  0
LINE
  5
C4A
330
17
100
AcDbEntity
  8
DIM
 62
     1
100
AcDbLine
 10
4.441683938927112
 20
4.990582723213678
 30
0.0
 11
5.168405026588585
 21
4.990582723213678
 31
0.0
  0
LINE
  5
C4B
330
17
100
AcDbEntity
  8
DIM
 62
     1
100
AcDbLine
 10
4.441683938927112
 20
6.588764942157677
 30
0.0
 11
5.17768012850826
 21
6.588764942157677
 31
0.0
  0
SOLID
  5
C4C
330
17
100
AcDbEntity
  8
DIM
 62
     1
100
AcDbTrace
 10
4.532260182246732
 20
6.408764942157677
 30
0.0
 11
4.592260182246731
 21
6.408764942157677
 31
0.0
 12
4.562260182246731
 22
6.588764942157677
 32
0.0
 13
4.562260182246731
 23
6.588764942157677
 33
0.0
  0
LINE
  5
C4D
330
17
100
AcDbEntity
  8
DIM
 62
     1
100
AcDbLine
 10
4.562260182246731
 20
6.408764942157677
 30
0.0
 11
4.562260182246731
 21
6.101057808191248
 31
0.0
  0
LINE
  5
C4E
330
17
100
AcDbEntity
  8
DIM
 62
     1
100
AcDbLine
 10
4.562260182246731
 20
5.170582723213678
 30
0.0
 11
4.562260182246731
 21
5.551281948359819
 31
0.0
  0
SOLID
  5
C4F
330
17
100
AcDbEntity
  8
DIM
 62
     1
100
AcDbTrace
 10
4.532260182246732
 20
5.170582723213678
 30
0.0
 11
4.592260182246731
 21
5.170582723213678
 31
0.0
 12
4.562260182246731
 22
4.990582723213679
 32
0.0
 13
4.562260182246731
 23
4.990582723213679
 33
0.0
  0
MTEXT
  5
C50
330
17
100
AcDbEntity
  8
DIM
 62
     7
100
AcDbMText
 10
4.561646015065349
 20
5.976800713680552
 30
0.0
 40
0.125
 41
0.0
 71
     5
 72
     1
  1
40
 73
     1
 44
1.0
  0
MTEXT
  5
C51
330
17
100
AcDbEntity
  8
DIM
 62
     7
100
AcDbMText
 10
4.561646015065349
 20
5.750289454371993
 30
0.0
 40
0.125
 41
0.0
 71
     5
 72
     1
  1
(1.575)
 73
     1
 44
1.0
  0
LINE
  5
C5A
330
17
100
AcDbEntity
  8
DIM
 62
     1
100
AcDbLine
 10
5.413330699208234
 20
7.235504374432865
 30
0.0
 11
5.77010383418616
 21
7.235504374432865
 31
0.0
  0
SOLID
  5
C5B
330
17
100
AcDbEntity
  8
DIM
 62
     1
100
AcDbTrace
 10
5.413330699208234
 20
7.265504374432865
 30
0.0
 11
5.413330699208234
 21
7.205504374432866
 31
0.0
 12
5.233330699208234
 22
7.235504374432865
 32
0.0
 13
5.233330699208234
 23
7.235504374432865
 33
0.0
  0
LINE
  5
C5C
330
17
100
AcDbEntity
  8
DIM
 62
     1
100
AcDbLine
 10
5.233330699208234
 20
6.646746872682594
 30
0.0
 11
5.233330699208234
 21
7.335249500969998
 31
0.0
  0
LINE
  5
C5D
330
17
100
AcDbEntity
  8
DIM
 62
     1
100
AcDbLine
 10
6.670530699208233
 20
7.238714568440253
 30
0.0
 11
6.310544973918339
 21
7.238714568440253
 31
0.0
  0
SOLID
  5
C5E
330
17
100
AcDbEntity
  8
DIM
 62
     1
100
AcDbTrace
 10
6.670530699208233
 20
7.268714568440253
 30
0.0
 11
6.670530699208233
 21
7.208714568440254
 31
0.0
 12
6.850530699208233
 22
7.238714568440253
 32
0.0
 13
6.850530699208233
 23
7.238714568440253
 33
0.0
  0
LINE
  5
C5F
330
17
100
AcDbEntity
  8
DIM
 62
     1
100
AcDbLine
 10
6.850530699208233
 20
6.649957066689982
 30
0.0
 11
6.850530699208233
 21
7.338459694977387
 31
0.0
  0
MTEXT
  5
C60
330
17
100
AcDbEntity
  8
DIM
 62
     7
100
AcDbMText
 10
6.041930699208235
 20
7.236277567927377
 30
0.0
 40
0.125
 41
0.0
 71
     5
 72
     1
  1
38
 73
     1
 44
1.0
  0
MTEXT
  5
C61
330
17
100
AcDbEntity
  8
DIM
 62
     7
100
AcDbMText
 10
6.041930699208235
 20
7.054491301711056
 30
0.0
 40
0.125
 41
0.0
 71
     5
 72
     1
  1
(1.496)
 73
     1
 44
1.0
  0
LINE
  5
C65
330
17
100
AcDbEntity
  8
OBJECT
100
AcDbLine
 10
2.789378321162148
 20
4.837310286871102
 30
0.0
 11
2.610998438849881
 21
4.8373102868711
 31
0.0
  0
LINE
  5
C66
330
17
100
AcDbEntity
  8
OBJECT
100
AcDbLine
 10
2.789378321162148
 20
6.742767954799348
 30
0.0
 11
2.610998438849879
 21
6.742767954799349
 31
0.0
  0
LINE
  5
C67
330
17
100
AcDbEntity
  8
OBJECT
100
AcDbLine
 10
2.610998438849881
 20
4.78568272321368
 30
0.0
 11
2.610998438849879
 21
6.793682723213678
 31
0.0
  0
LINE
  5
C68
330
17
100
AcDbEntity
  8
OBJECT
100
AcDbLine
 10
2.610998438849879
 20
6.585105984651143
 30
0.0
 11
2.583950391774788
 21
6.585105984651143
 31
0.0
  0
LINE
  5
C69
330
17
100
AcDbEntity
  8
OBJECT
100
AcDbLine
 10
2.61099843884988
 20
4.990467635951681
 30
0.0
 11
2.583950391774789
 21
4.990467635951681
 31
0.0
  0
LINE
  5
C6A
330
17
100
AcDbEntity
  8
OBJECT
100
AcDbLine
 10
2.583950391774789
 20
4.990467635951681
 30
0.0
 11
2.583950391774788
 21
6.585105984651144
 31
0.0
  0
LINE
  5
C6B
330
17
100
AcDbEntity
  8
OBJECT
100
AcDbLine
 10
2.532574621382185
 20
6.763414167669981
 30
0.0
 11
2.505371098079426
 21
6.763414167669981
 31
0.0
  0
LINE
  5
C6C
330
17
100
AcDbEntity
  8
OBJECT
100
AcDbLine
 10
2.532574621382186
 20
4.810761461465411
 30
0.0
 11
2.505371098079427
 21
4.810761461465411
 31
0.0
  0
LINE
  5
C6D
330
17
100
AcDbEntity
  8
OBJECT
100
AcDbLine
 10
2.505371098079427
 20
4.78568272321368
 30
0.0
 11
2.505371098079427
 21
4.810761461465411
 31
0.0
  0
LINE
  5
C6E
330
17
100
AcDbEntity
  8
OBJECT
100
AcDbLine
 10
2.505371098079425
 20
6.763414167669981
 30
0.0
 11
2.505371098079425
 21
6.793682723213678
 31
0.0
  0
HATCH
  5
C78
330
17
100
AcDbEntity
  8
OBJECT
100
AcDbHatch
 10
0.0
 20
0.0
 30
0.0
210
0.0
220
0.0
230
1.0
  2
HONEY
 70
     0
 71
     1
 91
        1
 92
        7
 72
     0
 73
     1
 93
        4
 10
6.850530699208232
 20
6.588764942157674
 10
5.233330699208234
 20
6.588764942157676
 10
5.233330699208236
 20
4.990582723213679
 10
6.850530699208236
 20
4.990582723213676
 97
        4
330
C3F
330
C41
330
C40
330
C42
 75
     0
 76
     1
 52
0.0
 41
0.2
 77
     0
 78
     3
 53
0.0
 43
0.0
 44
0.0
 45
0.0375
 46
0.021650635
 79
     2
 49
0.025
 49
-0.05
 53
120.0
 43
0.0
 44
0.0
 45
-0.0374999999180645
 46
0.0216506351419165
 79
     2
 49
0.025
 49
-0.05
 53
60.0
 43
0.0
 44
0.0
 45
0.0000000000819355
 46
0.0433012701419165
 79
     2
 49
-0.05
 49
0.025
 47
0.0030030853189313
 98
        1
 10
6.385982910011438
 20
6.204361333120026
  0
MTEXT
  5
C90
330
17
100
AcDbEntity
  8
DIM
 62
     7
100
AcDbMText
 10
5.308950151995341
 20
3.051283364039961
 30
0.0
 40
0.125
 41
0.0
 71
     1
 72
     1
  1
2. UNLESS OTHERWISE SPECIFIED ALL\PDIMENSIONS ARE mm (INCHES)\PAND ARE FOR REFERENCE ONLY.
 73
     1
 44
1.0
  0
MTEXT
  5
C91
330
17
100
AcDbEntity
  8
DIM
 62
     7
100
AcDbMText
 10
4.897782419345078
 20
3.54486408911027
 30
0.0
 40
0.125
 41
0.0
 71
     1
 72
     1
  1
NOTES:
 73
     1
 44
1.0
  0
TEXT
  5
C92
330
17
100
AcDbEntity
  8
FORM
100
AcDbText
 10
9.294506914046444
 20
1.041900775029183
 30
0.0
 40
0.07
  1
CHELMSFORD, MA. 01824
100
AcDbText
  0
TEXT
  5
C93
330
17
100
AcDbEntity
  8
FORM
100
AcDbText
 10
9.418841673999887
 20
1.199271220002631
 30
0.0
 40
0.07
  1
2 EXECUTIVE DRIVE
100
AcDbText
  0
TEXT
  5
C94
330
17
100
AcDbEntity
  8
FORM
100
AcDbText
 10
9.266258142847716
 20
1.406147490675127
 30
0.0
 40
0.15
  1
AUTOMATION
100
AcDbText
  0
TEXT
  5
C95
330
17
100
AcDbEntity
  8
FORM
100
AcDbText
 10
9.266258142847716
 20
1.619433408912847
 30
0.0
 40
0.15
  1
ROCKWELL
100
AcDbText
  0
TEXT
  5
CA2
330
17
100
AcDbEntity
  8
FORM
100
AcDbText
 10
4.536379494491475
 20
0.7408350762239318
 30
0.0
 40
0.06
  1
ROCKWELL AUTOMATION AND MAY
 72
     1
 11
5.303522351634332
 21
0.7408350762239318
 31
0.0
100
AcDbText
  0
TEXT
  5
CA3
330
17
100
AcDbEntity
  8
FORM
100
AcDbText
 10
4.673522351634332
 20
0.3522636476525029
 30
0.0
 40
0.06
  1
BY ROCKWELL AUTOMATION.
 72
     1
 11
5.303522351634332
 21
0.3522636476525029
 31
0.0
100
AcDbText
  0
ENDSEC
  0
SECTION
  2
OBJECTS
  0
DICTIONARY
  5
C
330
0
100
AcDbDictionary
281
     1
  3
ACAD_COLOR
350
CD1
  3
ACAD_GROUP
350
D
  3
ACAD_LAYOUT
350
C7E
  3
ACAD_MATERIAL
350
CA7
  3
ACAD_MLEADERSTYLE
350
CF6
  3
ACAD_MLINESTYLE
350
1A
  3
ACAD_PLOTSETTINGS
350
C7F
  3
ACAD_PLOTSTYLENAME
350
C7C
  3
ACAD_SCALELIST
350
CD4
  3
ACAD_TABLESTYLE
350
CD2
  3
ACAD_VISUALSTYLE
350
CC0
  3
ACDB_RECOMPOSE_DATA
350
D10
  3
ACDBVARIABLEDICTIONARY
350
2C
  0
DICTIONARY
  5
CFB
330
E
100
AcDbDictionary
280
     1
281
     1
  3
ADSK_XREC_LAYER_RECONCILED
360
CFC
  0
DICTIONARY
  5
CFD
330
21
100
AcDbDictionary
280
     1
281
     1
  3
ADSK_XREC_LAYER_RECONCILED
360
CFE
  0
DICTIONARY
  5
CFF
330
22
100
AcDbDictionary
280
     1
281
     1
  3
ADSK_XREC_LAYER_RECONCILED
360
D00
  0
DICTIONARY
  5
D01
330
23
100
AcDbDictionary
280
     1
281
     1
  3
ADSK_XREC_LAYER_RECONCILED
360
D02
  0
DICTIONARY
  5
D03
330
24
100
AcDbDictionary
280
     1
281
     1
  3
ADSK_XREC_LAYER_RECONCILED
360
D04
  0
DICTIONARY
  5
D05
330
25
100
AcDbDictionary
280
     1
281
     1
  3
ADSK_XREC_LAYER_RECONCILED
360
D06
  0
DICTIONARY
  5
D07
330
26
100
AcDbDictionary
280
     1
281
     1
  3
ADSK_XREC_LAYER_RECONCILED
360
D08
  0
DICTIONARY
  5
D09
330
27
100
AcDbDictionary
280
     1
281
     1
  3
ADSK_XREC_LAYER_RECONCILED
360
D0A
  0
DICTIONARY
  5
CD1
102
{ACAD_REACTORS
330
C
102
}
330
C
100
AcDbDictionary
281
     1
  0
DICTIONARY
  5
D
102
{ACAD_REACTORS
330
C
102
}
330
C
100
AcDbDictionary
281
     1
  0
DICTIONARY
  5
C7E
102
{ACAD_REACTORS
330
C
102
}
330
C
100
AcDbDictionary
281
     1
  3
Layout1
350
C81
  3
Model
350
C80
  0
DICTIONARY
  5
CA7
102
{ACAD_REACTORS
330
C
102
}
330
C
100
AcDbDictionary
281
     1
  3
ByBlock
350
CB0
  3
ByLayer
350
CA8
  3
Global
350
CB8
  0
DICTIONARY
  5
CF6
102
{ACAD_REACTORS
330
C
102
}
330
C
100
AcDbDictionary
281
     1
  3
Standard
350
CF7
  0
DICTIONARY
  5
1A
102
{ACAD_REACTORS
330
C
102
}
330
C
100
AcDbDictionary
281
     1
  3
STANDARD
350
1B
  0
DICTIONARY
  5
C7F
102
{ACAD_REACTORS
330
C
102
}
330
C
100
AcDbDictionary
281
     1
  0
ACDBDICTIONARYWDFLT
  5
C7C
102
{ACAD_REACTORS
330
C
102
}
330
C
100
AcDbDictionary
281
     1
  3
Normal
350
C7D
100
AcDbDictionaryWithDefault
340
C7D
  0
DICTIONARY
  5
CD4
102
{ACAD_REACTORS
330
C
102
}
330
C
100
AcDbDictionary
281
     1
  3
A0
350
CD5
  3
A1
350
CD6
  3
A2
350
CD7
  3
A3
350
CD8
  3
A4
350
CD9
  3
A5
350
CDA
  3
A6
350
CDB
  3
A7
350
CDC
  3
A8
350
CDD
  3
A9
350
CDE
  3
B0
350
CDF
  3
B1
350
CE0
  3
B2
350
CE1
  3
B3
350
CE2
  3
B4
350
CE3
  3
B5
350
CE4
  3
B6
350
CE5
  3
B7
350
CE6
  3
B8
350
CE7
  3
B9
350
CE8
  3
C0
350
CE9
  3
C1
350
CEA
  3
C2
350
CEB
  3
C3
350
CEC
  3
C4
350
CED
  3
C5
350
CEE
  3
C6
350
CEF
  3
C7
350
CF0
  3
C8
350
CF1
  3
C9
350
CF2
  3
D0
350
CF3
  3
D1
350
CF4
  3
D2
350
CF5
  0
DICTIONARY
  5
CD2
102
{ACAD_REACTORS
330
C
102
}
330
C
100
AcDbDictionary
281
     1
  3
Standard
350
CD3
  0
DICTIONARY
  5
CC0
102
{ACAD_REACTORS
330
C
102
}
330
C
100
AcDbDictionary
281
     1
  3
2dWireframe
350
CC6
  3
3D Hidden
350
CC8
  3
3dWireframe
350
CC7
  3
Basic
350
CC5
  3
Brighten
350
CCC
  3
ColorChange
350
CD0
  3
Conceptual
350
CC9
  3
Dim
350
CCB
  3
Facepattern
350
CCF
  3
Flat
350
CC1
  3
FlatWithEdges
350
CC2
  3
Gouraud
350
CC3
  3
GouraudWithEdges
350
CC4
  3
Linepattern
350
CCE
  3
Realistic
350
CCA
  3
Thicken
350
CCD
  0
XRECORD
  5
D10
102
{ACAD_REACTORS
330
C
102
}
330
C
100
AcDbXrecord
280
     1
 90
        1
330
CD3
  0
DICTIONARY
  5
2C
102
{ACAD_REACTORS
330
C
102
}
330
C
100
AcDbDictionary
281
     1
  3
CANNOSCALE
350
D0D
  3
CMLEADERSTYLE
350
D0C
  3
CTABLESTYLE
350
D0B
  3
DIMADEC
350
2D
  3
DIMASSOC
350
CA5
  3
SORTENTS
350
18C
  0
XRECORD
  5
CFC
102
{ACAD_REACTORS
330
CFB
102
}
330
CFB
100
AcDbXrecord
280
     1
290
     1
  0
XRECORD
  5
CFE
102
{ACAD_REACTORS
330
CFD
102
}
330
CFD
100
AcDbXrecord
280
     1
290
     1
  0
XRECORD
  5
D00
102
{ACAD_REACTORS
330
CFF
102
}
330
CFF
100
AcDbXrecord
280
     1
290
     1
  0
XRECORD
  5
D02
102
{ACAD_REACTORS
330
D01
102
}
330
D01
100
AcDbXrecord
280
     1
290
     1
  0
XRECORD
  5
D04
102
{ACAD_REACTORS
330
D03
102
}
330
D03
100
AcDbXrecord
280
     1
290
     1
  0
XRECORD
  5
D06
102
{ACAD_REACTORS
330
D05
102
}
330
D05
100
AcDbXrecord
280
     1
290
     1
  0
XRECORD
  5
D08
102
{ACAD_REACTORS
330
D07
102
}
330
D07
100
AcDbXrecord
280
     1
290
     1
  0
XRECORD
  5
D0A
102
{ACAD_REACTORS
330
D09
102
}
330
D09
100
AcDbXrecord
280
     1
290
     1
  0
LAYOUT
  5
C81
102
{ACAD_REACTORS
330
C7E
102
}
330
C7E
100
AcDbPlotSettings
  1

  2
Fax
  4

  6

 40
0.0
 41
0.0
 42
0.0
 43
0.0
 44
0.0
 45
0.0
 46
0.0
 47
0.0
 48
0.0
 49
0.0
140
0.0
141
0.0
142
1.0
143
1.0
 70
   688
 72
     0
 73
     0
 74
     5
  7
standard.ctb
 75
    16
147
1.0
 76
     0
 77
     2
 78
   300
148
0.0
149
0.0
100
AcDbLayout
  1
Layout1
 70
     0
 71
     1
 10
0.0
 20
0.0
 11
12.0
 21
9.0
 12
0.0
 22
0.0
 32
0.0
 14
1.000000000000000E+20
 24
1.000000000000000E+20
 34
1.000000000000000E+20
 15
-1.000000000000000E+20
 25
-1.000000000000000E+20
 35
-1.000000000000000E+20
146
0.0
 13
0.0
 23
0.0
 33
0.0
 16
1.0
 26
0.0
 36
0.0
 17
0.0
 27
1.0
 37
0.0
 76
     0
330
14
  0
LAYOUT
  5
C80
102
{ACAD_REACTORS
330
C7E
102
}
330
C7E
100
AcDbPlotSettings
  1

  2
\\PRINT\LJ4P
  4
Letter
  6

 40
7.143749713897705
 41
6.127734661102294
 42
7.14373779296875
 43
7.14373779296875
 44
215.8999938964844
 45
279.3999938964844
 46
0.0
 47
0.0
 48
0.0
 49
0.0
140
0.0
141
0.0
142
1.0
143
1.003119969975157
 70
 11952
 72
     0
 73
     1
 74
     1
  7
standard.ctb
 75
     0
147
0.9968897339614974
 76
     0
 77
     2
 78
   300
148
-6.343799486039062
149
-6.302135214607808
100
AcDbLayout
  1
Model
 70
     1
 71
     0
 10
0.0
 20
0.0
 11
12.0
 21
9.0
 12
0.0
 22
0.0
 32
0.0
 14
0.0
 24
0.0
 34
0.0
 15
0.0
 25
0.0
 35
0.0
146
0.0
 13
0.0
 23
0.0
 33
0.0
 16
1.0
 26
0.0
 36
0.0
 17
0.0
 27
1.0
 37
0.0
 76
     0
330
17
331
CA4
  0
MATERIAL
  5
CB0
102
{ACAD_XDICTIONARY
360
CB1
102
}
102
{ACAD_REACTORS
330
CA7
102
}
330
CA7
100
AcDbMaterial
  1
ByBlock
 72
     0
 43
0.0208333333333333
 43
0.0
 43
0.0
 43
0.0
 43
0.0
 43
0.0208333333333333
 43
0.0
 43
0.0
 43
0.0
 43
0.0
 43
1.0
 43
0.0
 43
0.0
 43
0.0
 43
0.0
 43
1.0
 77
     0
 47
0.0208333333333333
 47
0.0
 47
0.0
 47
0.0
 47
0.0
 47
0.0208333333333333
 47
0.0
 47
0.0
 47
0.0
 47
0.0
 47
1.0
 47
0.0
 47
0.0
 47
0.0
 47
0.0
 47
1.0
171
     0
 49
0.0208333333333333
 49
0.0
 49
0.0
 49
0.0
 49
0.0
 49
0.0208333333333333
 49
0.0
 49
0.0
 49
0.0
 49
0.0
 49
1.0
 49
0.0
 49
0.0
 49
0.0
 49
0.0
 49
1.0
175
     0
142
0.0208333333333333
142
0.0
142
0.0
142
0.0
142
0.0
142
0.0208333333333333
142
0.0
142
0.0
142
0.0
142
0.0
142
1.0
142
0.0
142
0.0
142
0.0
142
0.0
142
1.0
179
     0
144
0.0208333333333333
144
0.0
144
0.0
144
0.0
144
0.0
144
0.0208333333333333
144
0.0
144
0.0
144
0.0
144
0.0
144
1.0
144
0.0
144
0.0
144
0.0
144
0.0
144
1.0
147
0.0208333333333333
147
0.0
147
0.0
147
0.0
147
0.0
147
0.0208333333333333
147
0.0
147
0.0
147
0.0
147
0.0
147
1.0
147
0.0
147
0.0
147
0.0
147
0.0
147
1.0
  0
MATERIAL
  5
CA8
102
{ACAD_XDICTIONARY
360
CA9
102
}
102
{ACAD_REACTORS
330
CA7
102
}
330
CA7
100
AcDbMaterial
  1
ByLayer
 72
     0
 43
0.0208333333333333
 43
0.0
 43
0.0
 43
0.0
 43
0.0
 43
0.0208333333333333
 43
0.0
 43
0.0
 43
0.0
 43
0.0
 43
1.0
 43
0.0
 43
0.0
 43
0.0
 43
0.0
 43
1.0
 77
     0
 47
0.0208333333333333
 47
0.0
 47
0.0
 47
0.0
 47
0.0
 47
0.0208333333333333
 47
0.0
 47
0.0
 47
0.0
 47
0.0
 47
1.0
 47
0.0
 47
0.0
 47
0.0
 47
0.0
 47
1.0
171
     0
 49
0.0208333333333333
 49
0.0
 49
0.0
 49
0.0
 49
0.0
 49
0.0208333333333333
 49
0.0
 49
0.0
 49
0.0
 49
0.0
 49
1.0
 49
0.0
 49
0.0
 49
0.0
 49
0.0
 49
1.0
175
     0
142
0.0208333333333333
142
0.0
142
0.0
142
0.0
142
0.0
142
0.0208333333333333
142
0.0
142
0.0
142
0.0
142
0.0
142
1.0
142
0.0
142
0.0
142
0.0
142
0.0
142
1.0
179
     0
144
0.0208333333333333
144
0.0
144
0.0
144
0.0
144
0.0
144
0.0208333333333333
144
0.0
144
0.0
144
0.0
144
0.0
144
1.0
144
0.0
144
0.0
144
0.0
144
0.0
144
1.0
147
0.0208333333333333
147
0.0
147
0.0
147
0.0
147
0.0
147
0.0208333333333333
147
0.0
147
0.0
147
0.0
147
0.0
147
1.0
147
0.0
147
0.0
147
0.0
147
0.0
147
1.0
  0
MATERIAL
  5
CB8
102
{ACAD_XDICTIONARY
360
CB9
102
}
102
{ACAD_REACTORS
330
CA7
102
}
330
CA7
100
AcDbMaterial
  1
Global
 72
     0
 43
0.0208333333333333
 43
0.0
 43
0.0
 43
0.0
 43
0.0
 43
0.0208333333333333
 43
0.0
 43
0.0
 43
0.0
 43
0.0
 43
1.0
 43
0.0
 43
0.0
 43
0.0
 43
0.0
 43
1.0
 77
     0
 47
0.0208333333333333
 47
0.0
 47
0.0
 47
0.0
 47
0.0
 47
0.0208333333333333
 47
0.0
 47
0.0
 47
0.0
 47
0.0
 47
1.0
 47
0.0
 47
0.0
 47
0.0
 47
0.0
 47
1.0
171
     0
 49
0.0208333333333333
 49
0.0
 49
0.0
 49
0.0
 49
0.0
 49
0.0208333333333333
 49
0.0
 49
0.0
 49
0.0
 49
0.0
 49
1.0
 49
0.0
 49
0.0
 49
0.0
 49
0.0
 49
1.0
175
     0
142
0.0208333333333333
142
0.0
142
0.0
142
0.0
142
0.0
142
0.0208333333333333
142
0.0
142
0.0
142
0.0
142
0.0
142
1.0
142
0.0
142
0.0
142
0.0
142
0.0
142
1.0
179
     0
144
0.0208333333333333
144
0.0
144
0.0
144
0.0
144
0.0
144
0.0208333333333333
144
0.0
144
0.0
144
0.0
144
0.0
144
1.0
144
0.0
144
0.0
144
0.0
144
0.0
144
1.0
147
0.0208333333333333
147
0.0
147
0.0
147
0.0
147
0.0
147
0.0208333333333333
147
0.0
147
0.0
147
0.0
147
0.0
147
1.0
147
0.0
147
0.0
147
0.0
147
0.0
147
1.0
  0
MLEADERSTYLE
  5
CF7
102
{ACAD_REACTORS
330
CF6
102
}
330
CF6
100
AcDbMLeaderStyle
170
     2
171
     1
172
     0
 90
        2
 40
0.0
 41
0.0
173
     1
 91
-1056964608
340
11
 92
       -2
290
     1
 42
0.09
291
     1
 43
0.36
  3
Standard
 44
0.18
300

342
F
174
     1
178
     6
175
     1
176
     0
 93
-1056964608
 45
0.18
292
     0
297
     0
 46
0.18
 94
-1056964608
 47
1.0
 49
1.0
140
1.0
293
     1
141
0.0
294
     1
177
     0
142
1.0
295
     0
296
     0
143
0.125
1001
ACAD_MLEADERVER
1070
     2
  0
MLINESTYLE
  5
1B
102
{ACAD_REACTORS
330
1A
102
}
330
1A
100
AcDbMlineStyle
  2
STANDARD
 70
     0
  3

 62
   256
 51
90.0
 52
90.0
 71
     2
 49
0.5
 62
   256
  6
BYLAYER
 49
-0.5
 62
   256
  6
BYLAYER
  0
ACDBPLACEHOLDER
  5
C7D
102
{ACAD_REACTORS
330
C7C
102
}
330
C7C
  0
SCALE
  5
CD5
102
{ACAD_REACTORS
330
CD4
102
}
330
CD4
100
AcDbScale
 70
     0
300
1:1
140
1.0
141
1.0
290
     1
  0
SCALE
  5
CD6
102
{ACAD_REACTORS
330
CD4
102
}
330
CD4
100
AcDbScale
 70
     0
300
1:2
140
1.0
141
2.0
290
     0
  0
SCALE
  5
CD7
102
{ACAD_REACTORS
330
CD4
102
}
330
CD4
100
AcDbScale
 70
     0
300
1:4
140
1.0
141
4.0
290
     0
  0
SCALE
  5
CD8
102
{ACAD_REACTORS
330
CD4
102
}
330
CD4
100
AcDbScale
 70
     0
300
1:5
140
1.0
141
5.0
290
     0
  0
SCALE
  5
CD9
102
{ACAD_REACTORS
330
CD4
102
}
330
CD4
100
AcDbScale
 70
     0
300
1:8
140
1.0
141
8.0
290
     0
  0
SCALE
  5
CDA
102
{ACAD_REACTORS
330
CD4
102
}
330
CD4
100
AcDbScale
 70
     0
300
1:10
140
1.0
141
10.0
290
     0
  0
SCALE
  5
CDB
102
{ACAD_REACTORS
330
CD4
102
}
330
CD4
100
AcDbScale
 70
     0
300
1:16
140
1.0
141
16.0
290
     0
  0
SCALE
  5
CDC
102
{ACAD_REACTORS
330
CD4
102
}
330
CD4
100
AcDbScale
 70
     0
300
1:20
140
1.0
141
20.0
290
     0
  0
SCALE
  5
CDD
102
{ACAD_REACTORS
330
CD4
102
}
330
CD4
100
AcDbScale
 70
     0
300
1:30
140
1.0
141
30.0
290
     0
  0
SCALE
  5
CDE
102
{ACAD_REACTORS
330
CD4
102
}
330
CD4
100
AcDbScale
 70
     0
300
1:40
140
1.0
141
40.0
290
     0
  0
SCALE
  5
CDF
102
{ACAD_REACTORS
330
CD4
102
}
330
CD4
100
AcDbScale
 70
     0
300
1:50
140
1.0
141
50.0
290
     0
  0
SCALE
  5
CE0
102
{ACAD_REACTORS
330
CD4
102
}
330
CD4
100
AcDbScale
 70
     0
300
1:100
140
1.0
141
100.0
290
     0
  0
SCALE
  5
CE1
102
{ACAD_REACTORS
330
CD4
102
}
330
CD4
100
AcDbScale
 70
     0
300
2:1
140
2.0
141
1.0
290
     0
  0
SCALE
  5
CE2
102
{ACAD_REACTORS
330
CD4
102
}
330
CD4
100
AcDbScale
 70
     0
300
4:1
140
4.0
141
1.0
290
     0
  0
SCALE
  5
CE3
102
{ACAD_REACTORS
330
CD4
102
}
330
CD4
100
AcDbScale
 70
     0
300
8:1
140
8.0
141
1.0
290
     0
  0
SCALE
  5
CE4
102
{ACAD_REACTORS
330
CD4
102
}
330
CD4
100
AcDbScale
 70
     0
300
10:1
140
10.0
141
1.0
290
     0
  0
SCALE
  5
CE5
102
{ACAD_REACTORS
330
CD4
102
}
330
CD4
100
AcDbScale
 70
     0
300
100:1
140
100.0
141
1.0
290
     0
  0
SCALE
  5
CE6
102
{ACAD_REACTORS
330
CD4
102
}
330
CD4
100
AcDbScale
 70
     0
300
1/128" = 1'-0"
140
0.0078125
141
12.0
290
     0
  0
SCALE
  5
CE7
102
{ACAD_REACTORS
330
CD4
102
}
330
CD4
100
AcDbScale
 70
     0
300
1/64" = 1'-0"
140
0.015625
141
12.0
290
     0
  0
SCALE
  5
CE8
102
{ACAD_REACTORS
330
CD4
102
}
330
CD4
100
AcDbScale
 70
     0
300
1/32" = 1'-0"
140
0.03125
141
12.0
290
     0
  0
SCALE
  5
CE9
102
{ACAD_REACTORS
330
CD4
102
}
330
CD4
100
AcDbScale
 70
     0
300
1/16" = 1'-0"
140
0.0625
141
12.0
290
     0
  0
SCALE
  5
CEA
102
{ACAD_REACTORS
330
CD4
102
}
330
CD4
100
AcDbScale
 70
     0
300
3/32" = 1'-0"
140
0.09375
141
12.0
290
     0
  0
SCALE
  5
CEB
102
{ACAD_REACTORS
330
CD4
102
}
330
CD4
100
AcDbScale
 70
     0
300
1/8" = 1'-0"
140
0.125
141
12.0
290
     0
  0
SCALE
  5
CEC
102
{ACAD_REACTORS
330
CD4
102
}
330
CD4
100
AcDbScale
 70
     0
300
3/16" = 1'-0"
140
0.1875
141
12.0
290
     0
  0
SCALE
  5
CED
102
{ACAD_REACTORS
330
CD4
102
}
330
CD4
100
AcDbScale
 70
     0
300
1/4" = 1'-0"
140
0.25
141
12.0
290
     0
  0
SCALE
  5
CEE
102
{ACAD_REACTORS
330
CD4
102
}
330
CD4
100
AcDbScale
 70
     0
300
3/8" = 1'-0"
140
0.375
141
12.0
290
     0
  0
SCALE
  5
CEF
102
{ACAD_REACTORS
330
CD4
102
}
330
CD4
100
AcDbScale
 70
     0
300
1/2" = 1'-0"
140
0.5
141
12.0
290
     0
  0
SCALE
  5
CF0
102
{ACAD_REACTORS
330
CD4
102
}
330
CD4
100
AcDbScale
 70
     0
300
3/4" = 1'-0"
140
0.75
141
12.0
290
     0
  0
SCALE
  5
CF1
102
{ACAD_REACTORS
330
CD4
102
}
330
CD4
100
AcDbScale
 70
     0
300
1" = 1'-0"
140
1.0
141
12.0
290
     0
  0
SCALE
  5
CF2
102
{ACAD_REACTORS
330
CD4
102
}
330
CD4
100
AcDbScale
 70
     0
300
1-1/2" = 1'-0"
140
1.5
141
12.0
290
     0
  0
SCALE
  5
CF3
102
{ACAD_REACTORS
330
CD4
102
}
330
CD4
100
AcDbScale
 70
     0
300
3" = 1'-0"
140
3.0
141
12.0
290
     0
  0
SCALE
  5
CF4
102
{ACAD_REACTORS
330
CD4
102
}
330
CD4
100
AcDbScale
 70
     0
300
6" = 1'-0"
140
6.0
141
12.0
290
     0
  0
SCALE
  5
CF5
102
{ACAD_REACTORS
330
CD4
102
}
330
CD4
100
AcDbScale
 70
     0
300
1'-0" = 1'-0"
140
12.0
141
12.0
290
     0
  0
TABLESTYLE
  5
CD3
102
{ACAD_XDICTIONARY
360
D0E
102
}
102
{ACAD_REACTORS
330
CD2
102
}
330
CD2
100
AcDbTableStyle
  3
Standard
 70
     0
 71
     0
 40
0.06
 41
0.06
280
     0
281
     0
  7
STANDARD
140
0.18
170
     2
 62
     0
 63
     7
283
     0
274
    -2
284
     1
 64
     0
275
    -2
285
     1
 65
     0
276
    -2
286
     1
 66
     0
277
    -2
287
     1
 67
     0
278
    -2
288
     1
 68
     0
279
    -2
289
     1
 69
     0
  7
STANDARD
140
0.25
170
     5
 62
     0
 63
     7
283
     0
274
    -2
284
     1
 64
     0
275
    -2
285
     1
 65
     0
276
    -2
286
     1
 66
     0
277
    -2
287
     1
 67
     0
278
    -2
288
     1
 68
     0
279
    -2
289
     1
 69
     0
  7
STANDARD
140
0.18
170
     5
 62
     0
 63
     7
283
     0
274
    -2
284
     1
 64
     0
275
    -2
285
     1
 65
     0
276
    -2
286
     1
 66
     0
277
    -2
287
     1
 67
     0
278
    -2
288
     1
 68
     0
279
    -2
289
     1
 69
     0
  0
VISUALSTYLE
  5
CC6
102
{ACAD_REACTORS
330
CC0
102
}
330
CC0
100
AcDbVisualStyle
  2
2dWireframe
 70
     4
 71
     0
 72
     2
 73
     0
 90
        0
 40
-0.6
 41
-30.0
 62
     5
 63
     7
421
 16777215
 74
     1
 91
        4
 64
     7
 65
   257
 75
     1
175
     1
 42
1.0
 92
        0
 66
   257
 43
1.0
 76
     1
 77
     6
 78
     2
 67
     7
 79
     5
170
     0
171
     0
290
     0
174
     0
 93
        1
 44
0.0
173
     0
291
     0
 45
0.0
1001
ACAD
1000
AcDbSavedByObjectVersion
1070
     0
  0
VISUALSTYLE
  5
CC8
102
{ACAD_REACTORS
330
CC0
102
}
330
CC0
100
AcDbVisualStyle
  2
3D Hidden
 70
     6
 71
     1
 72
     2
 73
     2
 90
        0
 40
-0.6
 41
-30.0
 62
     5
 63
     7
421
 16777215
 74
     2
 91
        2
 64
     7
 65
   257
 75
     2
175
     1
 42
40.0
 92
        0
 66
   257
 43
1.0
 76
     1
 77
     6
 78
     2
 67
     7
 79
     3
170
     0
171
     0
290
     0
174
     0
 93
        1
 44
0.0
173
     0
291
     0
 45
0.0
1001
ACAD
1000
AcDbSavedByObjectVersion
1070
     0
  0
VISUALSTYLE
  5
CC7
102
{ACAD_REACTORS
330
CC0
102
}
330
CC0
100
AcDbVisualStyle
  2
3dWireframe
 70
     5
 71
     0
 72
     2
 73
     0
 90
        0
 40
-0.6
 41
-30.0
 62
     5
 63
     7
421
 16777215
 74
     1
 91
        4
 64
     7
 65
   257
 75
     1
175
     1
 42
1.0
 92
        0
 66
   257
 43
1.0
 76
     1
 77
     6
 78
     2
 67
     7
 79
     5
170
     0
171
     0
290
     0
174
     0
 93
        1
 44
0.0
173
     0
291
     0
 45
0.0
1001
ACAD
1000
AcDbSavedByObjectVersion
1070
     0
  0
VISUALSTYLE
  5
CC5
102
{ACAD_REACTORS
330
CC0
102
}
330
CC0
100
AcDbVisualStyle
  2
Basic
 70
     7
 71
     1
 72
     0
 73
     1
 90
        0
 40
-0.6
 41
-30.0
 62
     5
 63
     7
421
 16777215
 74
     0
 91
        4
 64
     7
 65
   257
 75
     1
175
     1
 42
1.0
 92
        8
 66
     7
 43
1.0
 76
     1
 77
     6
 78
     2
 67
     7
 79
     5
170
     0
171
     0
290
     0
174
     0
 93
        1
 44
0.0
173
     0
291
     1
 45
0.0
1001
ACAD
1000
AcDbSavedByObjectVersion
1070
     0
  0
VISUALSTYLE
  5
CCC
102
{ACAD_REACTORS
330
CC0
102
}
330
CC0
100
AcDbVisualStyle
  2
Brighten
 70
    12
 71
     2
 72
     2
 73
     0
 90
        0
 40
-0.6
 41
-30.0
 62
     5
 63
     7
421
 16777215
 74
     1
 91
        4
 64
     7
 65
   257
 75
     1
175
     1
 42
1.0
 92
        8
 66
     7
 43
1.0
 76
     1
 77
     6
 78
     2
 67
     7
 79
     5
170
     0
171
     0
290
     0
174
     0
 93
        1
 44
50.0
173
     0
291
     1
 45
0.0
1001
ACAD
1000
AcDbSavedByObjectVersion
1070
     0
  0
VISUALSTYLE
  5
CD0
102
{ACAD_REACTORS
330
CC0
102
}
330
CC0
100
AcDbVisualStyle
  2
ColorChange
 70
    16
 71
     2
 72
     2
 73
     3
 90
        0
 40
-0.6
 41
-30.0
 62
     5
 63
     8
421
  8421504
 74
     1
 91
        4
 64
     7
 65
   257
 75
     1
175
     1
 42
1.0
 92
        8
 66
     8
424
  8421504
 43
1.0
 76
     1
 77
     6
 78
     2
 67
     7
 79
     5
170
     0
171
     0
290
     0
174
     0
 93
        1
 44
0.0
173
     0
291
     1
 45
0.0
1001
ACAD
1000
AcDbSavedByObjectVersion
1070
     0
  0
VISUALSTYLE
  5
CC9
102
{ACAD_REACTORS
330
CC0
102
}
330
CC0
100
AcDbVisualStyle
  2
Conceptual
 70
     9
 71
     3
 72
     2
 73
     0
 90
        0
 40
-0.6
 41
-30.0
 62
     5
 63
     7
421
 16777215
 74
     2
 91
        2
 64
     7
 65
   257
 75
     1
175
     1
 42
40.0
 92
        8
 66
     7
 43
1.0
 76
     1
 77
     6
 78
     2
 67
     7
 79
     3
170
     0
171
     0
290
     0
174
     0
 93
        1
 44
0.0
173
     0
291
     0
 45
0.0
1001
ACAD
1000
AcDbSavedByObjectVersion
1070
     0
  0
VISUALSTYLE
  5
CCB
102
{ACAD_REACTORS
330
CC0
102
}
330
CC0
100
AcDbVisualStyle
  2
Dim
 70
    11
 71
     2
 72
     2
 73
     0
 90
        0
 40
-0.6
 41
-30.0
 62
     5
 63
     7
421
 16777215
 74
     1
 91
        4
 64
     7
 65
   257
 75
     1
175
     1
 42
1.0
 92
        8
 66
     7
 43
1.0
 76
     1
 77
     6
 78
     2
 67
     7
 79
     5
170
     0
171
     0
290
     0
174
     0
 93
        1
 44
-50.0
173
     0
291
     1
 45
0.0
1001
ACAD
1000
AcDbSavedByObjectVersion
1070
     0
  0
VISUALSTYLE
  5
CCF
102
{ACAD_REACTORS
330
CC0
102
}
330
CC0
100
AcDbVisualStyle
  2
Facepattern
 70
    15
 71
     2
 72
     2
 73
     0
 90
        0
 40
-0.6
 41
-30.0
 62
     5
 63
     7
421
 16777215
 74
     1
 91
        4
 64
     7
 65
   257
 75
     1
175
     1
 42
1.0
 92
        8
 66
     7
 43
1.0
 76
     1
 77
     6
 78
     2
 67
     7
 79
     5
170
     0
171
     0
290
     0
174
     0
 93
        1
 44
0.0
173
     0
291
     1
 45
0.0
1001
ACAD
1000
AcDbSavedByObjectVersion
1070
     0
  0
VISUALSTYLE
  5
CC1
102
{ACAD_REACTORS
330
CC0
102
}
330
CC0
100
AcDbVisualStyle
  2
Flat
 70
     0
 71
     2
 72
     1
 73
     1
 90
        2
 40
-0.6
 41
30.0
 62
     5
 63
     7
421
 16777215
 74
     0
 91
        4
 64
     7
 65
   257
 75
     1
175
     1
 42
1.0
 92
        8
 66
     7
 43
1.0
 76
     1
 77
     6
 78
     2
 67
     7
 79
     5
170
     0
171
     0
290
     0
174
     0
 93
       13
 44
0.0
173
     0
291
     1
 45
0.0
1001
ACAD
1000
AcDbSavedByObjectVersion
1070
     0
  0
VISUALSTYLE
  5
CC2
102
{ACAD_REACTORS
330
CC0
102
}
330
CC0
100
AcDbVisualStyle
  2
FlatWithEdges
 70
     1
 71
     2
 72
     1
 73
     1
 90
        2
 40
-0.6
 41
30.0
 62
     5
 63
     7
421
 16777215
 74
     1
 91
        4
 64
     7
 65
   257
 75
     1
175
     1
 42
1.0
 92
        0
 66
   257
 43
1.0
 76
     1
 77
     6
 78
     2
 67
     7
 79
     5
170
     0
171
     0
290
     0
174
     0
 93
       13
 44
0.0
173
     0
291
     1
 45
0.0
1001
ACAD
1000
AcDbSavedByObjectVersion
1070
     0
  0
VISUALSTYLE
  5
CC3
102
{ACAD_REACTORS
330
CC0
102
}
330
CC0
100
AcDbVisualStyle
  2
Gouraud
 70
     2
 71
     2
 72
     2
 73
     1
 90
        2
 40
-0.6
 41
30.0
 62
     5
 63
     7
421
 16777215
 74
     0
 91
        4
 64
     7
 65
   257
 75
     1
175
     1
 42
1.0
 92
        0
 66
     7
 43
1.0
 76
     1
 77
     6
 78
     2
 67
     7
 79
     5
170
     0
171
     0
290
     0
174
     0
 93
       13
 44
0.0
173
     0
291
     1
 45
0.0
1001
ACAD
1000
AcDbSavedByObjectVersion
1070
     0
  0
VISUALSTYLE
  5
CC4
102
{ACAD_REACTORS
330
CC0
102
}
330
CC0
100
AcDbVisualStyle
  2
GouraudWithEdges
 70
     3
 71
     2
 72
     2
 73
     1
 90
        2
 40
-0.6
 41
30.0
 62
     5
 63
     7
421
 16777215
 74
     1
 91
        4
 64
     7
 65
   257
 75
     1
175
     1
 42
1.0
 92
        0
 66
   257
 43
1.0
 76
     1
 77
     6
 78
     2
 67
     7
 79
     5
170
     0
171
     0
290
     0
174
     0
 93
       13
 44
0.0
173
     0
291
     1
 45
0.0
1001
ACAD
1000
AcDbSavedByObjectVersion
1070
     0
  0
VISUALSTYLE
  5
CCE
102
{ACAD_REACTORS
330
CC0
102
}
330
CC0
100
AcDbVisualStyle
  2
Linepattern
 70
    14
 71
     2
 72
     2
 73
     0
 90
        0
 40
-0.6
 41
-30.0
 62
     5
 63
     7
421
 16777215
 74
     1
 91
        4
 64
     7
 65
   257
 75
     7
175
     7
 42
1.0
 92
        8
 66
     7
 43
1.0
 76
     1
 77
     6
 78
     2
 67
     7
 79
     5
170
     0
171
     0
290
     0
174
     0
 93
        1
 44
0.0
173
     0
291
     1
 45
0.0
1001
ACAD
1000
AcDbSavedByObjectVersion
1070
     0
  0
VISUALSTYLE
  5
CCA
102
{ACAD_REACTORS
330
CC0
102
}
330
CC0
100
AcDbVisualStyle
  2
Realistic
 70
     8
 71
     2
 72
     2
 73
     0
 90
        0
 40
-0.6
 41
-30.0
 62
     5
 63
     7
421
 16777215
 74
     1
 91
        0
 64
     7
 65
   257
 75
     1
175
     1
 42
1.0
 92
        8
 66
     8
424
  7895160
 43
1.0
 76
     1
 77
     6
 78
     2
 67
     7
 79
     5
170
     0
171
     0
290
     0
174
     0
 93
       13
 44
0.0
173
     0
291
     0
 45
0.0
1001
ACAD
1000
AcDbSavedByObjectVersion
1070
     0
  0
VISUALSTYLE
  5
CCD
102
{ACAD_REACTORS
330
CC0
102
}
330
CC0
100
AcDbVisualStyle
  2
Thicken
 70
    13
 71
     2
 72
     2
 73
     0
 90
        0
 40
-0.6
 41
-30.0
 62
     5
 63
     7
421
 16777215
 74
     1
 91
        4
 64
     7
 65
   257
 75
     1
175
     1
 42
1.0
 92
       12
 66
     7
 43
1.0
 76
     1
 77
     6
 78
     2
 67
     7
 79
     5
170
     0
171
     0
290
     0
174
     0
 93
        1
 44
0.0
173
     0
291
     1
 45
0.0
1001
ACAD
1000
AcDbSavedByObjectVersion
1070
     0
  0
DICTIONARYVAR
  5
D0D
102
{ACAD_REACTORS
330
2C
102
}
330
2C
100
DictionaryVariables
280
     0
  1
1:1
  0
DICTIONARYVAR
  5
D0C
102
{ACAD_REACTORS
330
2C
102
}
330
2C
100
DictionaryVariables
280
     0
  1
STANDARD
  0
DICTIONARYVAR
  5
D0B
102
{ACAD_REACTORS
330
2C
102
}
330
2C
100
DictionaryVariables
280
     0
  1
STANDARD
  0
DICTIONARYVAR
  5
2D
102
{ACAD_REACTORS
330
2C
102
}
330
2C
100
DictionaryVariables
280
     0
  1
0
  0
DICTIONARYVAR
  5
CA5
102
{ACAD_REACTORS
330
2C
102
}
330
2C
100
DictionaryVariables
280
     0
  1
0
  0
DICTIONARYVAR
  5
18C
102
{ACAD_REACTORS
330
2C
102
}
330
2C
100
DictionaryVariables
280
     0
  1
96
  0
DICTIONARY
  5
CB1
330
CB0
100
AcDbDictionary
280
     1
281
     1
  3
ACAD_XREC_ROUNDTRIP
360
D12
  3
BUMPTILE
360
CB3
  3
DIFFUSETILE
360
CB2
  3
OPACITYTILE
360
CB6
  3
REFLECTIONTILE
360
CB5
  3
REFRACTIONTILE
360
CB7
  3
SPECULARTILE
360
CB4
  0
DICTIONARY
  5
CA9
330
CA8
100
AcDbDictionary
280
     1
281
     1
  3
ACAD_XREC_ROUNDTRIP
360
D11
  3
BUMPTILE
360
CAB
  3
DIFFUSETILE
360
CAA
  3
OPACITYTILE
360
CAE
  3
REFLECTIONTILE
360
CAD
  3
REFRACTIONTILE
360
CAF
  3
SPECULARTILE
360
CAC
  0
DICTIONARY
  5
CB9
330
CB8
100
AcDbDictionary
280
     1
281
     1
  3
ACAD_XREC_ROUNDTRIP
360
D13
  3
BUMPTILE
360
CBB
  3
DIFFUSETILE
360
CBA
  3
OPACITYTILE
360
CBE
  3
REFLECTIONTILE
360
CBD
  3
REFRACTIONTILE
360
CBF
  3
SPECULARTILE
360
CBC
  0
DICTIONARY
  5
D0E
330
CD3
100
AcDbDictionary
280
     1
281
     1
  3
ACAD_ROUNDTRIP_2008_TABLESTYLE_CELLSTYLEMAP
360
D0F
  3
ACAD_XREC_ROUNDTRIP
360
D14
  0
XRECORD
  5
D12
102
{ACAD_REACTORS
330
CB1
102
}
330
CB1
100
AcDbXrecord
280
     1
102
MATERIAL
148
0.0
149
0.0
149
0.0
 93
        0
 94
      127
282
     0
 72
     0
 77
     0
171
     0
175
     0
179
     0
273
     0
  0
XRECORD
  5
CB3
102
{ACAD_REACTORS
330
CB1
102
}
330
CB1
100
AcDbXrecord
280
     1
270
     1
271
     1
  0
XRECORD
  5
CB2
102
{ACAD_REACTORS
330
CB1
102
}
330
CB1
100
AcDbXrecord
280
     1
270
     1
271
     1
  0
XRECORD
  5
CB6
102
{ACAD_REACTORS
330
CB1
102
}
330
CB1
100
AcDbXrecord
280
     1
270
     1
271
     1
  0
XRECORD
  5
CB5
102
{ACAD_REACTORS
330
CB1
102
}
330
CB1
100
AcDbXrecord
280
     1
270
     1
271
     1
  0
XRECORD
  5
CB7
102
{ACAD_REACTORS
330
CB1
102
}
330
CB1
100
AcDbXrecord
280
     1
270
     1
271
     1
  0
XRECORD
  5
CB4
102
{ACAD_REACTORS
330
CB1
102
}
330
CB1
100
AcDbXrecord
280
     1
270
     1
271
     1
  0
XRECORD
  5
D11
102
{ACAD_REACTORS
330
CA9
102
}
330
CA9
100
AcDbXrecord
280
     1
102
MATERIAL
148
0.0
149
0.0
149
0.0
 93
        0
 94
      127
282
     0
 72
     0
 77
     0
171
     0
175
     0
179
     0
273
     0
  0
XRECORD
  5
CAB
102
{ACAD_REACTORS
330
CA9
102
}
330
CA9
100
AcDbXrecord
280
     1
270
     1
271
     1
  0
XRECORD
  5
CAA
102
{ACAD_REACTORS
330
CA9
102
}
330
CA9
100
AcDbXrecord
280
     1
270
     1
271
     1
  0
XRECORD
  5
CAE
102
{ACAD_REACTORS
330
CA9
102
}
330
CA9
100
AcDbXrecord
280
     1
270
     1
271
     1
  0
XRECORD
  5
CAD
102
{ACAD_REACTORS
330
CA9
102
}
330
CA9
100
AcDbXrecord
280
     1
270
     1
271
     1
  0
XRECORD
  5
CAF
102
{ACAD_REACTORS
330
CA9
102
}
330
CA9
100
AcDbXrecord
280
     1
270
     1
271
     1
  0
XRECORD
  5
CAC
102
{ACAD_REACTORS
330
CA9
102
}
330
CA9
100
AcDbXrecord
280
     1
270
     1
271
     1
  0
XRECORD
  5
D13
102
{ACAD_REACTORS
330
CB9
102
}
330
CB9
100
AcDbXrecord
280
     1
102
MATERIAL
148
0.0
149
0.0
149
0.0
 93
        0
 94
      127
282
     0
 72
     0
 77
     0
171
     0
175
     0
179
     0
273
     0
  0
XRECORD
  5
CBB
102
{ACAD_REACTORS
330
CB9
102
}
330
CB9
100
AcDbXrecord
280
     1
270
     1
271
     1
  0
XRECORD
  5
CBA
102
{ACAD_REACTORS
330
CB9
102
}
330
CB9
100
AcDbXrecord
280
     1
270
     1
271
     1
  0
XRECORD
  5
CBE
102
{ACAD_REACTORS
330
CB9
102
}
330
CB9
100
AcDbXrecord
280
     1
270
     1
271
     1
  0
XRECORD
  5
CBD
102
{ACAD_REACTORS
330
CB9
102
}
330
CB9
100
AcDbXrecord
280
     1
270
     1
271
     1
  0
XRECORD
  5
CBF
102
{ACAD_REACTORS
330
CB9
102
}
330
CB9
100
AcDbXrecord
280
     1
270
     1
271
     1
  0
XRECORD
  5
CBC
102
{ACAD_REACTORS
330
CB9
102
}
330
CB9
100
AcDbXrecord
280
     1
270
     1
271
     1
  0
CELLSTYLEMAP
  5
D0F
102
{ACAD_REACTORS
330
D0E
102
}
330
D0E
100
AcDbCellStyleMap
 90
        3
300
CELLSTYLE
  1
TABLEFORMAT_BEGIN
 90
        5
170
     1
 91
        0
 92
    32768
 62
   257
 93
        1
300
CONTENTFORMAT
  1
CONTENTFORMAT_BEGIN
 90
        0
 91
        0
 92
      512
 93
        0
300

 40
0.0
140
1.0
 94
        5
 62
     0
340
F
144
0.25
309
CONTENTFORMAT_END
171
     0
 94
        0
309
TABLEFORMAT_END
  1
CELLSTYLE_BEGIN
 90
        1
 91
        1
300
_TITLE
309
CELLSTYLE_END
300
CELLSTYLE
  1
TABLEFORMAT_BEGIN
 90
        5
170
     1
 91
        0
 92
        0
 62
   257
 93
        1
300
CONTENTFORMAT
  1
CONTENTFORMAT_BEGIN
 90
        0
 91
        0
 92
      512
 93
        0
300

 40
0.0
140
1.0
 94
        5
 62
     0
340
F
144
0.18
309
CONTENTFORMAT_END
171
     0
 94
        0
309
TABLEFORMAT_END
  1
CELLSTYLE_BEGIN
 90
        2
 91
        1
300
_HEADER
309
CELLSTYLE_END
300
CELLSTYLE
  1
TABLEFORMAT_BEGIN
 90
        5
170
     1
 91
        0
 92
        0
 62
   257
 93
        1
300
CONTENTFORMAT
  1
CONTENTFORMAT_BEGIN
 90
        0
 91
        0
 92
      512
 93
        0
300

 40
0.0
140
1.0
 94
        2
 62
     0
340
F
144
0.18
309
CONTENTFORMAT_END
171
     0
 94
        0
309
TABLEFORMAT_END
  1
CELLSTYLE_BEGIN
 90
        3
 91
        2
300
_DATA
309
CELLSTYLE_END
  0
XRECORD
  5
D14
102
{ACAD_REACTORS
330
D0E
102
}
330
D0E
100
AcDbXrecord
280
     1
102
ACAD_ROUNDTRIP_PRE2007_TABLESTYLE
 90
      512
 91
        0
  1

 92
      512
 93
        0
  2

 94
      512
 95
        0
  3

  0
ENDSEC
  0
EOF
