  0
SECTION
  2
HEADER
  9
$ACADVER
  1
AC1018
  9
$ACADMAINTVER
 70
   104
  9
$DWGCODEPAGE
  3
ANSI_1252
  9
$LASTSAVEDBY
  1
aereyes
  9
$INSBASE
 10
0.0
 20
0.0
 30
0.0
  9
$EXTMIN
 10
0.25
 20
0.2483302711109045
 30
0.0
  9
$EXTMAX
 10
10.71
 20
8.274894915469834
 30
0.0
  9
$LIMMIN
 10
0.0
 20
0.0
  9
$LIMMAX
 10
11.0
 20
8.5
  9
$ORTHOMODE
 70
     0
  9
$REGENMODE
 70
     1
  9
$FILLMODE
 70
     1
  9
$QTEXTMODE
 70
     0
  9
$MIRRTEXT
 70
     1
  9
$LTSCALE
 40
0.25
  9
$ATTMODE
 70
     1
  9
$TEXTSIZE
 40
0.12
  9
$TRACEWID
 40
0.05
  9
$TEXTSTYLE
  7
STANDARD
  9
$CLAYER
  8
OBJECT
  9
$CELTYPE
  6
BYLAYER
  9
$CECOLOR
 62
   256
  9
$CELTSCALE
 40
1.0
  9
$DISPSILH
 70
     0
  9
$DIMSCALE
 40
0.0
  9
$DIMASZ
 40
0.15
  9
$DIMEXO
 40
0.0625
  9
$DIMDLI
 40
0.38
  9
$DIMRND
 40
0.0
  9
$DIMDLE
 40
0.0
  9
$DIMEXE
 40
0.18
  9
$DIMTP
 40
0.0
  9
$DIMTM
 40
0.0
  9
$DIMTXT
 40
0.09375
  9
$DIMCEN
 40
0.09
  9
$DIMTSZ
 40
0.0
  9
$DIMTOL
 70
     0
  9
$DIMLIM
 70
     0
  9
$DIMTIH
 70
     1
  9
$DIMTOH
 70
     1
  9
$DIMSE1
 70
     0
  9
$DIMSE2
 70
     0
  9
$DIMTAD
 70
     0
  9
$DIMZIN
 70
     4
  9
$DIMBLK
  1

  9
$DIMASO
 70
     1
  9
$DIMSHO
 70
     1
  9
$DIMPOST
  1

  9
$DIMAPOST
  1

  9
$DIMALT
 70
     1
  9
$DIMALTD
 70
     2
  9
$DIMALTF
 40
25.4
  9
$DIMLFAC
 40
1.0
  9
$DIMTOFL
 70
     0
  9
$DIMTVP
 40
0.0
  9
$DIMTIX
 70
     0
  9
$DIMSOXD
 70
     0
  9
$DIMSAH
 70
     0
  9
$DIMBLK1
  1

  9
$DIMBLK2
  1

  9
$DIMSTYLE
  2
STANDARD
  9
$DIMCLRD
 70
     1
  9
$DIMCLRE
 70
     1
  9
$DIMCLRT
 70
     7
  9
$DIMTFAC
 40
1.0
  9
$DIMGAP
 40
0.09
  9
$DIMJUST
 70
     0
  9
$DIMSD1
 70
     0
  9
$DIMSD2
 70
     0
  9
$DIMTOLJ
 70
     1
  9
$DIMTZIN
 70
     4
  9
$DIMALTZ
 70
     0
  9
$DIMALTTZ
 70
     0
  9
$DIMUPT
 70
     0
  9
$DIMDEC
 70
     3
  9
$DIMTDEC
 70
     3
  9
$DIMALTU
 70
     2
  9
$DIMALTTD
 70
     2
  9
$DIMTXSTY
  7
STANDARD
  9
$DIMAUNIT
 70
     0
  9
$DIMADEC
 70
     0
  9
$DIMALTRND
 40
0.0
  9
$DIMAZIN
 70
     0
  9
$DIMDSEP
 70
    46
  9
$DIMATFIT
 70
     3
  9
$DIMFRAC
 70
     0
  9
$DIMLDRBLK
  1

  9
$DIMLUNIT
 70
     2
  9
$DIMLWD
 70
    -2
  9
$DIMLWE
 70
    -2
  9
$DIMTMOVE
 70
     0
  9
$LUNITS
 70
     2
  9
$LUPREC
 70
     4
  9
$SKETCHINC
 40
0.1
  9
$FILLETRAD
 40
0.0
  9
$AUNITS
 70
     0
  9
$AUPREC
 70
     0
  9
$MENU
  1
acad
  9
$ELEVATION
 40
0.0
  9
$PELEVATION
 40
0.0
  9
$THICKNESS
 40
0.0
  9
$LIMCHECK
 70
     0
  9
$CHAMFERA
 40
0.0
  9
$CHAMFERB
 40
0.0
  9
$CHAMFERC
 40
0.0
  9
$CHAMFERD
 40
0.0
  9
$SKPOLY
 70
     0
  9
$TDCREATE
 40
2450156.494675000
  9
$TDUCREATE
 40
2450156.703008333
  9
$TDUPDATE
 40
2454822.522174942
  9
$TDUUPDATE
 40
2454822.730508276
  9
$TDINDWG
 40
0.4105677431
  9
$TDUSRTIMER
 40
0.4105677431
  9
$USRTIMER
 70
     1
  9
$ANGBASE
 50
0.0
  9
$ANGDIR
 70
     0
  9
$PDMODE
 70
     0
  9
$PDSIZE
 40
0.0
  9
$PLINEWID
 40
0.0
  9
$SPLFRAME
 70
     0
  9
$SPLINETYPE
 70
     6
  9
$SPLINESEGS
 70
     8
  9
$HANDSEED
  5
F21
  9
$SURFTAB1
 70
     6
  9
$SURFTAB2
 70
     6
  9
$SURFTYPE
 70
     6
  9
$SURFU
 70
     6
  9
$SURFV
 70
     6
  9
$UCSBASE
  2

  9
$UCSNAME
  2

  9
$UCSORG
 10
0.0
 20
0.0
 30
0.0
  9
$UCSXDIR
 10
1.0
 20
0.0
 30
0.0
  9
$UCSYDIR
 10
0.0
 20
1.0
 30
0.0
  9
$UCSORTHOREF
  2

  9
$UCSORTHOVIEW
 70
     0
  9
$UCSORGTOP
 10
0.0
 20
0.0
 30
0.0
  9
$UCSORGBOTTOM
 10
0.0
 20
0.0
 30
0.0
  9
$UCSORGLEFT
 10
0.0
 20
0.0
 30
0.0
  9
$UCSORGRIGHT
 10
0.0
 20
0.0
 30
0.0
  9
$UCSORGFRONT
 10
0.0
 20
0.0
 30
0.0
  9
$UCSORGBACK
 10
0.0
 20
0.0
 30
0.0
  9
$PUCSBASE
  2

  9
$PUCSNAME
  2

  9
$PUCSORG
 10
0.0
 20
0.0
 30
0.0
  9
$PUCSXDIR
 10
1.0
 20
0.0
 30
0.0
  9
$PUCSYDIR
 10
0.0
 20
1.0
 30
0.0
  9
$PUCSORTHOREF
  2

  9
$PUCSORTHOVIEW
 70
     0
  9
$PUCSORGTOP
 10
0.0
 20
0.0
 30
0.0
  9
$PUCSORGBOTTOM
 10
0.0
 20
0.0
 30
0.0
  9
$PUCSORGLEFT
 10
0.0
 20
0.0
 30
0.0
  9
$PUCSORGRIGHT
 10
0.0
 20
0.0
 30
0.0
  9
$PUCSORGFRONT
 10
0.0
 20
0.0
 30
0.0
  9
$PUCSORGBACK
 10
0.0
 20
0.0
 30
0.0
  9
$USERI1
 70
     0
  9
$USERI2
 70
     0
  9
$USERI3
 70
     0
  9
$USERI4
 70
     0
  9
$USERI5
 70
     0
  9
$USERR1
 40
0.0
  9
$USERR2
 40
0.0
  9
$USERR3
 40
0.0
  9
$USERR4
 40
0.0
  9
$USERR5
 40
0.0
  9
$WORLDVIEW
 70
     1
  9
$SHADEDGE
 70
     3
  9
$SHADEDIF
 70
    70
  9
$TILEMODE
 70
     1
  9
$MAXACTVP
 70
    16
  9
$PINSBASE
 10
0.0
 20
0.0
 30
0.0
  9
$PLIMCHECK
 70
     0
  9
$PEXTMIN
 10
1.000000000000000E+20
 20
1.000000000000000E+20
 30
1.000000000000000E+20
  9
$PEXTMAX
 10
-1.000000000000000E+20
 20
-1.000000000000000E+20
 30
-1.000000000000000E+20
  9
$PLIMMIN
 10
0.0
 20
0.0
  9
$PLIMMAX
 10
12.0
 20
9.0
  9
$UNITMODE
 70
     0
  9
$VISRETAIN
 70
     0
  9
$PLINEGEN
 70
     0
  9
$PSLTSCALE
 70
     0
  9
$TREEDEPTH
 70
  3020
  9
$CMLSTYLE
  2
STANDARD
  9
$CMLJUST
 70
     0
  9
$CMLSCALE
 40
1.0
  9
$PROXYGRAPHICS
 70
     1
  9
$MEASUREMENT
 70
     0
  9
$CELWEIGHT
370
    -1
  9
$ENDCAPS
280
     0
  9
$JOINSTYLE
280
     0
  9
$LWDISPLAY
290
     0
  9
$INSUNITS
 70
     0
  9
$HYPERLINKBASE
  1

  9
$STYLESHEET
  1
standard.ctb
  9
$XEDIT
290
     1
  9
$CEPSNTYPE
380
     0
  9
$PSTYLEMODE
290
     1
  9
$FINGERPRINTGUID
  2
{084B82E3-505E-11D6-BC0E-000102458971}
  9
$VERSIONGUID
  2
{D3253DE7-1DF8-4C55-8C79-18EE721AD1F1}
  9
$EXTNAMES
290
     1
  9
$PSVPSCALE
 40
0.0
  9
$OLESTARTUP
290
     0
  9
$SORTENTS
280
    96
  9
$INDEXCTL
280
     0
  9
$HIDETEXT
280
     0
  9
$XCLIPFRAME
290
     0
  9
$HALOGAP
280
     0
  9
$OBSCOLOR
 70
   257
  9
$OBSLTYPE
280
     0
  9
$INTERSECTIONDISPLAY
280
     0
  9
$INTERSECTIONCOLOR
 70
   257
  9
$DIMASSOC
280
     1
  9
$PROJECTNAME
  1

  0
ENDSEC
  0
SECTION
  2
CLASSES
  0
CLASS
  1
DICTIONARYVAR
  2
AcDbDictionaryVar
  3
ObjectDBX Classes
 90
        0
 91
        6
280
     0
281
     0
  0
CLASS
  1
ACDBDICTIONARYWDFLT
  2
AcDbDictionaryWithDefault
  3
ObjectDBX Classes
 90
        0
 91
        1
280
     0
281
     0
  0
CLASS
  1
MATERIAL
  2
AcDbMaterial
  3
ObjectDBX Classes
 90
     1153
 91
        3
280
     0
281
     0
  0
CLASS
  1
VISUALSTYLE
  2
AcDbVisualStyle
  3
ObjectDBX Classes
 90
     4095
 91
       16
280
     0
281
     0
  0
CLASS
  1
TABLESTYLE
  2
AcDbTableStyle
  3
ObjectDBX Classes
 90
     4095
 91
        1
280
     0
281
     0
  0
CLASS
  1
SCALE
  2
AcDbScale
  3
ObjectDBX Classes
 90
     1153
 91
       33
280
     0
281
     0
  0
CLASS
  1
MLEADERSTYLE
  2
AcDbMLeaderStyle
  3
ACDB_MLEADERSTYLE_CLASS
 90
     4095
 91
        1
280
     0
281
     0
  0
CLASS
  1
CELLSTYLEMAP
  2
AcDbCellStyleMap
  3
ObjectDBX Classes
 90
     1152
 91
        2
280
     0
281
     0
  0
ENDSEC
  0
SECTION
  2
TABLES
  0
TABLE
  2
VPORT
  5
8
330
0
100
AcDbSymbolTable
 70
     1
  0
VPORT
  5
EB2
330
8
100
AcDbSymbolTableRecord
100
AcDbViewportTableRecord
  2
*Active
 70
     0
 10
0.0
 20
0.0
 11
1.0
 21
1.0
 12
5.5
 22
4.623050140060411
 13
0.0
 23
0.0
 14
0.062
 24
0.062
 15
0.25
 25
0.25
 16
0.0
 26
0.0
 36
1.0
 17
0.0
 27
0.0
 37
0.0
 40
9.375541904486304
 41
1.697976878612716
 42
50.0
 43
0.0
 44
0.0
 50
0.0
 51
0.0
 71
     0
 72
   500
 73
     1
 74
     0
 75
     0
 76
     0
 77
     0
 78
     0
281
     0
 65
     1
110
0.0
120
0.0
130
0.0
111
1.0
121
0.0
131
0.0
112
0.0
122
1.0
132
0.0
 79
     0
146
0.0
  0
ENDTAB
  0
TABLE
  2
LTYPE
  5
5
330
0
100
AcDbSymbolTable
 70
     1
  0
LTYPE
  5
11
330
5
100
AcDbSymbolTableRecord
100
AcDbLinetypeTableRecord
  2
BYBLOCK
 70
     0
  3

 72
    65
 73
     0
 40
0.0
  0
LTYPE
  5
12
330
5
100
AcDbSymbolTableRecord
100
AcDbLinetypeTableRecord
  2
BYLAYER
 70
     0
  3

 72
    65
 73
     0
 40
0.0
  0
LTYPE
  5
13
330
5
100
AcDbSymbolTableRecord
100
AcDbLinetypeTableRecord
  2
CONTINUOUS
 70
     0
  3
Solid line
 72
    65
 73
     0
 40
0.0
  0
ENDTAB
  0
TABLE
  2
LAYER
  5
2
330
0
100
AcDbSymbolTable
 70
     5
  0
LAYER
  5
E
102
{ACAD_XDICTIONARY
360
F08
102
}
330
2
100
AcDbSymbolTableRecord
100
AcDbLayerTableRecord
  2
0
 70
     0
 62
     7
  6
CONTINUOUS
370
    -3
390
E3B
  0
LAYER
  5
21
102
{ACAD_XDICTIONARY
360
F0A
102
}
330
2
100
AcDbSymbolTableRecord
100
AcDbLayerTableRecord
  2
FORM
 70
     0
 62
     7
  6
CONTINUOUS
370
    -3
390
E3B
  0
LAYER
  5
23
102
{ACAD_XDICTIONARY
360
F0C
102
}
330
2
100
AcDbSymbolTableRecord
100
AcDbLayerTableRecord
  2
DIM
 70
     0
 62
     1
  6
CONTINUOUS
370
    -3
390
E3B
  0
LAYER
  5
26
102
{ACAD_XDICTIONARY
360
F0E
102
}
330
2
100
AcDbSymbolTableRecord
100
AcDbLayerTableRecord
  2
OBJECT
 70
     0
 62
     7
  6
CONTINUOUS
370
    -3
390
E3B
  0
LAYER
  5
D4B
330
2
100
AcDbSymbolTableRecord
100
AcDbLayerTableRecord
  2
DEFPOINTS
 70
     0
 62
     7
  6
CONTINUOUS
290
     0
370
    -3
390
E3B
  0
ENDTAB
  0
TABLE
  2
STYLE
  5
3
330
0
100
AcDbSymbolTable
 70
     2
  0
STYLE
  5
F
330
3
100
AcDbSymbolTableRecord
100
AcDbTextStyleTableRecord
  2
STANDARD
 70
     0
 40
0.0
 41
1.0
 50
0.0
 71
     0
 42
0.12
  3
ROMANS.SHX
  4

  0
STYLE
  5
B79
330
3
100
AcDbSymbolTableRecord
100
AcDbTextStyleTableRecord
  2
HELV
 70
     0
 40
0.0
 41
1.0
 50
0.0
 71
     0
 42
0.15
  3
HELVMED
  4

  0
ENDTAB
  0
TABLE
  2
VIEW
  5
6
330
0
100
AcDbSymbolTable
 70
     0
  0
ENDTAB
  0
TABLE
  2
UCS
  5
7
330
0
100
AcDbSymbolTable
 70
     0
  0
ENDTAB
  0
TABLE
  2
APPID
  5
9
330
0
100
AcDbSymbolTable
 70
     2
  0
APPID
  5
10
330
9
100
AcDbSymbolTableRecord
100
AcDbRegAppTableRecord
  2
ACAD
 70
     0
  0
APPID
  5
F05
330
9
100
AcDbSymbolTableRecord
100
AcDbRegAppTableRecord
  2
ACAD_MLEADERVER
 70
     0
  0
ENDTAB
  0
TABLE
  2
DIMSTYLE
  5
A
330
0
100
AcDbSymbolTable
 70
     1
100
AcDbDimStyleTable
 71
     0
  0
DIMSTYLE
105
FA
330
A
100
AcDbSymbolTableRecord
100
AcDbDimStyleTableRecord
  2
STANDARD
 70
     0
340
F
  0
ENDTAB
  0
TABLE
  2
BLOCK_RECORD
  5
1
330
0
100
AcDbSymbolTable
 70
     0
  0
BLOCK_RECORD
  5
17
330
1
100
AcDbSymbolTableRecord
100
AcDbBlockTableRecord
  2
*MODEL_SPACE
340
E3E
  0
BLOCK_RECORD
  5
14
330
1
100
AcDbSymbolTableRecord
100
AcDbBlockTableRecord
  2
*PAPER_SPACE
340
E3F
  0
ENDTAB
  0
ENDSEC
  0
SECTION
  2
BLOCKS
  0
BLOCK
  5
2A
330
17
100
AcDbEntity
  8
0
100
AcDbBlockBegin
  2
*MODEL_SPACE
 70
     0
 10
0.0
 20
0.0
 30
0.0
  3
*MODEL_SPACE
  1

  0
ENDBLK
  5
2B
330
17
100
AcDbEntity
  8
0
100
AcDbBlockEnd
  0
BLOCK
  5
28
330
14
100
AcDbEntity
 67
     1
  8
0
100
AcDbBlockBegin
  2
*PAPER_SPACE
 70
     0
 10
0.0
 20
0.0
 30
0.0
  3
*PAPER_SPACE
  1

  0
ENDBLK
  5
29
330
14
100
AcDbEntity
 67
     1
  8
0
100
AcDbBlockEnd
  0
ENDSEC
  0
SECTION
  2
ENTITIES
  0
MTEXT
  5
706
330
17
100
AcDbEntity
  8
DIM
 62
     7
100
AcDbMText
 10
7.268307797422659
 20
2.402335537964593
 30
0.0
 40
0.1
 41
0.0
 71
     5
 72
     1
  1
2. UNLESS OTHERWISE SPECIFIED ALL\PDIMENSIONS ARE mm (INCHES)
 73
     1
 44
1.0
  0
LINE
  5
BC7
330
17
100
AcDbEntity
  8
FORM
100
AcDbLine
 10
2.695377489052576
 20
1.989130419728978
 30
0.0
 11
0.25
 21
1.989130419728978
 31
0.0
  0
TEXT
  5
BC8
330
17
100
AcDbEntity
  8
FORM
100
AcDbText
 10
0.9766218010942354
 20
1.831598449722397
 30
0.0
 40
0.09
  1
E.O. N.O.
 72
     4
 11
1.289478943951378
 21
1.876598449722397
 31
0.0
100
AcDbText
  0
TEXT
  5
BC9
330
17
100
AcDbEntity
  8
FORM
100
AcDbText
 10
0.2842857125303047
 20
1.831598449722397
 30
0.0
 40
0.09
  1
REV.
 72
     4
 11
0.4299999982445905
 21
1.876598449722397
 31
0.0
100
AcDbText
  0
TEXT
  5
BCA
330
17
100
AcDbEntity
  8
FORM
100
AcDbText
 10
2.727228862851443
 20
1.755392835964501
 30
0.0
 40
0.05
  1
DIMENSIONS ARE IN INCHES
 72
     1
 11
3.262943148565729
 21
1.755392835964501
 31
0.0
100
AcDbText
  0
TEXT
  5
BCB
330
17
100
AcDbEntity
  8
FORM
100
AcDbText
 10
2.727278038080573
 20
1.588726169297835
 30
0.0
 40
0.05
  1
FRACTION      DECIMALS      ANGLES
 72
     1
 11
3.517754228556763
 21
1.588726169297835
 31
0.0
100
AcDbText
  0
TEXT
  5
BCC
330
17
100
AcDbEntity
  8
FORM
100
AcDbText
 10
2.737399617384427
 20
1.672059502631168
 30
0.0
 40
0.05
  1
TOLERANCES ON
 72
     1
 11
3.043351998336809
 21
1.672059502631168
 31
0.0
100
AcDbText
  0
TEXT
  5
BCD
330
17
100
AcDbEntity
  8
FORM
100
AcDbText
 10
2.723850086181901
 20
0.5138388340507319
 30
0.0
 40
0.07
  1
SCALE
100
AcDbText
  0
TEXT
  5
BCE
330
17
100
AcDbEntity
  8
FORM
100
AcDbText
 10
4.458468624149955
 20
1.872959498187011
 30
0.0
 40
0.07
  1
DWN.
100
AcDbText
  0
TEXT
  5
BCF
330
17
100
AcDbEntity
  8
FORM
100
AcDbText
 10
4.458468624149955
 20
1.398258681090509
 30
0.0
 40
0.07
  1
DATE
100
AcDbText
  0
LINE
  5
BD0
330
17
100
AcDbEntity
  8
FORM
100
AcDbLine
 10
2.695377489052576
 20
1.989130419728978
 30
0.0
 11
4.415211632832586
 21
1.989130419728978
 31
0.0
  0
TEXT
  5
BD1
330
17
100
AcDbEntity
  8
FORM
100
AcDbText
 10
2.97231839781857
 20
1.892684021717673
 30
0.0
 40
0.05
  1
UNLESS OTHERWISE SPECIFIED
 72
     4
 11
3.554461254961427
 21
1.917684021717673
 31
0.0
100
AcDbText
  0
TEXT
  5
BD2
330
17
100
AcDbEntity
  8
FORM
100
AcDbText
 10
9.294506914046444
 20
0.8333545251391596
 30
0.0
 40
0.07
  1
CHELMSFORD, MA. 01824
100
AcDbText
  0
TEXT
  5
BD3
330
17
100
AcDbEntity
  8
FORM
100
AcDbText
 10
9.418841673999887
 20
0.9907249701126081
 30
0.0
 40
0.07
  1
2 EXECUTIVE DRIVE
100
AcDbText
  0
TEXT
  5
BD4
330
17
100
AcDbEntity
  8
FORM
100
AcDbText
 10
9.370613713632506
 20
1.140724970112607
 30
0.0
 40
0.09
  1
ALLEN-BRADLEY
100
AcDbText
  0
TEXT
  5
BD5
330
17
100
AcDbEntity
  8
FORM
100
AcDbText
 10
7.657869070352465
 20
0.4599197610249633
 30
0.0
 40
0.08
  1
NO.
100
AcDbText
  0
TEXT
  5
BD6
330
17
100
AcDbEntity
  8
FORM
100
AcDbText
 10
7.657869070352465
 20
0.5932530943582961
 30
0.0
 40
0.08
  1
DWG.
100
AcDbText
  0
TEXT
  5
BD7
330
17
100
AcDbEntity
  8
FORM
100
AcDbText
 10
9.715288769836082
 20
1.498672232518766
 30
0.0
 40
0.2
  1
AB
  7
HELV
100
AcDbText
  0
TEXT
  5
BD8
330
17
100
AcDbEntity
  8
FORM
100
AcDbText
 10
2.030714285468466
 20
1.831598449722397
 30
0.0
 40
0.09
  1
DRAFTER
 72
     4
 11
2.31999999975418
 21
1.876598449722397
 31
0.0
100
AcDbText
  0
TEXT
  5
BD9
330
17
100
AcDbEntity
  8
FORM
100
AcDbText
 10
2.723850086181901
 20
0.8923554340507319
 30
0.0
 40
0.07
  1
FINISH
100
AcDbText
  0
TEXT
  5
BDA
330
17
100
AcDbEntity
  8
FORM
100
AcDbText
 10
2.723850086181901
 20
1.270872034050731
 30
0.0
 40
0.07
  1
MATERIAL
100
AcDbText
  0
TEXT
  5
BDD
330
17
100
AcDbEntity
  8
FORM
100
AcDbText
 10
4.46209378020576
 20
0.8379779333667888
 30
0.0
 40
0.06
  1
THIS DRAWING IS PROPERTY OF THE
 72
     1
 11
5.303522351634332
 21
0.8379779333667888
 31
0.0
100
AcDbText
  0
TEXT
  5
BDE
330
17
100
AcDbEntity
  8
FORM
100
AcDbText
 10
4.484950923062903
 20
0.7408350762239318
 30
0.0
 40
0.06
  1
ALLEN-BRADLEY CO. INC. AND MAY
 72
     1
 11
5.303522351634332
 21
0.7408350762239318
 31
0.0
100
AcDbText
  0
TEXT
  5
BDF
330
17
100
AcDbEntity
  8
FORM
100
AcDbText
 10
4.686379494491474
 20
0.6436922190810746
 30
0.0
 40
0.06
  1
NOT BE COPIED, USED OR
 72
     1
 11
5.303522351634332
 21
0.6436922190810746
 31
0.0
100
AcDbText
  0
TEXT
  5
BE0
330
17
100
AcDbEntity
  8
FORM
100
AcDbText
 10
4.590665208777189
 20
0.5465493619382174
 30
0.0
 40
0.06
  1
DISCLOSED FOR ANY PURPOSE
 72
     1
 11
5.303522351634332
 21
0.5465493619382174
 31
0.0
100
AcDbText
  0
TEXT
  5
BE1
330
17
100
AcDbEntity
  8
FORM
100
AcDbText
 10
4.477808065920046
 20
0.4494065047953601
 30
0.0
 40
0.06
  1
EXCEPT AS AUTHORIZED IN WRITING
 72
     1
 11
5.303522351634332
 21
0.4494065047953601
 31
0.0
100
AcDbText
  0
TEXT
  5
BE2
330
17
100
AcDbEntity
  8
FORM
100
AcDbText
 10
4.520665208777189
 20
0.3522636476525029
 30
0.0
 40
0.06
  1
BY THE ALLEN-BRADLEY CO. INC.
 72
     1
 11
5.303522351634332
 21
0.3522636476525029
 31
0.0
100
AcDbText
  0
TEXT
  5
BE3
330
17
100
AcDbEntity
  8
FORM
100
AcDbText
 10
7.661052896581039
 20
0.2814285576370099
 30
0.0
 40
0.08
  1
SIZE  A  SHEET     OF
 11
7.661052896581039
 21
0.3214285576370099
 31
0.0
100
AcDbText
 73
     2
  0
LINE
  5
BE4
330
17
100
AcDbEntity
  8
FORM
100
AcDbLine
 10
4.426533112099226
 20
1.498081847880708
 30
0.0
 11
6.182221322797538
 21
1.498081847880708
 31
0.0
  0
LINE
  5
BE5
330
17
100
AcDbEntity
  8
FORM
100
AcDbLine
 10
0.25
 20
1.007033276032438
 30
0.0
 11
6.182221322797538
 21
1.007033276032439
 31
0.0
  0
LINE
  5
BE6
330
17
100
AcDbEntity
  8
FORM
100
AcDbLine
 10
0.25
 20
1.989130419728978
 30
0.0
 11
10.71
 21
1.989130419728977
 31
0.0
  0
LINE
  5
BE7
330
17
100
AcDbEntity
  8
FORM
100
AcDbLine
 10
10.71
 20
8.274878502284188
 30
0.0
 11
0.25
 21
8.274894915469834
 31
0.0
  0
LINE
  5
BE8
330
17
100
AcDbEntity
  8
FORM
100
AcDbLine
 10
0.25
 20
8.274894915469834
 30
0.0
 11
0.25
 21
0.25
 31
0.0
  0
LINE
  5
BE9
330
17
100
AcDbEntity
  8
FORM
100
AcDbLine
 10
0.25
 20
0.25
 30
0.0
 11
10.71
 21
0.25
 31
0.0
  0
LINE
  5
BEA
330
17
100
AcDbEntity
  8
FORM
100
AcDbLine
 10
10.71
 20
0.25
 30
0.0
 11
10.71
 21
8.274878502284188
 31
0.0
  0
LINE
  5
BEB
330
17
100
AcDbEntity
  8
FORM
100
AcDbLine
 10
0.25
 20
1.385549876032439
 30
0.0
 11
4.428922508542364
 21
1.385549876032438
 31
0.0
  0
LINE
  5
BEC
330
17
100
AcDbEntity
  8
FORM
100
AcDbLine
 10
0.25
 20
1.764066479715818
 30
0.0
 11
2.68000000138049
 21
1.764066479715818
 31
0.0
  0
LINE
  5
BED
330
17
100
AcDbEntity
  8
FORM
100
AcDbLine
 10
0.25
 20
0.4392583760324392
 30
0.0
 11
2.68000000138049
 21
0.4392583760324389
 31
0.0
  0
LINE
  5
BEE
330
17
100
AcDbEntity
  8
FORM
100
AcDbLine
 10
0.25
 20
0.6285166760324392
 30
0.0
 11
4.428922508542364
 21
0.6285166760324388
 31
0.0
  0
LINE
  5
BEF
330
17
100
AcDbEntity
  8
FORM
100
AcDbLine
 10
0.25
 20
0.817774976032439
 30
0.0
 11
2.68000000138049
 21
0.8177749760324388
 31
0.0
  0
LINE
  5
BF0
330
17
100
AcDbEntity
  8
FORM
100
AcDbLine
 10
0.25
 20
1.196291576032439
 30
0.0
 11
2.68000000138049
 21
1.196291576032438
 31
0.0
  0
LINE
  5
BF1
330
17
100
AcDbEntity
  8
FORM
100
AcDbLine
 10
0.25
 20
1.574808176032439
 30
0.0
 11
2.68000000138049
 21
1.574808176032438
 31
0.0
  0
LINE
  5
BF2
330
17
100
AcDbEntity
  8
FORM
100
AcDbLine
 10
1.95999999812787
 20
1.989130419728978
 30
0.0
 11
1.95999999812787
 21
0.2483302711109045
 31
0.0
  0
LINE
  5
BF3
330
17
100
AcDbEntity
  8
FORM
100
AcDbLine
 10
0.609999996489181
 20
1.989130419728978
 30
0.0
 11
0.609999996489181
 21
0.25
 31
0.0
  0
LINE
  5
BF4
330
17
100
AcDbEntity
  8
FORM
100
AcDbLine
 10
2.68000000138049
 20
1.989130419728978
 30
0.0
 11
2.68000000138049
 21
0.2499999999999999
 31
0.0
  0
LINE
  5
BF5
330
17
100
AcDbEntity
  8
FORM
100
AcDbLine
 10
4.428922508542364
 20
1.989130419728978
 30
0.0
 11
4.428922508542364
 21
0.25
 31
0.0
  0
LINE
  5
BF6
330
17
100
AcDbEntity
  8
FORM
100
AcDbLine
 10
2.68000000138049
 20
1.846237623706368
 30
0.0
 11
4.428922508542364
 21
1.846237623706368
 31
0.0
  0
LINE
  5
BF7
330
17
100
AcDbEntity
  8
FORM
100
AcDbLine
 10
4.428922508542364
 20
1.846237623706368
 30
0.0
 11
4.428922508542364
 21
1.846237623706368
 31
0.0
  0
LINE
  5
BF8
330
17
100
AcDbEntity
  8
FORM
100
AcDbLine
 10
6.182221322797538
 20
0.3928571152740196
 30
0.0
 11
10.24124999999999
 21
0.3928571152740196
 31
0.0
  0
LINE
  5
BF9
330
17
100
AcDbEntity
  8
FORM
100
AcDbLine
 10
10.71
 20
0.739130419728978
 30
0.0
 11
6.182221322797538
 21
0.7391304197289781
 31
0.0
  0
LINE
  5
BFA
330
17
100
AcDbEntity
  8
FORM
100
AcDbLine
 10
6.182221322797538
 20
1.989130419728978
 30
0.0
 11
6.182221322797538
 21
0.25
 31
0.0
  0
LINE
  5
BFB
330
17
100
AcDbEntity
  8
FORM
100
AcDbLine
 10
6.812221322797538
 20
0.7391304197289781
 30
0.0
 11
6.812221322797537
 21
0.25
 31
0.0
  0
LINE
  5
BFC
330
17
100
AcDbEntity
  8
FORM
100
AcDbLine
 10
7.532221322797537
 20
0.7391304197289781
 30
0.0
 11
7.532221322797537
 21
0.25
 31
0.0
  0
LINE
  5
BFD
330
17
100
AcDbEntity
  8
FORM
100
AcDbLine
 10
9.21571735032967
 20
1.989130419728978
 30
0.0
 11
9.215717350329672
 21
0.7391304197289781
 31
0.0
  0
LINE
  5
BFE
330
17
100
AcDbEntity
  8
FORM
100
AcDbLine
 10
9.789666943428487
 20
1.866233118803336
 30
0.0
 11
9.62578940633189
 21
1.702355581706739
 31
0.0
  0
LINE
  5
BFF
330
17
100
AcDbEntity
  8
FORM
100
AcDbLine
 10
9.62578940633189
 20
1.702355581706739
 30
0.0
 11
9.62578940633189
 21
1.47059774617643
 31
0.0
  0
LINE
  5
C00
330
17
100
AcDbEntity
  8
FORM
100
AcDbLine
 10
9.62578940633189
 20
1.47059774617643
 30
0.0
 11
9.789666943428487
 21
1.306720209079832
 31
0.0
  0
LINE
  5
C01
330
17
100
AcDbEntity
  8
FORM
100
AcDbLine
 10
9.789666943428487
 20
1.306720209079832
 30
0.0
 11
10.02142477895879
 21
1.306720209079832
 31
0.0
  0
LINE
  5
C02
330
17
100
AcDbEntity
  8
FORM
100
AcDbLine
 10
10.02142477895879
 20
1.306720209079832
 30
0.0
 11
10.18530231605539
 21
1.47059774617643
 31
0.0
  0
LINE
  5
C03
330
17
100
AcDbEntity
  8
FORM
100
AcDbLine
 10
10.18530231605539
 20
1.47059774617643
 30
0.0
 11
10.18530231605539
 21
1.702355581706739
 31
0.0
  0
LINE
  5
C04
330
17
100
AcDbEntity
  8
FORM
100
AcDbLine
 10
10.18530231605539
 20
1.702355581706739
 30
0.0
 11
10.02142477895879
 21
1.866233118803336
 31
0.0
  0
LINE
  5
C05
330
17
100
AcDbEntity
  8
FORM
100
AcDbLine
 10
10.02142477895879
 20
1.866233118803336
 30
0.0
 11
9.789666943428487
 21
1.866233118803336
 31
0.0
  0
TEXT
  5
C06
330
17
100
AcDbEntity
  8
0
100
AcDbText
 10
10.34610119047619
 20
0.6164179222667118
 30
0.0
 40
0.08
  1
REV.
 72
     4
 11
10.475625
 21
0.6564179222667118
 31
0.0
100
AcDbText
  0
LINE
  5
C07
330
17
100
AcDbEntity
  8
0
100
AcDbLine
 10
10.24124999999999
 20
0.739130419728978
 30
0.0
 11
10.24124999999999
 21
0.25
 31
0.0
  0
LINE
  5
C08
330
17
100
AcDbEntity
  8
0
100
AcDbLine
 10
10.24124999999999
 20
0.5737054248044457
 30
0.0
 11
10.71
 21
0.5737054248044457
 31
0.0
  0
TEXT
  5
C09
330
17
100
AcDbEntity
  8
0
100
AcDbText
 10
10.41610119047619
 20
0.3683483051416797
 30
0.0
 40
0.125
  1
3
 72
     4
 11
10.475625
 21
0.4308483051416797
 31
0.0
100
AcDbText
  0
TEXT
  5
C0A
330
17
100
AcDbEntity
  8
0
100
AcDbText
 10
9.333896903985653
 20
0.2780634965791637
 30
0.0
 40
0.08
  1
1
 72
     4
 11
9.366277856366606
 21
0.3180634965791636
 31
0.0
100
AcDbText
  0
TEXT
  5
C0B
330
17
100
AcDbEntity
  8
0
100
AcDbText
 10
8.882304285335443
 20
0.2878708720998364
 30
0.0
 40
0.08
  1
1
 72
     4
 11
8.914685237716396
 21
0.3278708720998363
 31
0.0
100
AcDbText
  0
TEXT
  5
C0F
330
17
100
AcDbEntity
  8
FORM
100
AcDbText
 10
7.020370346903886
 20
1.279247820547624
 30
0.0
 40
0.2
  1
REFLECTOR
100
AcDbText
  0
TEXT
  5
C10
330
17
100
AcDbEntity
  8
FORM
100
AcDbText
 10
8.227784726103505
 20
0.5041937141522688
 30
0.0
 40
0.15
  1
92-119
100
AcDbText
  0
TEXT
  5
C12
330
17
100
AcDbEntity
  8
FORM
100
AcDbText
 10
4.854687249223998
 20
1.221741701840059
 30
0.0
 40
0.09
  1
10/1/00
100
AcDbText
  0
LINE
  5
C16
330
17
100
AcDbEntity
  8
OBJECT
100
AcDbLine
 10
3.495009112239273
 20
1.170760346989332
 30
0.0
 11
4.07495641081266
 21
1.170760346989332
 31
0.0
  0
LINE
  5
C17
330
17
100
AcDbEntity
  8
OBJECT
100
AcDbLine
 10
3.605686068576602
 20
1.095580614314133
 30
0.0
 11
3.694227675439805
 21
1.237095429071487
 31
0.0
  0
LINE
  5
C18
330
17
100
AcDbEntity
  8
OBJECT
100
AcDbLine
 10
3.773915017133347
 20
1.095580614314133
 30
0.0
 11
3.86245662399655
 21
1.237095429071487
 31
0.0
  0
LINE
  5
C19
330
17
100
AcDbEntity
  8
OBJECT
100
AcDbLine
 10
3.495009112239273
 20
0.825818028233769
 30
0.0
 11
4.07495641081266
 21
0.825818028233769
 31
0.0
  0
LINE
  5
C1A
330
17
100
AcDbEntity
  8
OBJECT
100
AcDbLine
 10
3.773915017133347
 20
0.75063829555857
 30
0.0
 11
3.86245662399655
 21
0.8921531103159239
 31
0.0
  0
LINE
  5
C1B
330
17
100
AcDbEntity
  8
OBJECT
100
AcDbLine
 10
3.605686068576602
 20
0.75063829555857
 30
0.0
 11
3.694227675439805
 21
0.8921531103159239
 31
0.0
  0
LINE
  5
C25
330
17
100
AcDbEntity
  8
OBJECT
100
AcDbLine
 10
6.953917141113437
 20
3.856202125276031
 30
0.0
 11
6.953917141113437
 21
6.808952125276032
 31
0.0
  0
LINE
  5
C26
330
17
100
AcDbEntity
  8
OBJECT
100
AcDbLine
 10
6.953917141113437
 20
3.856202125276031
 30
0.0
 11
8.600899083852283
 21
3.856202125276032
 31
0.0
  0
LINE
  5
C27
330
17
100
AcDbEntity
  8
OBJECT
100
AcDbLine
 10
8.600899083852283
 20
3.856202125276031
 30
0.0
 11
8.600899083852283
 21
6.808952125276032
 31
0.0
  0
LINE
  5
C29
330
17
100
AcDbEntity
  8
OBJECT
100
AcDbLine
 10
6.953917141113436
 20
6.808952125276032
 30
0.0
 11
8.600899083852281
 21
6.808952125276032
 31
0.0
  0
LINE
  5
C32
102
{ACAD_REACTORS
330
D18
102
}
330
17
100
AcDbEntity
  8
OBJECT
100
AcDbLine
 10
8.534524083852282
 20
3.922577125276032
 30
0.0
 11
8.534524083852284
 21
6.742577125276032
 31
0.0
  0
LINE
  5
C33
102
{ACAD_REACTORS
330
D18
102
}
330
17
100
AcDbEntity
  8
OBJECT
100
AcDbLine
 10
8.534524083852282
 20
3.922577125276031
 30
0.0
 11
7.020292141113438
 21
3.922577125276033
 31
0.0
  0
LINE
  5
C34
102
{ACAD_REACTORS
330
D18
102
}
330
17
100
AcDbEntity
  8
OBJECT
100
AcDbLine
 10
7.020292141113438
 20
6.742577125276032
 30
0.0
 11
7.020292141113438
 21
3.922577125276032
 31
0.0
  0
LINE
  5
C35
102
{ACAD_REACTORS
330
D18
102
}
330
17
100
AcDbEntity
  8
OBJECT
100
AcDbLine
 10
7.020292141113438
 20
6.742577125276032
 30
0.0
 11
8.534524083852282
 21
6.742577125276032
 31
0.0
  0
LINE
  5
C39
330
17
100
AcDbEntity
  8
OBJECT
100
AcDbLine
 10
6.172152613890018
 20
3.856202125276031
 30
0.0
 11
5.906652613890018
 21
3.856202125276032
 31
0.0
  0
LINE
  5
C3A
330
17
100
AcDbEntity
  8
OBJECT
100
AcDbLine
 10
6.172152613890018
 20
6.808952125276032
 30
0.0
 11
5.906652613890018
 21
6.808952125276032
 31
0.0
  0
LINE
  5
C3B
330
17
100
AcDbEntity
  8
OBJECT
100
AcDbLine
 10
6.172152613890018
 20
3.856202125276031
 30
0.0
 11
6.172152613890018
 21
6.808952125276032
 31
0.0
  0
LINE
  5
C3C
330
17
100
AcDbEntity
  8
OBJECT
100
AcDbLine
 10
5.906652613890018
 20
3.856202125276031
 30
0.0
 11
5.906652613890018
 21
6.808952125276032
 31
0.0
  0
LINE
  5
C5E
330
17
100
AcDbEntity
  8
0
100
AcDbLine
 10
6.088416903507784
 20
5.314384987080524
 30
0.0
 11
5.966454760379399
 21
5.377874460538946
 31
0.0
  0
LINE
  5
C5F
330
17
100
AcDbEntity
  8
0
100
AcDbLine
 10
6.08841690358775
 20
5.501670932956963
 30
0.0
 11
5.966454760479065
 21
5.438181460273527
 31
0.0
  0
LINE
  5
C60
330
17
100
AcDbEntity
  8
0
100
AcDbLine
 10
6.088416903563844
 20
5.561977932730983
 30
0.0
 11
5.966454760467275
 21
5.625467405905336
 31
0.0
  0
LINE
  5
C61
330
17
100
AcDbEntity
  8
0
100
AcDbLine
 10
6.088416903646183
 20
5.749263878762234
 30
0.0
 11
5.966454760540671
 21
5.685774405653592
 31
0.0
  0
LINE
  5
C62
330
17
100
AcDbEntity
  8
0
100
AcDbLine
 10
6.088416903604809
 20
5.809570878527161
 30
0.0
 11
5.966454760615972
 21
5.873060351337552
 31
0.0
  0
ARC
  5
C63
330
17
100
AcDbEntity
  8
0
100
AcDbCircle
 10
6.072719985004552
 20
5.284231487187293
 30
0.0
 40
0.0339945114144657
100
AcDbArc
 50
297.5
 51
62.50000000000002
  0
ARC
  5
C64
330
17
100
AcDbEntity
  8
0
100
AcDbCircle
 10
5.982151678982297
 20
5.408027960380295
 30
0.0
 40
0.0339945114144657
100
AcDbArc
 50
117.5
 51
242.4999998106204
  0
ARC
  5
C65
330
17
100
AcDbEntity
  8
0
100
AcDbCircle
 10
6.072719985060611
 20
5.531824432837751
 30
0.0
 40
0.0339945114144657
100
AcDbArc
 50
297.5000000454226
 51
62.50000000000002
  0
ARC
  5
C66
330
17
100
AcDbEntity
  8
0
100
AcDbCircle
 10
5.982151679043903
 20
5.655620905760361
 30
0.0
 40
0.0339945114144657
100
AcDbArc
 50
117.5
 51
242.499999860538
  0
ARC
  5
C67
330
17
100
AcDbEntity
  8
0
100
AcDbCircle
 10
6.072719985101577
 20
5.779417378633929
 30
0.0
 40
0.0339945114144657
100
AcDbArc
 50
297.5000000786154
 51
62.50000000000002
  0
ARC
  5
C68
330
17
100
AcDbEntity
  8
0
100
AcDbCircle
 10
5.982151679148148
 20
5.16043501477437
 30
0.0
 40
0.0339945114144657
100
AcDbArc
 50
117.5
 51
242.499999945004
  0
LINE
  5
C69
330
17
100
AcDbEntity
  8
0
100
AcDbLine
 10
6.088416903681194
 20
5.254077987594852
 30
0.0
 11
5.966454760644916
 21
5.190588514667601
 31
0.0
  0
ARC
  5
C6A
330
17
100
AcDbEntity
  8
0
100
AcDbCircle
 10
6.072719985101577
 20
5.036638542192582
 30
0.0
 40
0.0339945114144657
100
AcDbArc
 50
297.5000000786154
 51
62.50000000000002
  0
LINE
  5
C6B
330
17
100
AcDbEntity
  8
0
100
AcDbLine
 10
6.088416903604809
 20
5.066792042085813
 30
0.0
 11
5.966454760615972
 21
5.130281514896205
 31
0.0
  0
LINE
  5
C6C
330
17
100
AcDbEntity
  8
0
100
AcDbLine
 10
6.088416903646183
 20
5.006485042320887
 30
0.0
 11
5.966454760540671
 21
4.942995569212246
 31
0.0
  0
ARC
  5
C6D
330
17
100
AcDbEntity
  8
0
100
AcDbCircle
 10
5.982151679148148
 20
4.912842069293921
 30
0.0
 40
0.0339945114144657
100
AcDbArc
 50
117.5
 51
180.0
  0
ARC
  5
C6E
330
17
100
AcDbEntity
  8
0
100
AcDbCircle
 10
5.982151679148148
 20
4.912842069293921
 30
0.0
 40
0.0339945114144657
100
AcDbArc
 50
180.0
 51
242.499999945004
  0
LINE
  5
C6F
330
17
100
AcDbEntity
  8
0
100
AcDbLine
 10
6.088416903507784
 20
4.324013205158728
 30
0.0
 11
5.966454760379399
 21
4.387502678617149
 31
0.0
  0
LINE
  5
C70
330
17
100
AcDbEntity
  8
0
100
AcDbLine
 10
6.088416903587749
 20
4.511299151035165
 30
0.0
 11
5.966454760479065
 21
4.44780967835173
 31
0.0
  0
LINE
  5
C71
330
17
100
AcDbEntity
  8
0
100
AcDbLine
 10
6.088416903563844
 20
4.571606150809186
 30
0.0
 11
5.966454760467275
 21
4.63509562398354
 31
0.0
  0
LINE
  5
C72
330
17
100
AcDbEntity
  8
0
100
AcDbLine
 10
6.088416903646183
 20
4.758892096840439
 30
0.0
 11
5.966454760540671
 21
4.695402623731796
 31
0.0
  0
LINE
  5
C73
330
17
100
AcDbEntity
  8
0
100
AcDbLine
 10
6.088416903604809
 20
4.819199096605364
 30
0.0
 11
5.966454760615972
 21
4.882688569415756
 31
0.0
  0
ARC
  5
C74
330
17
100
AcDbEntity
  8
0
100
AcDbCircle
 10
6.072719985004552
 20
4.293859705265496
 30
0.0
 40
0.0339945114144657
100
AcDbArc
 50
297.5
 51
62.50000000000002
  0
ARC
  5
C75
330
17
100
AcDbEntity
  8
0
100
AcDbCircle
 10
5.982151678982297
 20
4.417656178458498
 30
0.0
 40
0.0339945114144657
100
AcDbArc
 50
117.5
 51
242.4999998106204
  0
ARC
  5
C76
330
17
100
AcDbEntity
  8
0
100
AcDbCircle
 10
6.072719985060611
 20
4.541452650915955
 30
0.0
 40
0.0339945114144657
100
AcDbArc
 50
297.5000000454226
 51
62.50000000000002
  0
ARC
  5
C77
330
17
100
AcDbEntity
  8
0
100
AcDbCircle
 10
5.982151679043903
 20
4.665249123838564
 30
0.0
 40
0.0339945114144657
100
AcDbArc
 50
117.5
 51
242.499999860538
  0
ARC
  5
C78
330
17
100
AcDbEntity
  8
0
100
AcDbCircle
 10
6.072719985101577
 20
4.789045596712132
 30
0.0
 40
0.0339945114144657
100
AcDbArc
 50
297.5000000786154
 51
62.50000000000002
  0
ARC
  5
C79
330
17
100
AcDbEntity
  8
0
100
AcDbCircle
 10
5.982151679148148
 20
4.170063232852573
 30
0.0
 40
0.0339945114144657
100
AcDbArc
 50
117.5
 51
242.499999945004
  0
LINE
  5
C7A
330
17
100
AcDbEntity
  8
0
100
AcDbLine
 10
6.088416903681193
 20
4.263706205673056
 30
0.0
 11
5.966454760644916
 21
4.200216732745806
 31
0.0
  0
ARC
  5
C7B
330
17
100
AcDbEntity
  8
0
100
AcDbCircle
 10
6.072719985101577
 20
4.046266760270786
 30
0.0
 40
0.0339945114144657
100
AcDbArc
 50
297.5000000786154
 51
62.50000000000002
  0
LINE
  5
C7C
330
17
100
AcDbEntity
  8
0
100
AcDbLine
 10
6.088416903604809
 20
4.076420260164018
 30
0.0
 11
5.966454760615972
 21
4.139909732974408
 31
0.0
  0
LINE
  5
C7D
330
17
100
AcDbEntity
  8
0
100
AcDbLine
 10
6.088416903646183
 20
4.016113260399091
 30
0.0
 11
5.966454760540671
 21
3.952623787290449
 31
0.0
  0
ARC
  5
C7E
330
17
100
AcDbEntity
  8
0
100
AcDbCircle
 10
5.982151679148148
 20
3.922470287372124
 30
0.0
 40
0.0339945114144657
100
AcDbArc
 50
117.5
 51
180.0
  0
ARC
  5
C80
330
17
100
AcDbEntity
  8
0
100
AcDbCircle
 10
6.091017577983867
 20
5.996856824236214
 30
0.0
 40
0.0339945114144657
100
AcDbArc
 50
297.5000000786154
 51
62.50000000000002
  0
LINE
  5
C81
330
17
100
AcDbEntity
  8
0
100
AcDbLine
 10
6.106714496528473
 20
5.96670332436452
 30
0.0
 11
5.984752353422962
 21
5.903213851255877
 31
0.0
  0
ARC
  5
C82
330
17
100
AcDbEntity
  8
0
100
AcDbCircle
 10
6.000449272030438
 20
5.873060351337552
 30
0.0
 40
0.0339945114144657
100
AcDbArc
 50
117.5
 51
180.0
  0
LINE
  5
C83
330
17
100
AcDbEntity
  8
0
100
AcDbLine
 10
6.10671449647004
 20
6.461889215000594
 30
0.0
 11
5.984752353361355
 21
6.398399742317158
 31
0.0
  0
ARC
  5
C84
330
17
100
AcDbEntity
  8
0
100
AcDbCircle
 10
6.091017577886843
 20
6.244449769230923
 30
0.0
 40
0.0339945114144657
100
AcDbArc
 50
297.5
 51
62.50000000000002
  0
LINE
  5
C85
330
17
100
AcDbEntity
  8
0
100
AcDbLine
 10
6.106714496563484
 20
6.214296269638484
 30
0.0
 11
5.984752353527206
 21
6.150806796711234
 31
0.0
  0
LINE
  5
C86
330
17
100
AcDbEntity
  8
0
100
AcDbLine
 10
6.106714496487099
 20
6.027010324129445
 30
0.0
 11
5.984752353498263
 21
6.090499796939836
 31
0.0
  0
ARC
  5
C87
330
17
100
AcDbEntity
  8
0
100
AcDbCircle
 10
6.000449272030438
 20
6.120653296818002
 30
0.0
 40
0.0339945114144657
100
AcDbArc
 50
117.5
 51
242.499999945004
  0
LINE
  5
C88
330
17
100
AcDbEntity
  8
0
100
AcDbLine
 10
6.106714496390075
 20
6.274603269124155
 30
0.0
 11
5.984752353261689
 21
6.338092742582578
 31
0.0
  0
ARC
  5
C89
330
17
100
AcDbEntity
  8
0
100
AcDbCircle
 10
6.000449271864587
 20
6.368246242423927
 30
0.0
 40
0.0339945114144657
100
AcDbArc
 50
117.5
 51
242.4999998106204
  0
LINE
  5
C8A
330
17
100
AcDbEntity
  8
0
100
AcDbLine
 10
6.106714496528473
 20
6.709482160805866
 30
0.0
 11
5.984752353422962
 21
6.645992687697225
 31
0.0
  0
LINE
  5
C8B
330
17
100
AcDbEntity
  8
0
100
AcDbLine
 10
6.106714496446134
 20
6.522196214774615
 30
0.0
 11
5.984752353349566
 21
6.585685687948968
 31
0.0
  0
ARC
  5
C8C
330
17
100
AcDbEntity
  8
0
100
AcDbCircle
 10
6.000449271926194
 20
6.615839187803992
 30
0.0
 40
0.0339945114144657
100
AcDbArc
 50
117.5
 51
242.499999860538
  0
ARC
  5
C8D
330
17
100
AcDbEntity
  8
0
100
AcDbCircle
 10
6.091017577942903
 20
6.492042714881383
 30
0.0
 40
0.0339945114144657
100
AcDbArc
 50
297.5000000454226
 51
62.50000000000002
  0
ARC
  5
C90
330
17
100
AcDbEntity
  8
0
100
AcDbCircle
 10
6.091017577983867
 20
6.73963566067756
 30
0.0
 40
0.0339945114144657
100
AcDbArc
 50
297.5000000786154
 51
328.0223720195181
  0
LINE
  5
CA2
330
17
100
AcDbEntity
  8
OBJECT
100
AcDbLine
 10
6.119853590449833
 20
3.856202125276031
 30
0.0
 11
6.119853590449833
 21
6.808952125276032
 31
0.0
  0
LINE
  5
CA6
330
17
100
AcDbEntity
  8
DIM
 62
     1
100
AcDbLine
 10
6.955018879883503
 20
6.855827125276032
 30
0.0
 11
6.955018879883503
 21
7.662459916342376
 31
0.0
  0
LINE
  5
CA7
330
17
100
AcDbEntity
  8
DIM
 62
     1
100
AcDbLine
 10
8.600899083852283
 20
6.855827125276032
 30
0.0
 11
8.600899083852283
 21
7.662459916342376
 31
0.0
  0
LINE
  5
CA8
330
17
100
AcDbEntity
  8
DIM
 62
     1
100
AcDbLine
 10
7.067518879883504
 20
7.527459916342376
 30
0.0
 11
7.599314210865035
 21
7.527459916342376
 31
0.0
  0
LINE
  5
CA9
330
17
100
AcDbEntity
  8
DIM
 62
     1
100
AcDbLine
 10
8.488399083852282
 20
7.527459916342376
 30
0.0
 11
8.060402849945457
 21
7.527459916342376
 31
0.0
  0
SOLID
  5
CAA
330
17
100
AcDbEntity
  8
DIM
 62
     1
100
AcDbTrace
 10
7.067518879883504
 20
7.546209916342377
 30
0.0
 11
7.067518879883504
 21
7.508709916342375
 31
0.0
 12
6.955018879883503
 22
7.527459916342376
 32
0.0
 13
6.955018879883503
 23
7.527459916342376
 33
0.0
  0
SOLID
  5
CAB
330
17
100
AcDbEntity
  8
DIM
 62
     1
100
AcDbTrace
 10
8.488399083852282
 20
7.546209916342377
 30
0.0
 11
8.488399083852282
 21
7.508709916342375
 31
0.0
 12
8.600899083852283
 22
7.527459916342376
 32
0.0
 13
8.600899083852283
 23
7.527459916342376
 33
0.0
  0
MTEXT
  5
CAC
330
17
100
AcDbEntity
  8
DIM
 62
     7
100
AcDbMText
 10
7.823171758428689
 20
7.527459916342376
 30
0.0
 40
0.09375
 41
0.0
 71
     5
 72
     1
  1
50.6
 73
     1
 44
1.0
  0
MTEXT
  5
CB4
330
17
100
AcDbEntity
  8
DIM
 62
     7
100
AcDbMText
 10
7.823171758428689
 20
7.368416261455601
 30
0.0
 40
0.09375
 41
0.0
 71
     5
 72
     1
  1
(1.993)
 73
     1
 44
1.0
  0
LINE
  5
CBD
330
17
100
AcDbEntity
  8
DIM
 62
     1
100
AcDbLine
 10
8.647774083852283
 20
3.856202125276032
 30
0.0
 11
9.790039273033897
 21
3.856202125276032
 31
0.0
  0
LINE
  5
CBE
330
17
100
AcDbEntity
  8
DIM
 62
     1
100
AcDbLine
 10
8.647774083852283
 20
6.808952125276032
 30
0.0
 11
9.790039273033897
 21
6.808952125276032
 31
0.0
  0
LINE
  5
CBF
330
17
100
AcDbEntity
  8
DIM
 62
     1
100
AcDbLine
 10
9.655039273033898
 20
3.968702125276032
 30
0.0
 11
9.655039273033898
 21
4.966383002927866
 31
0.0
  0
LINE
  5
CC0
330
17
100
AcDbEntity
  8
DIM
 62
     1
100
AcDbLine
 10
9.655039273033898
 20
6.696452125276032
 30
0.0
 11
9.655039273033898
 21
5.446952125276032
 31
0.0
  0
SOLID
  5
CC1
330
17
100
AcDbEntity
  8
DIM
 62
     1
100
AcDbTrace
 10
9.636289273033897
 20
3.968702125276032
 30
0.0
 11
9.673789273033898
 21
3.968702125276032
 31
0.0
 12
9.655039273033898
 22
3.856202125276032
 32
0.0
 13
9.655039273033898
 23
3.856202125276032
 33
0.0
  0
SOLID
  5
CC2
330
17
100
AcDbEntity
  8
DIM
 62
     1
100
AcDbTrace
 10
9.636289273033897
 20
6.696452125276032
 30
0.0
 11
9.673789273033898
 21
6.696452125276032
 31
0.0
 12
9.655039273033898
 22
6.808952125276032
 32
0.0
 13
9.655039273033898
 23
6.808952125276032
 33
0.0
  0
MTEXT
  5
CC3
330
17
100
AcDbEntity
  8
DIM
 62
     7
100
AcDbMText
 10
9.655039273033898
 20
5.332577125276032
 30
0.0
 40
0.09375
 41
0.0
 71
     5
 72
     1
  1
101
 73
     1
 44
1.0
  0
MTEXT
  5
CC4
330
17
100
AcDbEntity
  8
DIM
 62
     7
100
AcDbMText
 10
9.671950922420624
 20
5.128551389699525
 30
0.0
 40
0.09375
 41
0.0
 71
     5
 72
     1
  1
(3.976)
 73
     1
 44
1.0
  0
LINE
  5
CCF
330
17
100
AcDbEntity
  8
DIM
 62
     1
100
AcDbLine
 10
5.906652613890018
 20
6.855827125276032
 30
0.0
 11
5.906652613890018
 21
7.463655328736942
 31
0.0
  0
LINE
  5
CD0
330
17
100
AcDbEntity
  8
DIM
 62
     1
100
AcDbLine
 10
6.172152613890018
 20
6.855827125276032
 30
0.0
 11
6.172152613890018
 21
7.463655328736942
 31
0.0
  0
LINE
  5
CD1
330
17
100
AcDbEntity
  8
DIM
 62
     1
100
AcDbLine
 10
5.794152613890018
 20
7.328655328736942
 30
0.0
 11
5.681652613890018
 21
7.328655328736942
 31
0.0
  0
LINE
  5
CD2
330
17
100
AcDbEntity
  8
DIM
 62
     1
100
AcDbLine
 10
6.284652613890018
 20
7.328655328736942
 30
0.0
 11
6.397152613890018
 21
7.328655328736942
 31
0.0
  0
SOLID
  5
CD3
330
17
100
AcDbEntity
  8
DIM
 62
     1
100
AcDbTrace
 10
5.794152613890018
 20
7.347405328736943
 30
0.0
 11
5.794152613890018
 21
7.309905328736942
 31
0.0
 12
5.906652613890018
 22
7.328655328736942
 32
0.0
 13
5.906652613890018
 23
7.328655328736942
 33
0.0
  0
SOLID
  5
CD4
330
17
100
AcDbEntity
  8
DIM
 62
     1
100
AcDbTrace
 10
6.284652613890018
 20
7.347405328736943
 30
0.0
 11
6.284652613890018
 21
7.309905328736942
 31
0.0
 12
6.172152613890018
 22
7.328655328736942
 32
0.0
 13
6.172152613890018
 23
7.328655328736942
 33
0.0
  0
MTEXT
  5
CD5
330
17
100
AcDbEntity
  8
DIM
 62
     7
100
AcDbMText
 10
5.509939140140328
 20
7.328655328736942
 30
0.0
 40
0.09375
 41
0.0
 71
     5
 72
     1
  1
7.5
 73
     1
 44
1.0
  0
MTEXT
  5
CD6
330
17
100
AcDbEntity
  8
DIM
 62
     7
100
AcDbMText
 10
5.509227739862036
 20
7.166409271149762
 30
0.0
 40
0.09375
 41
0.0
 71
     5
 72
     1
  1
(.295)
 73
     1
 44
1.0
  0
LINE
  5
CE1
330
17
100
AcDbEntity
  8
OBJECT
100
AcDbLine
 10
3.495009112239273
 20
0.437044620550271
 30
0.0
 11
4.07495641081266
 21
0.437044620550271
 31
0.0
  0
LINE
  5
CE2
330
17
100
AcDbEntity
  8
OBJECT
100
AcDbLine
 10
3.773915017133347
 20
0.3618648878750719
 30
0.0
 11
3.86245662399655
 21
0.5033797026324259
 31
0.0
  0
LINE
  5
CE3
330
17
100
AcDbEntity
  8
OBJECT
100
AcDbLine
 10
3.605686068576602
 20
0.3618648878750719
 30
0.0
 11
3.694227675439805
 21
0.5033797026324259
 31
0.0
  0
MTEXT
  5
CFA
330
17
100
AcDbEntity
  8
DIM
 62
     7
100
AcDbMText
 10
7.268307797422659
 20
2.143552094071083
 30
0.0
 40
0.1
 41
0.0
 71
     5
 72
     1
  1
AND ARE FOR REFERENCE ONLY
 73
     1
 44
1.0
  0
LINE
  5
D0E
330
17
100
AcDbEntity
  8
OBJECT
100
AcDbLine
 10
6.119853590449833
 20
3.922470287372124
 30
0.0
 11
5.948157167733683
 21
3.922470287372124
 31
0.0
  0
HATCH
  5
D18
330
17
100
AcDbEntity
  8
OBJECT
100
AcDbHatch
 10
0.0
 20
0.0
 30
0.0
210
0.0
220
0.0
230
1.0
  2
HONEY
 70
     0
 71
     1
 91
        1
 92
        7
 72
     0
 73
     1
 93
        4
 10
8.534524083852284
 20
6.742577125276032
 10
7.020292141113439
 20
6.742577125276032
 10
7.020292141113438
 20
3.922577125276033
 10
8.53452408385228
 20
3.922577125276031
 97
        4
330
C35
330
C34
330
C33
330
C32
 75
     0
 76
     1
 52
0.0
 41
0.35
 77
     0
 78
     3
 53
0.0
 43
1.305140155855099
 44
-0.1574991579273615
 45
0.065625
 46
0.03788861125
 79
     2
 49
0.04375
 49
-0.0875
 53
120.0
 43
1.305140155855099
 44
-0.1574991579273615
 45
-0.0656249998566129
 46
0.0378886114983538
 79
     2
 49
0.04375
 49
-0.0875
 53
60.0
 43
1.305140155855099
 44
-0.1574991579273615
 45
0.0000000001433871
 46
0.0757772227483538
 79
     2
 49
-0.0875
 49
0.04375
 47
0.0148342059336824
 98
        1
 10
8.275026783207668
 20
5.041890022543263
  0
LINE
  5
D27
330
17
100
AcDbEntity
  8
OBJECT
100
AcDbLine
 10
1.919577722345275
 20
3.856202125276031
 30
0.0
 11
1.919577722345275
 21
6.808952125276032
 31
0.0
  0
LINE
  5
D28
330
17
100
AcDbEntity
  8
OBJECT
100
AcDbLine
 10
1.919577722345273
 20
6.808952125276032
 30
0.0
 11
3.566559665084119
 21
6.808952125276032
 31
0.0
  0
LINE
  5
D29
330
17
100
AcDbEntity
  8
OBJECT
100
AcDbLine
 10
3.56655966508412
 20
3.856202125276031
 30
0.0
 11
3.56655966508412
 21
6.808952125276032
 31
0.0
  0
LINE
  5
D2A
330
17
100
AcDbEntity
  8
OBJECT
100
AcDbLine
 10
1.919577722345274
 20
3.856202125276031
 30
0.0
 11
3.56655966508412
 21
3.856202125276032
 31
0.0
  0
LINE
  5
D2C
330
17
100
AcDbEntity
  8
OBJECT
100
AcDbLine
 10
3.03455966508412
 20
6.332577125276033
 30
0.0
 11
3.53455966508412
 21
6.332577125276032
 31
0.0
  0
LINE
  5
D2D
330
17
100
AcDbEntity
  8
OBJECT
100
AcDbLine
 10
3.03455966508412
 20
4.332577125276031
 30
0.0
 11
3.53455966508412
 21
4.332577125276031
 31
0.0
  0
LINE
  5
D2E
330
17
100
AcDbEntity
  8
OBJECT
100
AcDbLine
 10
3.53455966508412
 20
4.332577125276031
 30
0.0
 11
3.53455966508412
 21
6.332577125276034
 31
0.0
  0
LINE
  5
D2F
330
17
100
AcDbEntity
  8
OBJECT
100
AcDbLine
 10
3.03455966508412
 20
4.332577125276031
 30
0.0
 11
3.03455966508412
 21
6.332577125276034
 31
0.0
  0
LINE
  5
D30
330
17
100
AcDbEntity
  8
OBJECT
100
AcDbLine
 10
1.951577722345275
 20
4.332577125276031
 30
0.0
 11
1.951577722345275
 21
6.332577125276034
 31
0.0
  0
LINE
  5
D31
330
17
100
AcDbEntity
  8
OBJECT
100
AcDbLine
 10
2.451577722345275
 20
4.332577125276031
 30
0.0
 11
2.451577722345275
 21
6.332577125276034
 31
0.0
  0
LINE
  5
D32
330
17
100
AcDbEntity
  8
OBJECT
100
AcDbLine
 10
2.451577722345275
 20
4.332577125276031
 30
0.0
 11
1.951577722345275
 21
4.332577125276031
 31
0.0
  0
LINE
  5
D33
330
17
100
AcDbEntity
  8
OBJECT
100
AcDbLine
 10
2.451577722345275
 20
6.332577125276033
 30
0.0
 11
1.951577722345275
 21
6.332577125276032
 31
0.0
  0
MTEXT
  5
E2D
330
17
100
AcDbEntity
  8
DIM
 62
     7
100
AcDbMText
 10
7.266587867412804
 20
2.710415829557747
 30
0.0
 40
0.1
 41
0.0
 71
     5
 72
     1
  1
1. TAPE IS CENTERED ON REFLECTOR
 73
     1
 44
1.0
  0
LINE
  5
E33
330
17
100
AcDbEntity
  8
OBJECT
100
AcDbLine
 10
5.827604409588751
 20
4.332577125276031
 30
0.0
 11
5.906652613890019
 21
4.332577125276031
 31
0.0
  0
LINE
  5
E34
330
17
100
AcDbEntity
  8
OBJECT
100
AcDbLine
 10
5.827604409588751
 20
6.332577125276033
 30
0.0
 11
5.906652613890019
 21
6.332577125276032
 31
0.0
  0
LINE
  5
E35
330
17
100
AcDbEntity
  8
OBJECT
100
AcDbLine
 10
5.827604409588751
 20
4.332577125276031
 30
0.0
 11
5.827604409588751
 21
6.332577125276034
 31
0.0
  0
LINE
  5
E42
330
17
100
AcDbEntity
  8
OBJECT
100
AcDbLine
 10
3.578942561130605
 20
1.442418436519608
 30
0.0
 11
3.633740286775667
 21
1.530000876781465
 31
0.0
  0
LINE
  5
E43
330
17
100
AcDbEntity
  8
OBJECT
100
AcDbLine
 10
3.474826947068929
 20
1.442418436519608
 30
0.0
 11
3.529624672713991
 21
1.530000876781465
 31
0.0
  0
LINE
  5
E44
330
17
100
AcDbEntity
  8
OBJECT
100
AcDbLine
 10
3.406329822344575
 20
1.488946600070667
 30
0.0
 11
3.765254785214511
 21
1.488946600070667
 31
0.0
  0
LINE
  5
E45
330
17
100
AcDbEntity
  8
OBJECT
100
AcDbLine
 10
2.93759037317726
 20
1.442418436519608
 30
0.0
 11
2.992388098822322
 21
1.530000876781465
 31
0.0
  0
LINE
  5
E46
330
17
100
AcDbEntity
  8
OBJECT
100
AcDbLine
 10
2.833474759115584
 20
1.442418436519608
 30
0.0
 11
2.888272484760646
 21
1.530000876781465
 31
0.0
  0
LINE
  5
E47
330
17
100
AcDbEntity
  8
OBJECT
100
AcDbLine
 10
2.76497763439123
 20
1.488946600070667
 30
0.0
 11
3.123902597261166
 21
1.488946600070667
 31
0.0
  0
LINE
  5
E48
330
17
100
AcDbEntity
  8
OBJECT
100
AcDbLine
 10
4.010248982701158
 20
1.488946600070667
 30
0.0
 11
4.369173945571094
 21
1.488946600070667
 31
0.0
  0
LINE
  5
E49
330
17
100
AcDbEntity
  8
OBJECT
100
AcDbLine
 10
4.182861721487187
 20
1.442418436519608
 30
0.0
 11
4.23765944713225
 21
1.530000876781465
 31
0.0
  0
LINE
  5
E4A
330
17
100
AcDbEntity
  8
OBJECT
100
AcDbLine
 10
4.078746107425511
 20
1.442418436519608
 30
0.0
 11
4.133543833070573
 21
1.530000876781465
 31
0.0
  0
MTEXT
  5
E4F
330
17
100
AcDbEntity
  8
DIM
 62
     7
100
AcDbMText
 10
5.930309193065392
 20
3.150530509133234
 30
0.0
 40
0.1
 41
0.0
 71
     5
 72
     1
  1
NOTES:
 73
     1
 44
1.0
  0
LINE
  5
E82
330
17
100
AcDbEntity
  8
OBJECT
 62
     1
100
AcDbLine
 10
3.53455966508412
 20
6.395077125276032
 30
0.0
 11
3.53455966508412
 21
7.4622293262777
 31
0.0
  0
LINE
  5
E83
330
17
100
AcDbEntity
  8
OBJECT
 62
     1
100
AcDbLine
 10
3.56655966508412
 20
6.871452125276032
 30
0.0
 11
3.56655966508412
 21
7.4622293262777
 31
0.0
  0
LINE
  5
E84
330
17
100
AcDbEntity
  8
OBJECT
 62
     1
100
AcDbLine
 10
3.38455966508412
 20
7.2822293262777
 30
0.0
 11
3.03455966508412
 21
7.2822293262777
 31
0.0
  0
LINE
  5
E85
330
17
100
AcDbEntity
  8
OBJECT
 62
     1
100
AcDbLine
 10
3.71655966508412
 20
7.2822293262777
 30
0.0
 11
3.86655966508412
 21
7.2822293262777
 31
0.0
  0
SOLID
  5
E86
330
17
100
AcDbEntity
  8
OBJECT
 62
     1
100
AcDbTrace
 10
3.38455966508412
 20
7.307229326277701
 30
0.0
 11
3.38455966508412
 21
7.2572293262777
 31
0.0
 12
3.53455966508412
 22
7.2822293262777
 32
0.0
 13
3.53455966508412
 23
7.2822293262777
 33
0.0
  0
SOLID
  5
E87
330
17
100
AcDbEntity
  8
OBJECT
 62
     1
100
AcDbTrace
 10
3.71655966508412
 20
7.307229326277701
 30
0.0
 11
3.71655966508412
 21
7.2572293262777
 31
0.0
 12
3.56655966508412
 22
7.2822293262777
 32
0.0
 13
3.56655966508412
 23
7.2822293262777
 33
0.0
  0
MTEXT
  5
E88
330
17
100
AcDbEntity
  8
OBJECT
 62
     7
100
AcDbMText
 10
4.073670866991093
 20
7.2822293262777
 30
0.0
 40
0.09375
 41
0.0
 71
     5
 72
     1
  1
.81
 73
     1
 44
1.0
  0
MTEXT
  5
E89
330
17
100
AcDbEntity
  8
OBJECT
 62
     7
100
AcDbMText
 10
4.073670866991093
 20
7.098751489295445
 30
0.0
 40
0.09375
 41
0.0
 71
     5
 72
     1
  1
(.032)
 73
     1
 44
1.0
  0
LINE
  5
E8A
330
17
100
AcDbEntity
  8
OBJECT
 62
     1
100
AcDbLine
 10
3.03455966508412
 20
6.395077125276033
 30
0.0
 11
3.03455966508412
 21
7.462710903305431
 31
0.0
  0
LINE
  5
E8B
330
17
100
AcDbEntity
  8
OBJECT
 62
     1
100
AcDbLine
 10
3.53455966508412
 20
6.395077125276032
 30
0.0
 11
3.53455966508412
 21
7.462710903305431
 31
0.0
  0
LINE
  5
E8D
330
17
100
AcDbEntity
  8
OBJECT
 62
     1
100
AcDbLine
 10
3.03455966508412
 20
7.282710903305432
 30
0.0
 11
2.83768466508412
 21
7.282710903305432
 31
0.0
  0
SOLID
  5
E8E
330
17
100
AcDbEntity
  8
OBJECT
 62
     1
100
AcDbTrace
 10
3.38455966508412
 20
7.307710903305432
 30
0.0
 11
3.38455966508412
 21
7.257710903305431
 31
0.0
 12
3.53455966508412
 22
7.282710903305432
 32
0.0
 13
3.53455966508412
 23
7.282710903305432
 33
0.0
  0
SOLID
  5
E8F
330
17
100
AcDbEntity
  8
OBJECT
 62
     1
100
AcDbTrace
 10
3.18455966508412
 20
7.307710903305432
 30
0.0
 11
3.18455966508412
 21
7.257710903305431
 31
0.0
 12
3.03455966508412
 22
7.282710903305432
 32
0.0
 13
3.03455966508412
 23
7.282710903305432
 33
0.0
  0
MTEXT
  5
E90
330
17
100
AcDbEntity
  8
OBJECT
 62
     7
100
AcDbMText
 10
2.621654732245655
 20
7.282710903305432
 30
0.0
 40
0.09375
 41
0.0
 71
     5
 72
     1
  1
12.7
 73
     1
 44
1.0
  0
MTEXT
  5
E91
330
17
100
AcDbEntity
  8
OBJECT
 62
     7
100
AcDbMText
 10
2.621654732245655
 20
7.107040628970786
 30
0.0
 40
0.09375
 41
0.0
 71
     5
 72
     1
  1
(.500)
 73
     1
 44
1.0
  0
LINE
  5
E92
330
17
100
AcDbEntity
  8
OBJECT
 62
     1
100
AcDbLine
 10
3.59705966508412
 20
6.332577125276034
 30
0.0
 11
4.34393433721624
 21
6.332577125276034
 31
0.0
  0
LINE
  5
E93
330
17
100
AcDbEntity
  8
OBJECT
 62
     1
100
AcDbLine
 10
3.59705966508412
 20
4.332577125276031
 30
0.0
 11
4.343934337216239
 21
4.332577125276031
 31
0.0
  0
LINE
  5
E94
330
17
100
AcDbEntity
  8
OBJECT
 62
     1
100
AcDbLine
 10
4.16393433721624
 20
6.182577125276034
 30
0.0
 11
4.16393433721624
 21
5.672070729059153
 31
0.0
  0
LINE
  5
E95
330
17
100
AcDbEntity
  8
OBJECT
 62
     1
100
AcDbLine
 10
4.16393433721624
 20
4.482577125276032
 30
0.0
 11
4.16393433721624
 21
5.171148553847461
 31
0.0
  0
SOLID
  5
E96
330
17
100
AcDbEntity
  8
OBJECT
 62
     1
100
AcDbTrace
 10
4.13893433721624
 20
6.182577125276034
 30
0.0
 11
4.188934337216241
 21
6.182577125276034
 31
0.0
 12
4.16393433721624
 22
6.332577125276034
 32
0.0
 13
4.16393433721624
 23
6.332577125276034
 33
0.0
  0
SOLID
  5
E97
330
17
100
AcDbEntity
  8
OBJECT
 62
     1
100
AcDbTrace
 10
4.138934337216239
 20
4.482577125276032
 30
0.0
 11
4.18893433721624
 21
4.482577125276032
 31
0.0
 12
4.16393433721624
 22
4.332577125276031
 32
0.0
 13
4.16393433721624
 23
4.332577125276031
 33
0.0
  0
MTEXT
  5
E98
330
17
100
AcDbEntity
  8
OBJECT
 62
     7
100
AcDbMText
 10
4.163934337216239
 20
5.537804612412577
 30
0.0
 40
0.09375
 41
0.0
 71
     5
 72
     1
  1
50.8
 73
     1
 44
1.0
  0
MTEXT
  5
E99
330
17
100
AcDbEntity
  8
OBJECT
 62
     7
100
AcDbMText
 10
4.163934337216239
 20
5.344649329363127
 30
0.0
 40
0.09375
 41
0.0
 71
     5
 72
     1
  1
(2.000)
 73
     1
 44
1.0
  0
LINE
  5
E9A
330
17
100
AcDbEntity
  8
OBJECT
 62
     1
100
AcDbLine
 10
1.951577722345275
 20
4.270077125276031
 30
0.0
 11
1.951577722345275
 21
3.268280929842152
 31
0.0
  0
LINE
  5
E9B
330
17
100
AcDbEntity
  8
OBJECT
 62
     1
100
AcDbLine
 10
2.451577722345275
 20
4.270077125276031
 30
0.0
 11
2.451577722345275
 21
3.268280929842152
 31
0.0
  0
LINE
  5
E9C
330
17
100
AcDbEntity
  8
OBJECT
 62
     1
100
AcDbLine
 10
2.101577722345275
 20
3.448280929842152
 30
0.0
 11
2.301577722345275
 21
3.448280929842152
 31
0.0
  0
LINE
  5
E9D
330
17
100
AcDbEntity
  8
OBJECT
 62
     1
100
AcDbLine
 10
2.451577722345275
 20
3.448280929842152
 30
0.0
 11
2.601577722345275
 21
3.448280929842152
 31
0.0
  0
SOLID
  5
E9E
330
17
100
AcDbEntity
  8
OBJECT
 62
     1
100
AcDbTrace
 10
2.101577722345275
 20
3.473280929842152
 30
0.0
 11
2.101577722345275
 21
3.423280929842152
 31
0.0
 12
1.951577722345275
 22
3.448280929842152
 32
0.0
 13
1.951577722345275
 23
3.448280929842152
 33
0.0
  0
SOLID
  5
E9F
330
17
100
AcDbEntity
  8
OBJECT
 62
     1
100
AcDbTrace
 10
2.301577722345275
 20
3.473280929842152
 30
0.0
 11
2.301577722345275
 21
3.423280929842152
 31
0.0
 12
2.451577722345275
 22
3.448280929842152
 32
0.0
 13
2.451577722345275
 23
3.448280929842152
 33
0.0
  0
MTEXT
  5
EA0
330
17
100
AcDbEntity
  8
OBJECT
 62
     7
100
AcDbMText
 10
2.809792695059476
 20
3.448280929842152
 30
0.0
 40
0.09375
 41
0.0
 71
     5
 72
     1
  1
12.7
 73
     1
 44
1.0
  0
LINE
  5
EA1
330
17
100
AcDbEntity
  8
OBJECT
 62
     1
100
AcDbLine
 10
1.919577722345274
 20
3.793702125276031
 30
0.0
 11
1.919577722345274
 21
3.26628436046413
 31
0.0
  0
LINE
  5
EA2
330
17
100
AcDbEntity
  8
OBJECT
 62
     1
100
AcDbLine
 10
1.951577722345275
 20
4.270077125276031
 30
0.0
 11
1.951577722345275
 21
3.26628436046413
 31
0.0
  0
LINE
  5
EA4
330
17
100
AcDbEntity
  8
OBJECT
 62
     1
100
AcDbLine
 10
1.769577722345274
 20
3.44628436046413
 30
0.0
 11
1.619577722345274
 21
3.44628436046413
 31
0.0
  0
SOLID
  5
EA5
330
17
100
AcDbEntity
  8
OBJECT
 62
     1
100
AcDbTrace
 10
2.101577722345275
 20
3.471284360464129
 30
0.0
 11
2.101577722345275
 21
3.42128436046413
 31
0.0
 12
1.951577722345275
 22
3.44628436046413
 32
0.0
 13
1.951577722345275
 23
3.44628436046413
 33
0.0
  0
SOLID
  5
EA6
330
17
100
AcDbEntity
  8
OBJECT
 62
     1
100
AcDbTrace
 10
1.769577722345274
 20
3.471284360464129
 30
0.0
 11
1.769577722345274
 21
3.42128436046413
 31
0.0
 12
1.919577722345274
 22
3.44628436046413
 32
0.0
 13
1.919577722345274
 23
3.44628436046413
 33
0.0
  0
MTEXT
  5
EA7
330
17
100
AcDbEntity
  8
OBJECT
 62
     7
100
AcDbMText
 10
1.454890575009746
 20
3.44628436046413
 30
0.0
 40
0.09375
 41
0.0
 71
     5
 72
     1
  1
.81
 73
     1
 44
1.0
  0
MTEXT
  5
EA8
330
17
100
AcDbEntity
  8
OBJECT
 62
     7
100
AcDbMText
 10
2.809792695059476
 20
3.277629804184968
 30
0.0
 40
0.09375
 41
0.0
 71
     5
 72
     1
  1
(.500)
 73
     1
 44
1.0
  0
MTEXT
  5
EA9
330
17
100
AcDbEntity
  8
OBJECT
 62
     7
100
AcDbMText
 10
1.454890575009746
 20
3.268941048340931
 30
0.0
 40
0.09375
 41
0.0
 71
     5
 72
     1
  1
(.032)
 73
     1
 44
1.0
  0
LEADER
  5
EAF
330
17
100
AcDbEntity
  8
OBJECT
100
AcDbLeader
  3
STANDARD
 73
     0
 40
0.25
 41
1.058035714285713
 76
     3
 10
3.306747663285548
 20
4.493971408979628
 30
0.0
 10
3.798299709535676
 20
3.791491297580428
 30
0.0
 10
4.018355618021477
 20
3.791491297580428
 30
0.0
340
EB0
213
0.0
223
-0.046875
233
0.0
1001
ACAD
1000
DSTYLE
1002
{
1070
    41
1040
0.15
1070
    78
1070
     4
1070
   140
1040
0.09375
1070
   170
1070
     1
1070
   176
1070
     1
1070
   177
1070
     1
1070
   178
1070
     7
1070
   271
1070
     3
1070
   272
1070
     3
1070
   284
1070
     4
1002
}
  0
MTEXT
  5
EB0
102
{ACAD_REACTORS
330
EAF
102
}
330
17
100
AcDbEntity
  8
OBJECT
 62
     7
100
AcDbMText
 10
4.108355618021477
 20
3.838366297580428
 30
0.0
 40
0.09375
 41
0.0
 71
     1
 72
     1
  1
\A1;ADHESIVE TAPE\P2 PLC
 73
     1
 44
1.0
  0
ENDSEC
  0
SECTION
  2
OBJECTS
  0
DICTIONARY
  5
C
330
0
100
AcDbDictionary
281
     1
  3
ACAD_COLOR
350
EDE
  3
ACAD_GROUP
350
D
  3
ACAD_LAYOUT
350
E3C
  3
ACAD_MATERIAL
350
EB4
  3
ACAD_MLEADERSTYLE
350
F03
  3
ACAD_MLINESTYLE
350
1A
  3
ACAD_PLOTSETTINGS
350
E3D
  3
ACAD_PLOTSTYLENAME
350
E3A
  3
ACAD_SCALELIST
350
EE1
  3
ACAD_TABLESTYLE
350
EDF
  3
ACAD_VISUALSTYLE
350
ECD
  3
ACDB_RECOMPOSE_DATA
350
F1C
  3
ACDBVARIABLEDICTIONARY
350
2C
  0
DICTIONARY
  5
F08
330
E
100
AcDbDictionary
280
     1
281
     1
  3
ADSK_XREC_LAYER_RECONCILED
360
F09
  0
DICTIONARY
  5
F0A
330
21
100
AcDbDictionary
280
     1
281
     1
  3
ADSK_XREC_LAYER_RECONCILED
360
F0B
  0
DICTIONARY
  5
F0C
330
23
100
AcDbDictionary
280
     1
281
     1
  3
ADSK_XREC_LAYER_RECONCILED
360
F0D
  0
DICTIONARY
  5
F0E
330
26
100
AcDbDictionary
280
     1
281
     1
  3
ADSK_XREC_LAYER_RECONCILED
360
F0F
  0
DICTIONARY
  5
EDE
102
{ACAD_REACTORS
330
C
102
}
330
C
100
AcDbDictionary
281
     1
  0
DICTIONARY
  5
D
102
{ACAD_REACTORS
330
C
102
}
330
C
100
AcDbDictionary
281
     1
  0
DICTIONARY
  5
E3C
102
{ACAD_REACTORS
330
C
102
}
330
C
100
AcDbDictionary
281
     1
  3
Layout1
350
E3F
  3
Model
350
E3E
  0
DICTIONARY
  5
EB4
102
{ACAD_REACTORS
330
C
102
}
330
C
100
AcDbDictionary
281
     1
  3
ByBlock
350
EBD
  3
ByLayer
350
EB5
  3
Global
350
EC5
  0
DICTIONARY
  5
F03
102
{ACAD_REACTORS
330
C
102
}
330
C
100
AcDbDictionary
281
     1
  3
Standard
350
F04
  0
DICTIONARY
  5
1A
102
{ACAD_REACTORS
330
C
102
}
330
C
100
AcDbDictionary
281
     1
  3
STANDARD
350
1B
  0
DICTIONARY
  5
E3D
102
{ACAD_REACTORS
330
C
102
}
330
C
100
AcDbDictionary
281
     1
  0
ACDBDICTIONARYWDFLT
  5
E3A
102
{ACAD_REACTORS
330
C
102
}
330
C
100
AcDbDictionary
281
     1
  3
Normal
350
E3B
100
AcDbDictionaryWithDefault
340
E3B
  0
DICTIONARY
  5
EE1
102
{ACAD_REACTORS
330
C
102
}
330
C
100
AcDbDictionary
281
     1
  3
A0
350
EE2
  3
A1
350
EE3
  3
A2
350
EE4
  3
A3
350
EE5
  3
A4
350
EE6
  3
A5
350
EE7
  3
A6
350
EE8
  3
A7
350
EE9
  3
A8
350
EEA
  3
A9
350
EEB
  3
B0
350
EEC
  3
B1
350
EED
  3
B2
350
EEE
  3
B3
350
EEF
  3
B4
350
EF0
  3
B5
350
EF1
  3
B6
350
EF2
  3
B7
350
EF3
  3
B8
350
EF4
  3
B9
350
EF5
  3
C0
350
EF6
  3
C1
350
EF7
  3
C2
350
EF8
  3
C3
350
EF9
  3
C4
350
EFA
  3
C5
350
EFB
  3
C6
350
EFC
  3
C7
350
EFD
  3
C8
350
EFE
  3
C9
350
EFF
  3
D0
350
F00
  3
D1
350
F01
  3
D2
350
F02
  0
DICTIONARY
  5
EDF
102
{ACAD_REACTORS
330
C
102
}
330
C
100
AcDbDictionary
281
     1
  3
Standard
350
EE0
  0
DICTIONARY
  5
ECD
102
{ACAD_REACTORS
330
C
102
}
330
C
100
AcDbDictionary
281
     1
  3
2dWireframe
350
ED3
  3
3D Hidden
350
ED5
  3
3dWireframe
350
ED4
  3
Basic
350
ED2
  3
Brighten
350
ED9
  3
ColorChange
350
EDD
  3
Conceptual
350
ED6
  3
Dim
350
ED8
  3
Facepattern
350
EDC
  3
Flat
350
ECE
  3
FlatWithEdges
350
ECF
  3
Gouraud
350
ED0
  3
GouraudWithEdges
350
ED1
  3
Linepattern
350
EDB
  3
Realistic
350
ED7
  3
Thicken
350
EDA
  0
XRECORD
  5
F1C
102
{ACAD_REACTORS
330
C
102
}
330
C
100
AcDbXrecord
280
     1
 90
        1
330
EE0
  0
DICTIONARY
  5
2C
102
{ACAD_REACTORS
330
C
102
}
330
C
100
AcDbDictionary
281
     1
  3
CANNOSCALE
350
F12
  3
CMLEADERSTYLE
350
F11
  3
CTABLESTYLE
350
F10
  3
DIMADEC
350
2D
  3
DIMASSOC
350
EAB
  3
SORTENTS
350
18C
  0
XRECORD
  5
F09
102
{ACAD_REACTORS
330
F08
102
}
330
F08
100
AcDbXrecord
280
     1
290
     1
  0
XRECORD
  5
F0B
102
{ACAD_REACTORS
330
F0A
102
}
330
F0A
100
AcDbXrecord
280
     1
290
     1
  0
XRECORD
  5
F0D
102
{ACAD_REACTORS
330
F0C
102
}
330
F0C
100
AcDbXrecord
280
     1
290
     1
  0
XRECORD
  5
F0F
102
{ACAD_REACTORS
330
F0E
102
}
330
F0E
100
AcDbXrecord
280
     1
290
     1
  0
LAYOUT
  5
E3F
102
{ACAD_REACTORS
330
E3C
102
}
330
E3C
100
AcDbPlotSettings
  1

  2
\\PRINT\maxinecal
  4

  6

 40
0.0
 41
0.0
 42
0.0
 43
0.0
 44
0.0
 45
0.0
 46
0.0
 47
0.0
 48
0.0
 49
0.0
140
0.0
141
0.0
142
1.0
143
1.0
 70
   688
 72
     0
 73
     0
 74
     5
  7
standard.ctb
 75
    16
147
1.0
 76
     0
 77
     2
 78
   300
148
0.0
149
0.0
100
AcDbLayout
  1
Layout1
 70
     0
 71
     1
 10
0.0
 20
0.0
 11
12.0
 21
9.0
 12
0.0
 22
0.0
 32
0.0
 14
1.000000000000000E+20
 24
1.000000000000000E+20
 34
1.000000000000000E+20
 15
-1.000000000000000E+20
 25
-1.000000000000000E+20
 35
-1.000000000000000E+20
146
0.0
 13
0.0
 23
0.0
 33
0.0
 16
1.0
 26
0.0
 36
0.0
 17
0.0
 27
1.0
 37
0.0
 76
     0
330
14
  0
LAYOUT
  5
E3E
102
{ACAD_REACTORS
330
E3C
102
}
330
E3C
100
AcDbPlotSettings
  1

  2
\\PRINT\maxinecal
  4
Letter
  6

 40
7.143749713897705
 41
6.720414161682128
 42
7.14373779296875
 43
5.027069091796875
 44
215.8999938964844
 45
279.3999938964844
 46
0.0
 47
0.0
 48
0.0
 49
0.0
140
0.0
141
0.0
142
1.0
143
1.0
 70
 11952
 72
     0
 73
     1
 74
     0
  7

 75
     0
147
1.0
 76
     0
 77
     2
 78
   300
148
-30.4849609375
149
1.265039062499999
100
AcDbLayout
  1
Model
 70
     1
 71
     0
 10
0.0
 20
0.0
 11
12.0
 21
9.0
 12
0.0
 22
0.0
 32
0.0
 14
0.0
 24
0.0
 34
0.0
 15
0.0
 25
0.0
 35
0.0
146
0.0
 13
0.0
 23
0.0
 33
0.0
 16
1.0
 26
0.0
 36
0.0
 17
0.0
 27
1.0
 37
0.0
 76
     0
330
17
331
EB2
  0
MATERIAL
  5
EBD
102
{ACAD_XDICTIONARY
360
EBE
102
}
102
{ACAD_REACTORS
330
EB4
102
}
330
EB4
100
AcDbMaterial
  1
ByBlock
 72
     0
 43
0.0208333333333333
 43
0.0
 43
0.0
 43
0.0
 43
0.0
 43
0.0208333333333333
 43
0.0
 43
0.0
 43
0.0
 43
0.0
 43
1.0
 43
0.0
 43
0.0
 43
0.0
 43
0.0
 43
1.0
 77
     0
 47
0.0208333333333333
 47
0.0
 47
0.0
 47
0.0
 47
0.0
 47
0.0208333333333333
 47
0.0
 47
0.0
 47
0.0
 47
0.0
 47
1.0
 47
0.0
 47
0.0
 47
0.0
 47
0.0
 47
1.0
171
     0
 49
0.0208333333333333
 49
0.0
 49
0.0
 49
0.0
 49
0.0
 49
0.0208333333333333
 49
0.0
 49
0.0
 49
0.0
 49
0.0
 49
1.0
 49
0.0
 49
0.0
 49
0.0
 49
0.0
 49
1.0
175
     0
142
0.0208333333333333
142
0.0
142
0.0
142
0.0
142
0.0
142
0.0208333333333333
142
0.0
142
0.0
142
0.0
142
0.0
142
1.0
142
0.0
142
0.0
142
0.0
142
0.0
142
1.0
179
     0
144
0.0208333333333333
144
0.0
144
0.0
144
0.0
144
0.0
144
0.0208333333333333
144
0.0
144
0.0
144
0.0
144
0.0
144
1.0
144
0.0
144
0.0
144
0.0
144
0.0
144
1.0
147
0.0208333333333333
147
0.0
147
0.0
147
0.0
147
0.0
147
0.0208333333333333
147
0.0
147
0.0
147
0.0
147
0.0
147
1.0
147
0.0
147
0.0
147
0.0
147
0.0
147
1.0
  0
MATERIAL
  5
EB5
102
{ACAD_XDICTIONARY
360
EB6
102
}
102
{ACAD_REACTORS
330
EB4
102
}
330
EB4
100
AcDbMaterial
  1
ByLayer
 72
     0
 43
0.0208333333333333
 43
0.0
 43
0.0
 43
0.0
 43
0.0
 43
0.0208333333333333
 43
0.0
 43
0.0
 43
0.0
 43
0.0
 43
1.0
 43
0.0
 43
0.0
 43
0.0
 43
0.0
 43
1.0
 77
     0
 47
0.0208333333333333
 47
0.0
 47
0.0
 47
0.0
 47
0.0
 47
0.0208333333333333
 47
0.0
 47
0.0
 47
0.0
 47
0.0
 47
1.0
 47
0.0
 47
0.0
 47
0.0
 47
0.0
 47
1.0
171
     0
 49
0.0208333333333333
 49
0.0
 49
0.0
 49
0.0
 49
0.0
 49
0.0208333333333333
 49
0.0
 49
0.0
 49
0.0
 49
0.0
 49
1.0
 49
0.0
 49
0.0
 49
0.0
 49
0.0
 49
1.0
175
     0
142
0.0208333333333333
142
0.0
142
0.0
142
0.0
142
0.0
142
0.0208333333333333
142
0.0
142
0.0
142
0.0
142
0.0
142
1.0
142
0.0
142
0.0
142
0.0
142
0.0
142
1.0
179
     0
144
0.0208333333333333
144
0.0
144
0.0
144
0.0
144
0.0
144
0.0208333333333333
144
0.0
144
0.0
144
0.0
144
0.0
144
1.0
144
0.0
144
0.0
144
0.0
144
0.0
144
1.0
147
0.0208333333333333
147
0.0
147
0.0
147
0.0
147
0.0
147
0.0208333333333333
147
0.0
147
0.0
147
0.0
147
0.0
147
1.0
147
0.0
147
0.0
147
0.0
147
0.0
147
1.0
  0
MATERIAL
  5
EC5
102
{ACAD_XDICTIONARY
360
EC6
102
}
102
{ACAD_REACTORS
330
EB4
102
}
330
EB4
100
AcDbMaterial
  1
Global
 72
     0
 43
0.0208333333333333
 43
0.0
 43
0.0
 43
0.0
 43
0.0
 43
0.0208333333333333
 43
0.0
 43
0.0
 43
0.0
 43
0.0
 43
1.0
 43
0.0
 43
0.0
 43
0.0
 43
0.0
 43
1.0
 77
     0
 47
0.0208333333333333
 47
0.0
 47
0.0
 47
0.0
 47
0.0
 47
0.0208333333333333
 47
0.0
 47
0.0
 47
0.0
 47
0.0
 47
1.0
 47
0.0
 47
0.0
 47
0.0
 47
0.0
 47
1.0
171
     0
 49
0.0208333333333333
 49
0.0
 49
0.0
 49
0.0
 49
0.0
 49
0.0208333333333333
 49
0.0
 49
0.0
 49
0.0
 49
0.0
 49
1.0
 49
0.0
 49
0.0
 49
0.0
 49
0.0
 49
1.0
175
     0
142
0.0208333333333333
142
0.0
142
0.0
142
0.0
142
0.0
142
0.0208333333333333
142
0.0
142
0.0
142
0.0
142
0.0
142
1.0
142
0.0
142
0.0
142
0.0
142
0.0
142
1.0
179
     0
144
0.0208333333333333
144
0.0
144
0.0
144
0.0
144
0.0
144
0.0208333333333333
144
0.0
144
0.0
144
0.0
144
0.0
144
1.0
144
0.0
144
0.0
144
0.0
144
0.0
144
1.0
147
0.0208333333333333
147
0.0
147
0.0
147
0.0
147
0.0
147
0.0208333333333333
147
0.0
147
0.0
147
0.0
147
0.0
147
1.0
147
0.0
147
0.0
147
0.0
147
0.0
147
1.0
  0
MLEADERSTYLE
  5
F04
102
{ACAD_REACTORS
330
F03
102
}
330
F03
100
AcDbMLeaderStyle
170
     2
171
     1
172
     0
 90
        2
 40
0.0
 41
0.0
173
     1
 91
-1056964608
340
11
 92
       -2
290
     1
 42
0.09
291
     1
 43
0.36
  3
Standard
 44
0.18
300

342
F
174
     1
178
     6
175
     1
176
     0
 93
-1056964608
 45
0.18
292
     0
297
     0
 46
0.18
 94
-1056964608
 47
1.0
 49
1.0
140
1.0
293
     1
141
0.0
294
     1
177
     0
142
1.0
295
     0
296
     0
143
0.125
1001
ACAD_MLEADERVER
1070
     2
  0
MLINESTYLE
  5
1B
102
{ACAD_REACTORS
330
1A
102
}
330
1A
100
AcDbMlineStyle
  2
STANDARD
 70
     0
  3

 62
   256
 51
90.0
 52
90.0
 71
     2
 49
0.5
 62
   256
  6
BYLAYER
 49
-0.5
 62
   256
  6
BYLAYER
  0
ACDBPLACEHOLDER
  5
E3B
102
{ACAD_REACTORS
330
E3A
102
}
330
E3A
  0
SCALE
  5
EE2
102
{ACAD_REACTORS
330
EE1
102
}
330
EE1
100
AcDbScale
 70
     0
300
1:1
140
1.0
141
1.0
290
     1
  0
SCALE
  5
EE3
102
{ACAD_REACTORS
330
EE1
102
}
330
EE1
100
AcDbScale
 70
     0
300
1:2
140
1.0
141
2.0
290
     0
  0
SCALE
  5
EE4
102
{ACAD_REACTORS
330
EE1
102
}
330
EE1
100
AcDbScale
 70
     0
300
1:4
140
1.0
141
4.0
290
     0
  0
SCALE
  5
EE5
102
{ACAD_REACTORS
330
EE1
102
}
330
EE1
100
AcDbScale
 70
     0
300
1:5
140
1.0
141
5.0
290
     0
  0
SCALE
  5
EE6
102
{ACAD_REACTORS
330
EE1
102
}
330
EE1
100
AcDbScale
 70
     0
300
1:8
140
1.0
141
8.0
290
     0
  0
SCALE
  5
EE7
102
{ACAD_REACTORS
330
EE1
102
}
330
EE1
100
AcDbScale
 70
     0
300
1:10
140
1.0
141
10.0
290
     0
  0
SCALE
  5
EE8
102
{ACAD_REACTORS
330
EE1
102
}
330
EE1
100
AcDbScale
 70
     0
300
1:16
140
1.0
141
16.0
290
     0
  0
SCALE
  5
EE9
102
{ACAD_REACTORS
330
EE1
102
}
330
EE1
100
AcDbScale
 70
     0
300
1:20
140
1.0
141
20.0
290
     0
  0
SCALE
  5
EEA
102
{ACAD_REACTORS
330
EE1
102
}
330
EE1
100
AcDbScale
 70
     0
300
1:30
140
1.0
141
30.0
290
     0
  0
SCALE
  5
EEB
102
{ACAD_REACTORS
330
EE1
102
}
330
EE1
100
AcDbScale
 70
     0
300
1:40
140
1.0
141
40.0
290
     0
  0
SCALE
  5
EEC
102
{ACAD_REACTORS
330
EE1
102
}
330
EE1
100
AcDbScale
 70
     0
300
1:50
140
1.0
141
50.0
290
     0
  0
SCALE
  5
EED
102
{ACAD_REACTORS
330
EE1
102
}
330
EE1
100
AcDbScale
 70
     0
300
1:100
140
1.0
141
100.0
290
     0
  0
SCALE
  5
EEE
102
{ACAD_REACTORS
330
EE1
102
}
330
EE1
100
AcDbScale
 70
     0
300
2:1
140
2.0
141
1.0
290
     0
  0
SCALE
  5
EEF
102
{ACAD_REACTORS
330
EE1
102
}
330
EE1
100
AcDbScale
 70
     0
300
4:1
140
4.0
141
1.0
290
     0
  0
SCALE
  5
EF0
102
{ACAD_REACTORS
330
EE1
102
}
330
EE1
100
AcDbScale
 70
     0
300
8:1
140
8.0
141
1.0
290
     0
  0
SCALE
  5
EF1
102
{ACAD_REACTORS
330
EE1
102
}
330
EE1
100
AcDbScale
 70
     0
300
10:1
140
10.0
141
1.0
290
     0
  0
SCALE
  5
EF2
102
{ACAD_REACTORS
330
EE1
102
}
330
EE1
100
AcDbScale
 70
     0
300
100:1
140
100.0
141
1.0
290
     0
  0
SCALE
  5
EF3
102
{ACAD_REACTORS
330
EE1
102
}
330
EE1
100
AcDbScale
 70
     0
300
1/128" = 1'-0"
140
0.0078125
141
12.0
290
     0
  0
SCALE
  5
EF4
102
{ACAD_REACTORS
330
EE1
102
}
330
EE1
100
AcDbScale
 70
     0
300
1/64" = 1'-0"
140
0.015625
141
12.0
290
     0
  0
SCALE
  5
EF5
102
{ACAD_REACTORS
330
EE1
102
}
330
EE1
100
AcDbScale
 70
     0
300
1/32" = 1'-0"
140
0.03125
141
12.0
290
     0
  0
SCALE
  5
EF6
102
{ACAD_REACTORS
330
EE1
102
}
330
EE1
100
AcDbScale
 70
     0
300
1/16" = 1'-0"
140
0.0625
141
12.0
290
     0
  0
SCALE
  5
EF7
102
{ACAD_REACTORS
330
EE1
102
}
330
EE1
100
AcDbScale
 70
     0
300
3/32" = 1'-0"
140
0.09375
141
12.0
290
     0
  0
SCALE
  5
EF8
102
{ACAD_REACTORS
330
EE1
102
}
330
EE1
100
AcDbScale
 70
     0
300
1/8" = 1'-0"
140
0.125
141
12.0
290
     0
  0
SCALE
  5
EF9
102
{ACAD_REACTORS
330
EE1
102
}
330
EE1
100
AcDbScale
 70
     0
300
3/16" = 1'-0"
140
0.1875
141
12.0
290
     0
  0
SCALE
  5
EFA
102
{ACAD_REACTORS
330
EE1
102
}
330
EE1
100
AcDbScale
 70
     0
300
1/4" = 1'-0"
140
0.25
141
12.0
290
     0
  0
SCALE
  5
EFB
102
{ACAD_REACTORS
330
EE1
102
}
330
EE1
100
AcDbScale
 70
     0
300
3/8" = 1'-0"
140
0.375
141
12.0
290
     0
  0
SCALE
  5
EFC
102
{ACAD_REACTORS
330
EE1
102
}
330
EE1
100
AcDbScale
 70
     0
300
1/2" = 1'-0"
140
0.5
141
12.0
290
     0
  0
SCALE
  5
EFD
102
{ACAD_REACTORS
330
EE1
102
}
330
EE1
100
AcDbScale
 70
     0
300
3/4" = 1'-0"
140
0.75
141
12.0
290
     0
  0
SCALE
  5
EFE
102
{ACAD_REACTORS
330
EE1
102
}
330
EE1
100
AcDbScale
 70
     0
300
1" = 1'-0"
140
1.0
141
12.0
290
     0
  0
SCALE
  5
EFF
102
{ACAD_REACTORS
330
EE1
102
}
330
EE1
100
AcDbScale
 70
     0
300
1-1/2" = 1'-0"
140
1.5
141
12.0
290
     0
  0
SCALE
  5
F00
102
{ACAD_REACTORS
330
EE1
102
}
330
EE1
100
AcDbScale
 70
     0
300
3" = 1'-0"
140
3.0
141
12.0
290
     0
  0
SCALE
  5
F01
102
{ACAD_REACTORS
330
EE1
102
}
330
EE1
100
AcDbScale
 70
     0
300
6" = 1'-0"
140
6.0
141
12.0
290
     0
  0
SCALE
  5
F02
102
{ACAD_REACTORS
330
EE1
102
}
330
EE1
100
AcDbScale
 70
     0
300
1'-0" = 1'-0"
140
12.0
141
12.0
290
     0
  0
TABLESTYLE
  5
EE0
102
{ACAD_XDICTIONARY
360
F1A
102
}
102
{ACAD_REACTORS
330
EDF
102
}
330
EDF
100
AcDbTableStyle
  3
Standard
 70
     0
 71
     0
 40
0.06
 41
0.06
280
     0
281
     0
  7
STANDARD
140
0.18
170
     2
 62
     0
 63
     7
283
     0
274
    -2
284
     1
 64
     0
275
    -2
285
     1
 65
     0
276
    -2
286
     1
 66
     0
277
    -2
287
     1
 67
     0
278
    -2
288
     1
 68
     0
279
    -2
289
     1
 69
     0
  7
STANDARD
140
0.25
170
     5
 62
     0
 63
     7
283
     0
274
    -2
284
     1
 64
     0
275
    -2
285
     1
 65
     0
276
    -2
286
     1
 66
     0
277
    -2
287
     1
 67
     0
278
    -2
288
     1
 68
     0
279
    -2
289
     1
 69
     0
  7
STANDARD
140
0.18
170
     5
 62
     0
 63
     7
283
     0
274
    -2
284
     1
 64
     0
275
    -2
285
     1
 65
     0
276
    -2
286
     1
 66
     0
277
    -2
287
     1
 67
     0
278
    -2
288
     1
 68
     0
279
    -2
289
     1
 69
     0
  0
VISUALSTYLE
  5
ED3
102
{ACAD_REACTORS
330
ECD
102
}
330
ECD
100
AcDbVisualStyle
  2
2dWireframe
 70
     4
 71
     0
 72
     2
 73
     0
 90
        0
 40
-0.6
 41
-30.0
 62
     5
 63
     7
421
 16777215
 74
     1
 91
        4
 64
     7
 65
   257
 75
     1
175
     1
 42
1.0
 92
        0
 66
   257
 43
1.0
 76
     1
 77
     6
 78
     2
 67
     7
 79
     5
170
     0
171
     0
290
     0
174
     0
 93
        1
 44
0.0
173
     0
291
     0
 45
0.0
1001
ACAD
1000
AcDbSavedByObjectVersion
1070
     0
  0
VISUALSTYLE
  5
ED5
102
{ACAD_REACTORS
330
ECD
102
}
330
ECD
100
AcDbVisualStyle
  2
3D Hidden
 70
     6
 71
     1
 72
     2
 73
     2
 90
        0
 40
-0.6
 41
-30.0
 62
     5
 63
     7
421
 16777215
 74
     2
 91
        2
 64
     7
 65
   257
 75
     2
175
     1
 42
40.0
 92
        0
 66
   257
 43
1.0
 76
     1
 77
     6
 78
     2
 67
     7
 79
     3
170
     0
171
     0
290
     0
174
     0
 93
        1
 44
0.0
173
     0
291
     0
 45
0.0
1001
ACAD
1000
AcDbSavedByObjectVersion
1070
     0
  0
VISUALSTYLE
  5
ED4
102
{ACAD_REACTORS
330
ECD
102
}
330
ECD
100
AcDbVisualStyle
  2
3dWireframe
 70
     5
 71
     0
 72
     2
 73
     0
 90
        0
 40
-0.6
 41
-30.0
 62
     5
 63
     7
421
 16777215
 74
     1
 91
        4
 64
     7
 65
   257
 75
     1
175
     1
 42
1.0
 92
        0
 66
   257
 43
1.0
 76
     1
 77
     6
 78
     2
 67
     7
 79
     5
170
     0
171
     0
290
     0
174
     0
 93
        1
 44
0.0
173
     0
291
     0
 45
0.0
1001
ACAD
1000
AcDbSavedByObjectVersion
1070
     0
  0
VISUALSTYLE
  5
ED2
102
{ACAD_REACTORS
330
ECD
102
}
330
ECD
100
AcDbVisualStyle
  2
Basic
 70
     7
 71
     1
 72
     0
 73
     1
 90
        0
 40
-0.6
 41
-30.0
 62
     5
 63
     7
421
 16777215
 74
     0
 91
        4
 64
     7
 65
   257
 75
     1
175
     1
 42
1.0
 92
        8
 66
     7
 43
1.0
 76
     1
 77
     6
 78
     2
 67
     7
 79
     5
170
     0
171
     0
290
     0
174
     0
 93
        1
 44
0.0
173
     0
291
     1
 45
0.0
1001
ACAD
1000
AcDbSavedByObjectVersion
1070
     0
  0
VISUALSTYLE
  5
ED9
102
{ACAD_REACTORS
330
ECD
102
}
330
ECD
100
AcDbVisualStyle
  2
Brighten
 70
    12
 71
     2
 72
     2
 73
     0
 90
        0
 40
-0.6
 41
-30.0
 62
     5
 63
     7
421
 16777215
 74
     1
 91
        4
 64
     7
 65
   257
 75
     1
175
     1
 42
1.0
 92
        8
 66
     7
 43
1.0
 76
     1
 77
     6
 78
     2
 67
     7
 79
     5
170
     0
171
     0
290
     0
174
     0
 93
        1
 44
50.0
173
     0
291
     1
 45
0.0
1001
ACAD
1000
AcDbSavedByObjectVersion
1070
     0
  0
VISUALSTYLE
  5
EDD
102
{ACAD_REACTORS
330
ECD
102
}
330
ECD
100
AcDbVisualStyle
  2
ColorChange
 70
    16
 71
     2
 72
     2
 73
     3
 90
        0
 40
-0.6
 41
-30.0
 62
     5
 63
     8
421
  8421504
 74
     1
 91
        4
 64
     7
 65
   257
 75
     1
175
     1
 42
1.0
 92
        8
 66
     8
424
  8421504
 43
1.0
 76
     1
 77
     6
 78
     2
 67
     7
 79
     5
170
     0
171
     0
290
     0
174
     0
 93
        1
 44
0.0
173
     0
291
     1
 45
0.0
1001
ACAD
1000
AcDbSavedByObjectVersion
1070
     0
  0
VISUALSTYLE
  5
ED6
102
{ACAD_REACTORS
330
ECD
102
}
330
ECD
100
AcDbVisualStyle
  2
Conceptual
 70
     9
 71
     3
 72
     2
 73
     0
 90
        0
 40
-0.6
 41
-30.0
 62
     5
 63
     7
421
 16777215
 74
     2
 91
        2
 64
     7
 65
   257
 75
     1
175
     1
 42
40.0
 92
        8
 66
     7
 43
1.0
 76
     1
 77
     6
 78
     2
 67
     7
 79
     3
170
     0
171
     0
290
     0
174
     0
 93
        1
 44
0.0
173
     0
291
     0
 45
0.0
1001
ACAD
1000
AcDbSavedByObjectVersion
1070
     0
  0
VISUALSTYLE
  5
ED8
102
{ACAD_REACTORS
330
ECD
102
}
330
ECD
100
AcDbVisualStyle
  2
Dim
 70
    11
 71
     2
 72
     2
 73
     0
 90
        0
 40
-0.6
 41
-30.0
 62
     5
 63
     7
421
 16777215
 74
     1
 91
        4
 64
     7
 65
   257
 75
     1
175
     1
 42
1.0
 92
        8
 66
     7
 43
1.0
 76
     1
 77
     6
 78
     2
 67
     7
 79
     5
170
     0
171
     0
290
     0
174
     0
 93
        1
 44
-50.0
173
     0
291
     1
 45
0.0
1001
ACAD
1000
AcDbSavedByObjectVersion
1070
     0
  0
VISUALSTYLE
  5
EDC
102
{ACAD_REACTORS
330
ECD
102
}
330
ECD
100
AcDbVisualStyle
  2
Facepattern
 70
    15
 71
     2
 72
     2
 73
     0
 90
        0
 40
-0.6
 41
-30.0
 62
     5
 63
     7
421
 16777215
 74
     1
 91
        4
 64
     7
 65
   257
 75
     1
175
     1
 42
1.0
 92
        8
 66
     7
 43
1.0
 76
     1
 77
     6
 78
     2
 67
     7
 79
     5
170
     0
171
     0
290
     0
174
     0
 93
        1
 44
0.0
173
     0
291
     1
 45
0.0
1001
ACAD
1000
AcDbSavedByObjectVersion
1070
     0
  0
VISUALSTYLE
  5
ECE
102
{ACAD_REACTORS
330
ECD
102
}
330
ECD
100
AcDbVisualStyle
  2
Flat
 70
     0
 71
     2
 72
     1
 73
     1
 90
        2
 40
-0.6
 41
30.0
 62
     5
 63
     7
421
 16777215
 74
     0
 91
        4
 64
     7
 65
   257
 75
     1
175
     1
 42
1.0
 92
        8
 66
     7
 43
1.0
 76
     1
 77
     6
 78
     2
 67
     7
 79
     5
170
     0
171
     0
290
     0
174
     0
 93
       13
 44
0.0
173
     0
291
     1
 45
0.0
1001
ACAD
1000
AcDbSavedByObjectVersion
1070
     0
  0
VISUALSTYLE
  5
ECF
102
{ACAD_REACTORS
330
ECD
102
}
330
ECD
100
AcDbVisualStyle
  2
FlatWithEdges
 70
     1
 71
     2
 72
     1
 73
     1
 90
        2
 40
-0.6
 41
30.0
 62
     5
 63
     7
421
 16777215
 74
     1
 91
        4
 64
     7
 65
   257
 75
     1
175
     1
 42
1.0
 92
        0
 66
   257
 43
1.0
 76
     1
 77
     6
 78
     2
 67
     7
 79
     5
170
     0
171
     0
290
     0
174
     0
 93
       13
 44
0.0
173
     0
291
     1
 45
0.0
1001
ACAD
1000
AcDbSavedByObjectVersion
1070
     0
  0
VISUALSTYLE
  5
ED0
102
{ACAD_REACTORS
330
ECD
102
}
330
ECD
100
AcDbVisualStyle
  2
Gouraud
 70
     2
 71
     2
 72
     2
 73
     1
 90
        2
 40
-0.6
 41
30.0
 62
     5
 63
     7
421
 16777215
 74
     0
 91
        4
 64
     7
 65
   257
 75
     1
175
     1
 42
1.0
 92
        0
 66
     7
 43
1.0
 76
     1
 77
     6
 78
     2
 67
     7
 79
     5
170
     0
171
     0
290
     0
174
     0
 93
       13
 44
0.0
173
     0
291
     1
 45
0.0
1001
ACAD
1000
AcDbSavedByObjectVersion
1070
     0
  0
VISUALSTYLE
  5
ED1
102
{ACAD_REACTORS
330
ECD
102
}
330
ECD
100
AcDbVisualStyle
  2
GouraudWithEdges
 70
     3
 71
     2
 72
     2
 73
     1
 90
        2
 40
-0.6
 41
30.0
 62
     5
 63
     7
421
 16777215
 74
     1
 91
        4
 64
     7
 65
   257
 75
     1
175
     1
 42
1.0
 92
        0
 66
   257
 43
1.0
 76
     1
 77
     6
 78
     2
 67
     7
 79
     5
170
     0
171
     0
290
     0
174
     0
 93
       13
 44
0.0
173
     0
291
     1
 45
0.0
1001
ACAD
1000
AcDbSavedByObjectVersion
1070
     0
  0
VISUALSTYLE
  5
EDB
102
{ACAD_REACTORS
330
ECD
102
}
330
ECD
100
AcDbVisualStyle
  2
Linepattern
 70
    14
 71
     2
 72
     2
 73
     0
 90
        0
 40
-0.6
 41
-30.0
 62
     5
 63
     7
421
 16777215
 74
     1
 91
        4
 64
     7
 65
   257
 75
     7
175
     7
 42
1.0
 92
        8
 66
     7
 43
1.0
 76
     1
 77
     6
 78
     2
 67
     7
 79
     5
170
     0
171
     0
290
     0
174
     0
 93
        1
 44
0.0
173
     0
291
     1
 45
0.0
1001
ACAD
1000
AcDbSavedByObjectVersion
1070
     0
  0
VISUALSTYLE
  5
ED7
102
{ACAD_REACTORS
330
ECD
102
}
330
ECD
100
AcDbVisualStyle
  2
Realistic
 70
     8
 71
     2
 72
     2
 73
     0
 90
        0
 40
-0.6
 41
-30.0
 62
     5
 63
     7
421
 16777215
 74
     1
 91
        0
 64
     7
 65
   257
 75
     1
175
     1
 42
1.0
 92
        8
 66
     8
424
  7895160
 43
1.0
 76
     1
 77
     6
 78
     2
 67
     7
 79
     5
170
     0
171
     0
290
     0
174
     0
 93
       13
 44
0.0
173
     0
291
     0
 45
0.0
1001
ACAD
1000
AcDbSavedByObjectVersion
1070
     0
  0
VISUALSTYLE
  5
EDA
102
{ACAD_REACTORS
330
ECD
102
}
330
ECD
100
AcDbVisualStyle
  2
Thicken
 70
    13
 71
     2
 72
     2
 73
     0
 90
        0
 40
-0.6
 41
-30.0
 62
     5
 63
     7
421
 16777215
 74
     1
 91
        4
 64
     7
 65
   257
 75
     1
175
     1
 42
1.0
 92
       12
 66
     7
 43
1.0
 76
     1
 77
     6
 78
     2
 67
     7
 79
     5
170
     0
171
     0
290
     0
174
     0
 93
        1
 44
0.0
173
     0
291
     1
 45
0.0
1001
ACAD
1000
AcDbSavedByObjectVersion
1070
     0
  0
DICTIONARYVAR
  5
F12
102
{ACAD_REACTORS
330
2C
102
}
330
2C
100
DictionaryVariables
280
     0
  1
1:1
  0
DICTIONARYVAR
  5
F11
102
{ACAD_REACTORS
330
2C
102
}
330
2C
100
DictionaryVariables
280
     0
  1
STANDARD
  0
DICTIONARYVAR
  5
F10
102
{ACAD_REACTORS
330
2C
102
}
330
2C
100
DictionaryVariables
280
     0
  1
STANDARD
  0
DICTIONARYVAR
  5
2D
102
{ACAD_REACTORS
330
2C
102
}
330
2C
100
DictionaryVariables
280
     0
  1
0
  0
DICTIONARYVAR
  5
EAB
102
{ACAD_REACTORS
330
2C
102
}
330
2C
100
DictionaryVariables
280
     0
  1
1
  0
DICTIONARYVAR
  5
18C
102
{ACAD_REACTORS
330
2C
102
}
330
2C
100
DictionaryVariables
280
     0
  1
96
  0
DICTIONARY
  5
EBE
330
EBD
100
AcDbDictionary
280
     1
281
     1
  3
ACAD_XREC_ROUNDTRIP
360
F1E
  3
BUMPTILE
360
EC0
  3
DIFFUSETILE
360
EBF
  3
OPACITYTILE
360
EC3
  3
REFLECTIONTILE
360
EC2
  3
REFRACTIONTILE
360
EC4
  3
SPECULARTILE
360
EC1
  0
DICTIONARY
  5
EB6
330
EB5
100
AcDbDictionary
280
     1
281
     1
  3
ACAD_XREC_ROUNDTRIP
360
F1D
  3
BUMPTILE
360
EB8
  3
DIFFUSETILE
360
EB7
  3
OPACITYTILE
360
EBB
  3
REFLECTIONTILE
360
EBA
  3
REFRACTIONTILE
360
EBC
  3
SPECULARTILE
360
EB9
  0
DICTIONARY
  5
EC6
330
EC5
100
AcDbDictionary
280
     1
281
     1
  3
ACAD_XREC_ROUNDTRIP
360
F1F
  3
BUMPTILE
360
EC8
  3
DIFFUSETILE
360
EC7
  3
OPACITYTILE
360
ECB
  3
REFLECTIONTILE
360
ECA
  3
REFRACTIONTILE
360
ECC
  3
SPECULARTILE
360
EC9
  0
DICTIONARY
  5
F1A
330
EE0
100
AcDbDictionary
280
     1
281
     1
  3
ACAD_ROUNDTRIP_2008_TABLESTYLE_CELLSTYLEMAP
360
F1B
  3
ACAD_XREC_ROUNDTRIP
360
F20
  0
XRECORD
  5
F1E
102
{ACAD_REACTORS
330
EBE
102
}
330
EBE
100
AcDbXrecord
280
     1
102
MATERIAL
148
0.0
149
0.0
149
0.0
 93
        0
 94
      127
282
     0
 72
     0
 77
     0
171
     0
175
     0
179
     0
273
     0
  0
XRECORD
  5
EC0
102
{ACAD_REACTORS
330
EBE
102
}
330
EBE
100
AcDbXrecord
280
     1
270
     1
271
     1
  0
XRECORD
  5
EBF
102
{ACAD_REACTORS
330
EBE
102
}
330
EBE
100
AcDbXrecord
280
     1
270
     1
271
     1
  0
XRECORD
  5
EC3
102
{ACAD_REACTORS
330
EBE
102
}
330
EBE
100
AcDbXrecord
280
     1
270
     1
271
     1
  0
XRECORD
  5
EC2
102
{ACAD_REACTORS
330
EBE
102
}
330
EBE
100
AcDbXrecord
280
     1
270
     1
271
     1
  0
XRECORD
  5
EC4
102
{ACAD_REACTORS
330
EBE
102
}
330
EBE
100
AcDbXrecord
280
     1
270
     1
271
     1
  0
XRECORD
  5
EC1
102
{ACAD_REACTORS
330
EBE
102
}
330
EBE
100
AcDbXrecord
280
     1
270
     1
271
     1
  0
XRECORD
  5
F1D
102
{ACAD_REACTORS
330
EB6
102
}
330
EB6
100
AcDbXrecord
280
     1
102
MATERIAL
148
0.0
149
0.0
149
0.0
 93
        0
 94
      127
282
     0
 72
     0
 77
     0
171
     0
175
     0
179
     0
273
     0
  0
XRECORD
  5
EB8
102
{ACAD_REACTORS
330
EB6
102
}
330
EB6
100
AcDbXrecord
280
     1
270
     1
271
     1
  0
XRECORD
  5
EB7
102
{ACAD_REACTORS
330
EB6
102
}
330
EB6
100
AcDbXrecord
280
     1
270
     1
271
     1
  0
XRECORD
  5
EBB
102
{ACAD_REACTORS
330
EB6
102
}
330
EB6
100
AcDbXrecord
280
     1
270
     1
271
     1
  0
XRECORD
  5
EBA
102
{ACAD_REACTORS
330
EB6
102
}
330
EB6
100
AcDbXrecord
280
     1
270
     1
271
     1
  0
XRECORD
  5
EBC
102
{ACAD_REACTORS
330
EB6
102
}
330
EB6
100
AcDbXrecord
280
     1
270
     1
271
     1
  0
XRECORD
  5
EB9
102
{ACAD_REACTORS
330
EB6
102
}
330
EB6
100
AcDbXrecord
280
     1
270
     1
271
     1
  0
XRECORD
  5
F1F
102
{ACAD_REACTORS
330
EC6
102
}
330
EC6
100
AcDbXrecord
280
     1
102
MATERIAL
148
0.0
149
0.0
149
0.0
 93
        0
 94
      127
282
     0
 72
     0
 77
     0
171
     0
175
     0
179
     0
273
     0
  0
XRECORD
  5
EC8
102
{ACAD_REACTORS
330
EC6
102
}
330
EC6
100
AcDbXrecord
280
     1
270
     1
271
     1
  0
XRECORD
  5
EC7
102
{ACAD_REACTORS
330
EC6
102
}
330
EC6
100
AcDbXrecord
280
     1
270
     1
271
     1
  0
XRECORD
  5
ECB
102
{ACAD_REACTORS
330
EC6
102
}
330
EC6
100
AcDbXrecord
280
     1
270
     1
271
     1
  0
XRECORD
  5
ECA
102
{ACAD_REACTORS
330
EC6
102
}
330
EC6
100
AcDbXrecord
280
     1
270
     1
271
     1
  0
XRECORD
  5
ECC
102
{ACAD_REACTORS
330
EC6
102
}
330
EC6
100
AcDbXrecord
280
     1
270
     1
271
     1
  0
XRECORD
  5
EC9
102
{ACAD_REACTORS
330
EC6
102
}
330
EC6
100
AcDbXrecord
280
     1
270
     1
271
     1
  0
CELLSTYLEMAP
  5
F1B
102
{ACAD_REACTORS
330
F1A
102
}
330
F1A
100
AcDbCellStyleMap
 90
        3
300
CELLSTYLE
  1
TABLEFORMAT_BEGIN
 90
        5
170
     1
 91
        0
 92
    32768
 62
   257
 93
        1
300
CONTENTFORMAT
  1
CONTENTFORMAT_BEGIN
 90
        0
 91
        0
 92
      512
 93
        0
300

 40
0.0
140
1.0
 94
        5
 62
     0
340
F
144
0.25
309
CONTENTFORMAT_END
171
     0
 94
        0
309
TABLEFORMAT_END
  1
CELLSTYLE_BEGIN
 90
        1
 91
        1
300
_TITLE
309
CELLSTYLE_END
300
CELLSTYLE
  1
TABLEFORMAT_BEGIN
 90
        5
170
     1
 91
        0
 92
        0
 62
   257
 93
        1
300
CONTENTFORMAT
  1
CONTENTFORMAT_BEGIN
 90
        0
 91
        0
 92
      512
 93
        0
300

 40
0.0
140
1.0
 94
        5
 62
     0
340
F
144
0.18
309
CONTENTFORMAT_END
171
     0
 94
        0
309
TABLEFORMAT_END
  1
CELLSTYLE_BEGIN
 90
        2
 91
        1
300
_HEADER
309
CELLSTYLE_END
300
CELLSTYLE
  1
TABLEFORMAT_BEGIN
 90
        5
170
     1
 91
        0
 92
        0
 62
   257
 93
        1
300
CONTENTFORMAT
  1
CONTENTFORMAT_BEGIN
 90
        0
 91
        0
 92
      512
 93
        0
300

 40
0.0
140
1.0
 94
        2
 62
     0
340
F
144
0.18
309
CONTENTFORMAT_END
171
     0
 94
        0
309
TABLEFORMAT_END
  1
CELLSTYLE_BEGIN
 90
        3
 91
        2
300
_DATA
309
CELLSTYLE_END
  0
XRECORD
  5
F20
102
{ACAD_REACTORS
330
F1A
102
}
330
F1A
100
AcDbXrecord
280
     1
102
ACAD_ROUNDTRIP_PRE2007_TABLESTYLE
 90
      512
 91
        0
  1

 92
      512
 93
        0
  2

 94
      512
 95
        0
  3

  0
ENDSEC
  0
EOF
