  0
SECTION
  2
HEADER
  9
$ACADVER
  1
AC1018
  9
$ACADMAINTVER
 70
   104
  9
$DWGCODEPAGE
  3
ANSI_1252
  9
$LASTSAVEDBY
  1
aereyes
  9
$INSBASE
 10
0.0
 20
0.0
 30
0.0
  9
$EXTMIN
 10
0.25
 20
0.25
 30
0.0
  9
$EXTMAX
 10
16.75
 20
10.75
 30
0.0
  9
$LIMMIN
 10
0.0
 20
0.0
  9
$LIMMAX
 10
17.0
 20
11.0
  9
$ORTHOMODE
 70
     1
  9
$REGENMODE
 70
     1
  9
$FILLMODE
 70
     1
  9
$QTEXTMODE
 70
     0
  9
$MIRRTEXT
 70
     1
  9
$LTSCALE
 40
1.0
  9
$ATTMODE
 70
     1
  9
$TEXTSIZE
 40
0.125
  9
$TRACEWID
 40
0.05
  9
$TEXTSTYLE
  7
ROMANS
  9
$CLAYER
  8
TEXT
  9
$CELTYPE
  6
BYLAYER
  9
$CECOLOR
 62
   256
  9
$CELTSCALE
 40
1.0
  9
$DISPSILH
 70
     0
  9
$DIMSCALE
 40
1.0
  9
$DIMASZ
 40
0.125
  9
$DIMEXO
 40
0.09
  9
$DIMDLI
 40
0.38
  9
$DIMRND
 40
0.0
  9
$DIMDLE
 40
0.0
  9
$DIMEXE
 40
0.12
  9
$DIMTP
 40
0.0
  9
$DIMTM
 40
0.0
  9
$DIMTXT
 40
0.15
  9
$DIMCEN
 40
0.09
  9
$DIMTSZ
 40
0.0
  9
$DIMTOL
 70
     0
  9
$DIMLIM
 70
     0
  9
$DIMTIH
 70
     1
  9
$DIMTOH
 70
     1
  9
$DIMSE1
 70
     0
  9
$DIMSE2
 70
     0
  9
$DIMTAD
 70
     0
  9
$DIMZIN
 70
     4
  9
$DIMBLK
  1

  9
$DIMASO
 70
     0
  9
$DIMSHO
 70
     1
  9
$DIMPOST
  1

  9
$DIMAPOST
  1

  9
$DIMALT
 70
     0
  9
$DIMALTD
 70
     2
  9
$DIMALTF
 40
25.4
  9
$DIMLFAC
 40
1.0
  9
$DIMTOFL
 70
     0
  9
$DIMTVP
 40
0.0
  9
$DIMTIX
 70
     1
  9
$DIMSOXD
 70
     0
  9
$DIMSAH
 70
     0
  9
$DIMBLK1
  1

  9
$DIMBLK2
  1

  9
$DIMSTYLE
  2
STANDARD
  9
$DIMCLRD
 70
     0
  9
$DIMCLRE
 70
     0
  9
$DIMCLRT
 70
     0
  9
$DIMTFAC
 40
1.0
  9
$DIMGAP
 40
0.09
  9
$DIMJUST
 70
     0
  9
$DIMSD1
 70
     0
  9
$DIMSD2
 70
     0
  9
$DIMTOLJ
 70
     1
  9
$DIMTZIN
 70
     4
  9
$DIMALTZ
 70
     4
  9
$DIMALTTZ
 70
     4
  9
$DIMUPT
 70
     0
  9
$DIMDEC
 70
     4
  9
$DIMTDEC
 70
     4
  9
$DIMALTU
 70
     2
  9
$DIMALTTD
 70
     2
  9
$DIMTXSTY
  7
ROMANS
  9
$DIMAUNIT
 70
     0
  9
$DIMADEC
 70
     0
  9
$DIMALTRND
 40
0.0
  9
$DIMAZIN
 70
     0
  9
$DIMDSEP
 70
    46
  9
$DIMATFIT
 70
     3
  9
$DIMFRAC
 70
     0
  9
$DIMLDRBLK
  1

  9
$DIMLUNIT
 70
     2
  9
$DIMLWD
 70
    -2
  9
$DIMLWE
 70
    -2
  9
$DIMTMOVE
 70
     2
  9
$LUNITS
 70
     2
  9
$LUPREC
 70
     4
  9
$SKETCHINC
 40
0.1
  9
$FILLETRAD
 40
0.0
  9
$AUNITS
 70
     0
  9
$AUPREC
 70
     0
  9
$MENU
  1
acad
  9
$ELEVATION
 40
0.0
  9
$PELEVATION
 40
0.0
  9
$THICKNESS
 40
0.0
  9
$LIMCHECK
 70
     0
  9
$CHAMFERA
 40
0.0
  9
$CHAMFERB
 40
0.0
  9
$CHAMFERC
 40
0.0
  9
$CHAMFERD
 40
0.0
  9
$SKPOLY
 70
     0
  9
$TDCREATE
 40
2449023.627836459
  9
$TDUCREATE
 40
2449023.836169792
  9
$TDUPDATE
 40
2454821.732361019
  9
$TDUUPDATE
 40
2454821.940694352
  9
$TDINDWG
 40
0.2841452894
  9
$TDUSRTIMER
 40
0.2841452894
  9
$USRTIMER
 70
     1
  9
$ANGBASE
 50
0.0
  9
$ANGDIR
 70
     0
  9
$PDMODE
 70
     0
  9
$PDSIZE
 40
0.0
  9
$PLINEWID
 40
0.0
  9
$SPLFRAME
 70
     0
  9
$SPLINETYPE
 70
     6
  9
$SPLINESEGS
 70
     8
  9
$HANDSEED
  5
3F4B
  9
$SURFTAB1
 70
     6
  9
$SURFTAB2
 70
     6
  9
$SURFTYPE
 70
     6
  9
$SURFU
 70
     6
  9
$SURFV
 70
     6
  9
$UCSBASE
  2

  9
$UCSNAME
  2

  9
$UCSORG
 10
0.0
 20
0.0
 30
0.0
  9
$UCSXDIR
 10
1.0
 20
0.0
 30
0.0
  9
$UCSYDIR
 10
0.0
 20
1.0
 30
0.0
  9
$UCSORTHOREF
  2

  9
$UCSORTHOVIEW
 70
     0
  9
$UCSORGTOP
 10
0.0
 20
0.0
 30
0.0
  9
$UCSORGBOTTOM
 10
0.0
 20
0.0
 30
0.0
  9
$UCSORGLEFT
 10
0.0
 20
0.0
 30
0.0
  9
$UCSORGRIGHT
 10
0.0
 20
0.0
 30
0.0
  9
$UCSORGFRONT
 10
0.0
 20
0.0
 30
0.0
  9
$UCSORGBACK
 10
0.0
 20
0.0
 30
0.0
  9
$PUCSBASE
  2

  9
$PUCSNAME
  2

  9
$PUCSORG
 10
0.0
 20
0.0
 30
0.0
  9
$PUCSXDIR
 10
1.0
 20
0.0
 30
0.0
  9
$PUCSYDIR
 10
0.0
 20
1.0
 30
0.0
  9
$PUCSORTHOREF
  2

  9
$PUCSORTHOVIEW
 70
     0
  9
$PUCSORGTOP
 10
0.0
 20
0.0
 30
0.0
  9
$PUCSORGBOTTOM
 10
0.0
 20
0.0
 30
0.0
  9
$PUCSORGLEFT
 10
0.0
 20
0.0
 30
0.0
  9
$PUCSORGRIGHT
 10
0.0
 20
0.0
 30
0.0
  9
$PUCSORGFRONT
 10
0.0
 20
0.0
 30
0.0
  9
$PUCSORGBACK
 10
0.0
 20
0.0
 30
0.0
  9
$USERI1
 70
     0
  9
$USERI2
 70
     0
  9
$USERI3
 70
     0
  9
$USERI4
 70
     0
  9
$USERI5
 70
     0
  9
$USERR1
 40
0.0
  9
$USERR2
 40
0.0
  9
$USERR3
 40
0.0
  9
$USERR4
 40
0.0
  9
$USERR5
 40
0.0
  9
$WORLDVIEW
 70
     1
  9
$SHADEDGE
 70
     3
  9
$SHADEDIF
 70
    70
  9
$TILEMODE
 70
     1
  9
$MAXACTVP
 70
    16
  9
$PINSBASE
 10
0.0
 20
0.0
 30
0.0
  9
$PLIMCHECK
 70
     0
  9
$PEXTMIN
 10
1.000000000000000E+20
 20
1.000000000000000E+20
 30
1.000000000000000E+20
  9
$PEXTMAX
 10
-1.000000000000000E+20
 20
-1.000000000000000E+20
 30
-1.000000000000000E+20
  9
$PLIMMIN
 10
0.0
 20
0.0
  9
$PLIMMAX
 10
12.0
 20
9.0
  9
$UNITMODE
 70
     0
  9
$VISRETAIN
 70
     0
  9
$PLINEGEN
 70
     0
  9
$PSLTSCALE
 70
     0
  9
$TREEDEPTH
 70
  3020
  9
$CMLSTYLE
  2
STANDARD
  9
$CMLJUST
 70
     0
  9
$CMLSCALE
 40
1.0
  9
$PROXYGRAPHICS
 70
     1
  9
$MEASUREMENT
 70
     0
  9
$CELWEIGHT
370
    -1
  9
$ENDCAPS
280
     0
  9
$JOINSTYLE
280
     0
  9
$LWDISPLAY
290
     0
  9
$INSUNITS
 70
     0
  9
$HYPERLINKBASE
  1

  9
$STYLESHEET
  1

  9
$XEDIT
290
     1
  9
$CEPSNTYPE
380
     0
  9
$PSTYLEMODE
290
     1
  9
$FINGERPRINTGUID
  2
{D19D1512-2A1F-4A50-AC78-0DD5828F8DDA}
  9
$VERSIONGUID
  2
{C11B33F8-03C4-4622-A562-EA1130FFCA22}
  9
$EXTNAMES
290
     1
  9
$PSVPSCALE
 40
0.0
  9
$OLESTARTUP
290
     0
  9
$SORTENTS
280
    96
  9
$INDEXCTL
280
     0
  9
$HIDETEXT
280
     0
  9
$XCLIPFRAME
290
     0
  9
$HALOGAP
280
     0
  9
$OBSCOLOR
 70
   257
  9
$OBSLTYPE
280
     0
  9
$INTERSECTIONDISPLAY
280
     0
  9
$INTERSECTIONCOLOR
 70
   257
  9
$DIMASSOC
280
     0
  9
$PROJECTNAME
  1

  0
ENDSEC
  0
SECTION
  2
CLASSES
  0
CLASS
  1
DICTIONARYVAR
  2
AcDbDictionaryVar
  3
ObjectDBX Classes
 90
        0
 91
        5
280
     0
281
     0
  0
CLASS
  1
ACDBDICTIONARYWDFLT
  2
AcDbDictionaryWithDefault
  3
ObjectDBX Classes
 90
        0
 91
        1
280
     0
281
     0
  0
CLASS
  1
MATERIAL
  2
AcDbMaterial
  3
ObjectDBX Classes
 90
     1153
 91
        3
280
     0
281
     0
  0
CLASS
  1
VISUALSTYLE
  2
AcDbVisualStyle
  3
ObjectDBX Classes
 90
     4095
 91
       16
280
     0
281
     0
  0
CLASS
  1
TABLESTYLE
  2
AcDbTableStyle
  3
ObjectDBX Classes
 90
     4095
 91
        1
280
     0
281
     0
  0
CLASS
  1
SCALE
  2
AcDbScale
  3
ObjectDBX Classes
 90
     1153
 91
       33
280
     0
281
     0
  0
CLASS
  1
MLEADERSTYLE
  2
AcDbMLeaderStyle
  3
ACDB_MLEADERSTYLE_CLASS
 90
     4095
 91
        1
280
     0
281
     0
  0
CLASS
  1
CELLSTYLEMAP
  2
AcDbCellStyleMap
  3
ObjectDBX Classes
 90
     1152
 91
        2
280
     0
281
     0
  0
ENDSEC
  0
SECTION
  2
TABLES
  0
TABLE
  2
VPORT
  5
8
330
0
100
AcDbSymbolTable
 70
     1
  0
VPORT
  5
3EC6
330
8
100
AcDbSymbolTableRecord
100
AcDbViewportTableRecord
  2
*ACTIVE
 70
     0
 10
0.0
 20
0.0
 11
1.0
 21
1.0
 12
9.644230769230768
 22
5.73882848600163
 13
0.0
 23
0.0
 14
0.0625
 24
0.0625
 15
0.625
 25
0.625
 16
0.0
 26
0.0
 36
1.0
 17
0.0
 27
0.0
 37
0.0
 40
11.47765697200326
 41
1.680522565320664
 42
50.0
 43
0.0
 44
0.0
 50
0.0
 51
0.0
 71
     0
 72
   500
 73
     1
 74
     0
 75
     0
 76
     1
 77
     0
 78
     0
281
     0
 65
     1
110
0.0
120
0.0
130
0.0
111
1.0
121
0.0
131
0.0
112
0.0
122
1.0
132
0.0
 79
     0
146
0.0
  0
ENDTAB
  0
TABLE
  2
LTYPE
  5
5
330
0
100
AcDbSymbolTable
 70
     5
  0
LTYPE
  5
11
330
5
100
AcDbSymbolTableRecord
100
AcDbLinetypeTableRecord
  2
BYBLOCK
 70
     0
  3

 72
    65
 73
     0
 40
0.0
  0
LTYPE
  5
12
330
5
100
AcDbSymbolTableRecord
100
AcDbLinetypeTableRecord
  2
BYLAYER
 70
     0
  3

 72
    65
 73
     0
 40
0.0
  0
LTYPE
  5
13
330
5
100
AcDbSymbolTableRecord
100
AcDbLinetypeTableRecord
  2
CONTINUOUS
 70
     0
  3
Solid line
 72
    65
 73
     0
 40
0.0
  0
LTYPE
  5
27
330
5
100
AcDbSymbolTableRecord
100
AcDbLinetypeTableRecord
  2
CENTER
 70
     0
  3
____ _ ____ _ ____ _ ____ _ ____ _ ____ _ ____ 
 72
    65
 73
     4
 40
2.0
 49
1.25
 74
     0
 49
-0.25
 74
     0
 49
0.25
 74
     0
 49
-0.25
 74
     0
  0
LTYPE
  5
28
330
5
100
AcDbSymbolTableRecord
100
AcDbLinetypeTableRecord
  2
CENTER2
 70
     0
  3
___ _ ___ _ ___ _ ___ _ ___ _ ___ _ ___ _ ___ _
 72
    65
 73
     4
 40
1.125
 49
0.75
 74
     0
 49
-0.125
 74
     0
 49
0.125
 74
     0
 49
-0.125
 74
     0
  0
LTYPE
  5
29
330
5
100
AcDbSymbolTableRecord
100
AcDbLinetypeTableRecord
  2
HIDDEN
 70
     0
  3
__ __ __ __ __ __ __ __ __ __ __ __ __ __ __ __
 72
    65
 73
     2
 40
0.375
 49
0.25
 74
     0
 49
-0.125
 74
     0
  0
LTYPE
  5
2A
330
5
100
AcDbSymbolTableRecord
100
AcDbLinetypeTableRecord
  2
HIDDEN2
 70
     0
  3
_ _ _ _ _ _ _ _ _ _ _ _ _ _ _ _ _ _ _ _ _ _ _ _
 72
    65
 73
     2
 40
0.1875
 49
0.125
 74
     0
 49
-0.0625
 74
     0
  0
ENDTAB
  0
TABLE
  2
LAYER
  5
2
330
0
100
AcDbSymbolTable
 70
     8
  0
LAYER
  5
E
102
{ACAD_XDICTIONARY
360
3F24
102
}
330
2
100
AcDbSymbolTableRecord
100
AcDbLayerTableRecord
  2
0
 70
     0
 62
     7
  6
CONTINUOUS
370
    -3
390
3EC9
  0
LAYER
  5
2F
102
{ACAD_XDICTIONARY
360
3F26
102
}
330
2
100
AcDbSymbolTableRecord
100
AcDbLayerTableRecord
  2
FORM
 70
     0
 62
     7
  6
CONTINUOUS
370
    -3
390
3EC9
  0
LAYER
  5
30
102
{ACAD_XDICTIONARY
360
3F28
102
}
330
2
100
AcDbSymbolTableRecord
100
AcDbLayerTableRecord
  2
OBJECT
 70
     0
 62
     7
  6
CONTINUOUS
370
    -3
390
3EC9
  0
LAYER
  5
31
102
{ACAD_XDICTIONARY
360
3F2A
102
}
330
2
100
AcDbSymbolTableRecord
100
AcDbLayerTableRecord
  2
CENTER
 70
     0
 62
     3
  6
CENTER2
370
    -3
390
3EC9
  0
LAYER
  5
32
102
{ACAD_XDICTIONARY
360
3F2C
102
}
330
2
100
AcDbSymbolTableRecord
100
AcDbLayerTableRecord
  2
HIDDEN
 70
     0
 62
     5
  6
HIDDEN2
370
    -3
390
3EC9
  0
LAYER
  5
33
102
{ACAD_XDICTIONARY
360
3F2E
102
}
330
2
100
AcDbSymbolTableRecord
100
AcDbLayerTableRecord
  2
DIM
 70
     0
 62
     1
  6
CONTINUOUS
370
    -3
390
3EC9
  0
LAYER
  5
34
102
{ACAD_XDICTIONARY
360
3F30
102
}
330
2
100
AcDbSymbolTableRecord
100
AcDbLayerTableRecord
  2
TEXT
 70
     0
 62
     7
  6
CONTINUOUS
370
    -3
390
3EC9
  0
LAYER
  5
35
102
{ACAD_XDICTIONARY
360
3F32
102
}
330
2
100
AcDbSymbolTableRecord
100
AcDbLayerTableRecord
  2
HATCH
 70
     0
 62
     4
  6
CONTINUOUS
370
    -3
390
3EC9
  0
ENDTAB
  0
TABLE
  2
STYLE
  5
3
330
0
100
AcDbSymbolTable
 70
     3
  0
STYLE
  5
F
330
3
100
AcDbSymbolTableRecord
100
AcDbTextStyleTableRecord
  2
STANDARD
 70
     0
 40
0.0
 41
1.0
 50
0.0
 71
     0
 42
0.15625
  3
txt
  4

  0
STYLE
  5
21
330
3
100
AcDbSymbolTableRecord
100
AcDbTextStyleTableRecord
  2
ROMANS
 70
     0
 40
0.0
 41
1.0
 50
0.0
 71
     0
 42
0.125
  3
romans
  4

  0
STYLE
  5
26
330
3
100
AcDbSymbolTableRecord
100
AcDbTextStyleTableRecord
  2
SCRIPTS
 70
     0
 40
0.0
 41
1.0
 50
0.0
 71
     0
 42
0.125
  3
scripts
  4

  0
ENDTAB
  0
TABLE
  2
VIEW
  5
6
330
0
100
AcDbSymbolTable
 70
     0
  0
ENDTAB
  0
TABLE
  2
UCS
  5
7
330
0
100
AcDbSymbolTable
 70
     0
  0
ENDTAB
  0
TABLE
  2
APPID
  5
9
330
0
100
AcDbSymbolTable
 70
     2
  0
APPID
  5
10
330
9
100
AcDbSymbolTableRecord
100
AcDbRegAppTableRecord
  2
ACAD
 70
     0
  0
APPID
  5
3F1B
330
9
100
AcDbSymbolTableRecord
100
AcDbRegAppTableRecord
  2
ACAD_MLEADERVER
 70
     0
  0
ENDTAB
  0
TABLE
  2
DIMSTYLE
  5
A
330
0
100
AcDbSymbolTable
 70
     1
100
AcDbDimStyleTable
 71
     0
  0
DIMSTYLE
105
3EAC
330
A
100
AcDbSymbolTableRecord
100
AcDbDimStyleTableRecord
  2
STANDARD
 70
     0
340
F
  0
ENDTAB
  0
TABLE
  2
BLOCK_RECORD
  5
1
330
0
100
AcDbSymbolTable
 70
     1
  0
BLOCK_RECORD
  5
17
330
1
100
AcDbSymbolTableRecord
100
AcDbBlockTableRecord
  2
*MODEL_SPACE
340
3F1E
  0
BLOCK_RECORD
  5
14
330
1
100
AcDbSymbolTableRecord
100
AcDbBlockTableRecord
  2
*PAPER_SPACE
340
3F1F
  0
ENDTAB
  0
ENDSEC
  0
SECTION
  2
BLOCKS
  0
BLOCK
  5
40
330
17
100
AcDbEntity
  8
0
100
AcDbBlockBegin
  2
*MODEL_SPACE
 70
     0
 10
0.0
 20
0.0
 30
0.0
  3
*MODEL_SPACE
  1

  0
ENDBLK
  5
41
330
17
100
AcDbEntity
  8
0
100
AcDbBlockEnd
  0
BLOCK
  5
3E
330
14
100
AcDbEntity
 67
     1
  8
0
100
AcDbBlockBegin
  2
*PAPER_SPACE
 70
     0
 10
0.0
 20
0.0
 30
0.0
  3
*PAPER_SPACE
  1

  0
ENDBLK
  5
3F
330
14
100
AcDbEntity
 67
     1
  8
0
100
AcDbBlockEnd
  0
ENDSEC
  0
SECTION
  2
ENTITIES
  0
LWPOLYLINE
  5
2B82
330
17
100
AcDbEntity
  8
FORM
100
AcDbPolyline
 90
        4
 70
     1
 43
0.0
 10
0.25
 20
0.25
 10
0.25
 20
10.75
 10
16.75
 20
10.75
 10
16.75
 20
0.25
  0
LWPOLYLINE
  5
2B88
330
17
100
AcDbEntity
  8
FORM
100
AcDbPolyline
 90
        2
 70
     0
 43
0.0
 10
14.24998804289447
 20
0.4799971182237196
 10
16.75
 20
0.4799971182237196
  0
LWPOLYLINE
  5
2B8C
330
17
100
AcDbEntity
  8
FORM
100
AcDbPolyline
 90
        2
 70
     0
 43
0.0
 10
14.24998804289447
 20
0.8500168021591738
 10
16.75
 20
0.8500168021591736
  0
LINE
  5
2B90
330
17
100
AcDbEntity
  8
FORM
100
AcDbLine
 10
2.959957019519986
 20
2.259328814359545
 30
0.0
 11
2.95995701951999
 21
0.25
 31
0.0
  0
TEXT
  5
2B91
330
17
100
AcDbEntity
  8
FORM
 62
     6
100
AcDbText
 10
14.35276918081288
 20
0.9902268286601589
 30
0.0
 40
0.06
  1
ALLEN-BRADLEY CO. INC.
  7
ROMANS
100
AcDbText
  0
TEXT
  5
2B92
330
17
100
AcDbEntity
  8
FORM
 62
     6
100
AcDbText
 10
14.35276918081288
 20
1.090226828660156
 30
0.0
 40
0.06
  1
AS AUTHORIZED IN WRITING BY THE
  7
ROMANS
100
AcDbText
  0
TEXT
  5
2B93
330
17
100
AcDbEntity
  8
FORM
 62
     6
100
AcDbText
 10
14.35276918081288
 20
1.190226828660158
 30
0.0
 40
0.06
  1
USED OR DISCLOSED FOR ANY PURPOSE EXCEPT 
  7
ROMANS
100
AcDbText
  0
TEXT
  5
2B94
330
17
100
AcDbEntity
  8
FORM
 62
     6
100
AcDbText
 10
14.35276918081288
 20
1.290226828660156
 30
0.0
 40
0.06
  1
ALLEN-BRADLEY CO. INC. AND MAY NOT COPIED,
  7
ROMANS
100
AcDbText
  0
TEXT
  5
2B95
330
17
100
AcDbEntity
  8
FORM
 62
     6
100
AcDbText
 10
14.35276918081288
 20
1.390226828660157
 30
0.0
 40
0.06
  1
THIS DRAWING IS PROPERTY OF THE
  7
ROMANS
100
AcDbText
  0
LINE
  5
2B96
330
17
100
AcDbEntity
  8
FORM
100
AcDbLine
 10
5.399877569860207
 20
2.259328814359545
 30
0.0
 11
5.399877569860207
 21
0.4600000000000009
 31
0.0
  0
LINE
  5
2B97
330
17
100
AcDbEntity
  8
FORM
100
AcDbLine
 10
4.259927296572483
 20
2.259328814359545
 30
0.0
 11
4.259927296572479
 21
0.25
 31
0.0
  0
LWPOLYLINE
  5
2B98
330
17
100
AcDbEntity
  8
FORM
100
AcDbPolyline
 90
        2
 70
     0
 43
0.0
 10
3.609952159928622
 20
2.259328814359545
 10
3.609952159928622
 20
0.25
  0
TEXT
  5
2B9C
330
17
100
AcDbEntity
  8
FORM
 62
     6
100
AcDbText
 10
8.528456685469883
 20
1.744629945339648
 30
0.0
 40
0.06
  1
FRACTIONS        DECIMALS        ANGLES
  7
ROMANS
100
AcDbText
  0
TEXT
  5
2B9D
330
17
100
AcDbEntity
  8
FORM
 62
     6
100
AcDbText
 10
8.537259221168262
 20
1.847142341041062
 30
0.0
 40
0.06
  1
TOLERANCES ON
  7
ROMANS
100
AcDbText
  0
TEXT
  5
2B9E
330
17
100
AcDbEntity
  8
FORM
 62
     6
100
AcDbText
 10
8.528529109640693
 20
1.952196366387964
 30
0.0
 40
0.06
  1
DIMENSIONS ARE IN INCHES
  7
ROMANS
100
AcDbText
  0
LWPOLYLINE
  5
2B9F
330
17
100
AcDbEntity
  8
FORM
100
AcDbPolyline
 90
        2
 70
     0
 43
0.0
 10
8.43996547831383
 20
1.494273225686066
 10
8.439965478313826
 20
2.259328814359546
  0
LWPOLYLINE
  5
2BA3
330
17
100
AcDbEntity
  8
FORM
100
AcDbPolyline
 90
        2
 70
     0
 43
0.0
 10
8.43996547831383
 20
1.494273225686066
 10
8.439965478313826
 20
0.2500000000000009
  0
LWPOLYLINE
  5
2BA7
330
17
100
AcDbEntity
  8
FORM
100
AcDbPolyline
 90
        2
 70
     0
 43
0.0
 10
10.8599718209366
 20
2.259328814359545
 10
10.8599718209366
 20
0.25
  0
TEXT
  5
2BAB
330
17
100
AcDbEntity
  8
FORM
 62
     6
100
AcDbText
 10
14.32413735667657
 20
0.3329239353651694
 30
0.0
 40
0.06
  1
SIZE   SHEET            OF     
  7
ROMANS
100
AcDbText
  0
TEXT
  5
2BAC
330
17
100
AcDbEntity
  8
FORM
 62
     6
100
AcDbText
 10
16.42770130018182
 20
0.7601463937775556
 30
0.0
 40
0.06
  1
REV.
  7
ROMANS
100
AcDbText
  0
TEXT
  5
2BAD
330
17
100
AcDbEntity
  8
FORM
 62
     6
100
AcDbText
 10
14.32413735667657
 20
0.5564977297924121
 30
0.0
 40
0.06
  1
NO.
  7
ROMANS
100
AcDbText
  0
TEXT
  5
2BAE
330
17
100
AcDbEntity
  8
FORM
 62
     6
100
AcDbText
 10
14.32413735667657
 20
0.689831063125745
 30
0.0
 40
0.06
  1
DWG.
  7
ROMANS
100
AcDbText
  0
TEXT
  5
2BAF
330
17
100
AcDbEntity
  8
FORM
 62
     6
100
AcDbText
 10
15.23822235609393
 20
1.616075938696837
 30
0.0
 40
0.08
  1
,
  7
ROMANS
100
AcDbText
  0
TEXT
  5
2BB0
330
17
100
AcDbEntity
  8
FORM
 62
     7
100
AcDbText
 10
14.41203014508209
 20
1.92680394881755
 30
0.0
 40
0.125
  1
AB
 41
1.011743653201264
  7
ROMANS
 72
     5
 11
14.62883235648236
 21
1.92680394881755
 31
0.0
100
AcDbText
  0
LWPOLYLINE
  5
2BB1
330
17
100
AcDbEntity
  8
FORM
 62
     7
100
AcDbPolyline
 90
        8
 70
     1
 43
0.0
 10
14.7220298948352
 20
2.056998151050134
 10
14.6046973835223
 20
2.174330662363033
 10
14.43876415471631
 20
2.174330662363033
 10
14.32143164340341
 20
2.056998151050134
 10
14.32143164340341
 20
1.89106492224414
 10
14.43876415471631
 20
1.773732410931241
 10
14.6046973835223
 20
1.773732410931241
 10
14.7220298948352
 20
1.89106492224414
  0
TEXT
  5
2BBB
330
17
100
AcDbEntity
  8
FORM
 62
     6
100
AcDbText
 10
14.61854583267383
 20
1.627801523984409
 30
0.0
 40
0.08
  1
CHELMSFORD, MA 01824
  7
ROMANS
100
AcDbText
  0
TEXT
  5
2BBC
330
17
100
AcDbEntity
  8
FORM
 62
     6
100
AcDbText
 10
14.95696543319629
 20
1.774371340079088
 30
0.0
 40
0.08
  1
2 EXECUTIVE DRIVE
  7
ROMANS
100
AcDbText
  0
TEXT
  5
2BBD
330
17
100
AcDbEntity
  8
FORM
 62
     7
100
AcDbText
 10
14.81633697174746
 20
1.92680394881755
 30
0.0
 40
0.14
  1
ALLEN BRADLEY
  7
ROMANS
100
AcDbText
  0
LINE
  5
2BBE
330
17
100
AcDbEntity
  8
FORM
100
AcDbLine
 10
14.24998804289447
 20
0.25
 30
0.0
 11
14.24998804289447
 21
2.259328814359545
 31
0.0
  0
LWPOLYLINE
  5
2BBF
330
17
100
AcDbEntity
  8
FORM
100
AcDbPolyline
 90
        2
 70
     0
 43
0.0
 10
0.25
 20
2.259328814359545
 10
16.75
 20
2.259328814359545
  0
LWPOLYLINE
  5
2BC3
330
17
100
AcDbEntity
  8
FORM
100
AcDbPolyline
 90
        2
 70
     0
 43
0.0
 10
14.24998804289447
 20
1.533996841683816
 10
16.75
 20
1.533996841683815
  0
LWPOLYLINE
  5
2BC7
330
17
100
AcDbEntity
  8
FORM
100
AcDbPolyline
 90
        2
 70
     0
 43
0.0
 10
16.27498581591434
 20
0.8500168021591736
 10
16.27498581591434
 20
0.4799971182237196
  0
LINE
  5
2BCB
330
17
100
AcDbEntity
  8
FORM
100
AcDbLine
 10
16.27498581591434
 20
0.7300168021591738
 30
0.0
 11
16.75
 21
0.7300168021591738
 31
0.0
  0
TEXT
  5
2BCC
330
17
100
AcDbEntity
  8
FORM
 62
     6
100
AcDbText
 10
14.56290115916442
 20
0.3330338452667396
 30
0.0
 40
0.08
  1
B
  7
ROMANS
 72
     1
 11
14.60480592106918
 21
0.3330338452667396
 31
0.0
100
AcDbText
  0
LINE
  5
2BCD
330
17
100
AcDbEntity
  8
FORM
100
AcDbLine
 10
10.8599718209366
 20
0.5400000000000001
 30
0.0
 11
14.24998804289447
 21
0.5399999999999971
 31
0.0
  0
LINE
  5
2BCE
330
17
100
AcDbEntity
  8
FORM
100
AcDbLine
 10
10.8599718209366
 20
0.83
 30
0.0
 11
14.24998804289447
 21
0.829999999999997
 31
0.0
  0
TEXT
  5
2BCF
330
17
100
AcDbEntity
  8
FORM
 62
     6
100
AcDbText
 10
10.94317434169648
 20
0.6292254283377875
 30
0.0
 40
0.1
  1
DR.
  7
ROMANS
 11
10.94317434169648
 21
0.6792254283377876
 31
0.0
100
AcDbText
 73
     2
  0
TEXT
  5
2BD0
330
17
100
AcDbEntity
  8
FORM
 62
     6
100
AcDbText
 10
10.96525940598479
 20
0.3444798277014414
 30
0.0
 40
0.1
  1
CHKD.
  7
ROMANS
 11
10.96525940598479
 21
0.3944798277014415
 31
0.0
100
AcDbText
 73
     2
  0
LINE
  5
2BD1
330
17
100
AcDbEntity
  8
FORM
100
AcDbLine
 10
12.6899718209366
 20
0.83
 30
0.0
 11
12.6899718209366
 21
0.25
 31
0.0
  0
TEXT
  5
2BD2
330
17
100
AcDbEntity
  8
FORM
 62
     6
100
AcDbText
 10
12.80944006010839
 20
0.6317678329865406
 30
0.0
 40
0.1
  1
DATE
  7
ROMANS
100
AcDbText
  0
TEXT
  5
2BD3
330
17
100
AcDbEntity
  8
FORM
 62
     6
100
AcDbText
 10
12.82526997111298
 20
0.3470222323501946
 30
0.0
 40
0.1
  1
DATE
  7
ROMANS
100
AcDbText
  0
LINE
  5
2BD4
330
17
100
AcDbEntity
  8
FORM
100
AcDbLine
 10
8.43996547831383
 20
1.119306148790596
 30
0.0
 11
10.8599718209366
 21
1.119306148790596
 31
0.0
  0
LINE
  5
2BD5
330
17
100
AcDbEntity
  8
FORM
100
AcDbLine
 10
8.43996547831383
 20
1.559339687238331
 30
0.0
 11
10.8599718209366
 21
1.559339687238331
 31
0.0
  0
LINE
  5
2BD6
330
17
100
AcDbEntity
  8
FORM
100
AcDbLine
 10
10.8599718209366
 20
2.069324396609751
 30
0.0
 11
8.439965478313826
 21
2.069324396609751
 31
0.0
  0
LINE
  5
2BD7
330
17
100
AcDbEntity
  8
FORM
100
AcDbLine
 10
2.959957019519989
 20
0.679306148790597
 30
0.0
 11
8.439965478313828
 21
0.679306148790597
 31
0.0
  0
TEXT
  5
2BD8
330
17
100
AcDbEntity
  8
FORM
 62
     6
100
AcDbText
 10
8.5285894429035
 20
1.379339687238331
 30
0.0
 40
0.08
  1
MATERIAL
  7
ROMANS
 11
8.5285894429035
 21
1.459339687238331
 31
0.0
100
AcDbText
 73
     3
  0
TEXT
  5
2BD9
330
17
100
AcDbEntity
  8
FORM
 62
     6
100
AcDbText
 10
8.5285894429035
 20
0.9393061487905967
 30
0.0
 40
0.08
  1
FINISH
  7
ROMANS
 11
8.5285894429035
 21
1.019306148790596
 31
0.0
100
AcDbText
 73
     3
  0
TEXT
  5
2BDA
330
17
100
AcDbEntity
  8
FORM
 62
     6
100
AcDbText
 10
8.5285894429035
 20
0.4993061487905969
 30
0.0
 40
0.08
  1
SCALE
  7
ROMANS
 11
8.5285894429035
 21
0.579306148790597
 31
0.0
100
AcDbText
 73
     3
  0
TEXT
  5
2BDB
330
17
100
AcDbEntity
  8
FORM
 62
     6
100
AcDbText
 10
8.718540078196641
 20
2.124324396609751
 30
0.0
 40
0.08
  1
UNLESS OTHERWISE SPECIFIED
  7
ROMANS
 72
     4
 11
9.649968649625213
 21
2.164324396609751
 31
0.0
100
AcDbText
  0
LINE
  5
2BDC
330
17
100
AcDbEntity
  8
FORM
100
AcDbLine
 10
8.439965478313826
 20
0.4600000000000009
 30
0.0
 11
4.259927296572479
 21
0.4600000000000008
 31
0.0
  0
LINE
  5
2BDD
330
17
100
AcDbEntity
  8
FORM
100
AcDbLine
 10
7.119877569860207
 20
2.259328814359545
 30
0.0
 11
7.119877569860207
 21
0.25
 31
0.0
  0
LINE
  5
2BDE
330
17
100
AcDbEntity
  8
FORM
100
AcDbLine
 10
7.780377569860207
 20
2.259328814359545
 30
0.0
 11
7.780377569860206
 21
0.4600000000000009
 31
0.0
  0
LINE
  5
2BDF
330
17
100
AcDbEntity
  8
FORM
100
AcDbLine
 10
8.439965478313828
 20
0.679306148790597
 30
0.0
 11
10.8599718209366
 21
0.679306148790597
 31
0.0
  0
LINE
  5
2BE0
330
17
100
AcDbEntity
  8
FORM
100
AcDbLine
 10
2.959957019519989
 20
0.942639448790597
 30
0.0
 11
8.439965478313828
 21
0.942639448790597
 31
0.0
  0
LINE
  5
2BE1
330
17
100
AcDbEntity
  8
FORM
100
AcDbLine
 10
2.959957019519989
 20
1.205972748790596
 30
0.0
 11
8.439965478313828
 21
1.205972748790596
 31
0.0
  0
LINE
  5
2BE2
330
17
100
AcDbEntity
  8
FORM
100
AcDbLine
 10
2.959957019519989
 20
1.469306048790596
 30
0.0
 11
8.439965478313828
 21
1.469306048790596
 31
0.0
  0
LINE
  5
2BE3
330
17
100
AcDbEntity
  8
FORM
100
AcDbLine
 10
2.959957019519989
 20
1.732639348790596
 30
0.0
 11
8.439965478313828
 21
1.732639348790596
 31
0.0
  0
LINE
  5
2BE4
330
17
100
AcDbEntity
  8
FORM
100
AcDbLine
 10
2.959957019519989
 20
1.995972648790596
 30
0.0
 11
8.439965478313828
 21
1.995972648790596
 31
0.0
  0
TEXT
  5
2BE5
330
17
100
AcDbEntity
  8
FORM
 62
     6
100
AcDbText
 10
7.475159619325112
 20
0.3188095238095242
 30
0.0
 40
0.08
  1
QTY REQD
  7
ROMANS
 72
     4
 11
7.779921524087017
 21
0.3550000000000004
 31
0.0
100
AcDbText
  0
TEXT
  5
2BE6
330
17
100
AcDbEntity
  8
FORM
 62
     6
100
AcDbText
 10
5.329902433216343
 20
0.3149999999999999
 30
0.0
 40
0.08
  1
APPLICATION
  7
ROMANS
 72
     4
 11
5.689902433216343
 21
0.355
 31
0.0
100
AcDbText
  0
TEXT
  5
2BE7
330
17
100
AcDbEntity
  8
FORM
 62
     6
100
AcDbText
 10
7.848742952658445
 20
0.5396500000000009
 30
0.0
 40
0.06
  1
FINAL ASSY
  7
ROMANS
 72
     4
 11
8.110171524087016
 21
0.569650000000001
 31
0.0
100
AcDbText
  0
TEXT
  5
2BE8
330
17
100
AcDbEntity
  8
FORM
 62
     6
100
AcDbText
 10
7.197270427003064
 20
0.5396500000000009
 30
0.0
 40
0.06
  1
NEXT ASSY
  7
ROMANS
 72
     4
 11
7.450127569860207
 21
0.569650000000001
 31
0.0
100
AcDbText
  0
TEXT
  5
2BE9
330
17
100
AcDbEntity
  8
FORM
 62
     6
100
AcDbText
 10
6.049877569860207
 20
0.5396500000000009
 30
0.0
 40
0.06
  1
USED ON
  7
ROMANS
 72
     4
 11
6.259877569860207
 21
0.569650000000001
 31
0.0
100
AcDbText
  0
TEXT
  5
2BEA
330
17
100
AcDbEntity
  8
FORM
 62
     6
100
AcDbText
 10
4.5770452903592
 20
0.5396500000000009
 30
0.0
 40
0.06
  1
NEXT ASSY
  7
ROMANS
 72
     4
 11
4.829902433216343
 21
0.569650000000001
 31
0.0
100
AcDbText
  0
TEXT
  5
2BEB
330
17
100
AcDbEntity
  8
FORM
 62
     6
100
AcDbText
 10
3.164728529411103
 20
0.4619761832450918
 30
0.0
 40
0.08
  1
CHG
  7
ROMANS
 72
     1
 11
3.286633291315864
 21
0.4619761832450918
 31
0.0
100
AcDbText
  0
TEXT
  5
2BEC
330
17
100
AcDbEntity
  8
FORM
 62
     6
100
AcDbText
 10
3.18187138655396
 20
0.3324523737212822
 30
0.0
 40
0.08
  1
LTR
  7
ROMANS
 72
     1
 11
3.286633291315864
 21
0.3324523737212822
 31
0.0
100
AcDbText
  0
TEXT
  5
2BED
330
17
100
AcDbEntity
  8
FORM
 62
     6
100
AcDbText
 10
3.780654013964837
 20
0.46465
 30
0.0
 40
0.08
  1
DASH
  7
ROMANS
 72
     1
 11
3.934939728250551
 21
0.46465
 31
0.0
100
AcDbText
  0
TEXT
  5
2BEE
330
17
100
AcDbEntity
  8
FORM
 62
     6
100
AcDbText
 10
3.832082585393408
 20
0.3351261904761904
 30
0.0
 40
0.08
  1
NO.
  7
ROMANS
 72
     1
 11
3.934939728250551
 21
0.3351261904761904
 31
0.0
100
AcDbText
  0
LWPOLYLINE
  5
2BEF
330
17
100
AcDbEntity
  8
OBJECT
100
AcDbPolyline
 90
        6
 70
     1
 43
0.0
 10
2.644006455128861
 20
6.295935071605157
 10
3.644006455128861
 20
5.718584802415531
 10
4.644006455128861
 20
6.295935071605157
 10
4.644006455128861
 20
7.450635609984409
 10
3.644006455128863
 20
8.027985879174035
 10
2.644006455128863
 20
7.450635609984409
  0
CIRCLE
  5
2BF7
330
17
100
AcDbEntity
  8
OBJECT
100
AcDbCircle
 10
3.644006455128861
 20
6.873285340794783
 30
0.0
 40
1.225
  0
CIRCLE
  5
2BF8
330
17
100
AcDbEntity
  8
OBJECT
100
AcDbCircle
 10
5.099006455128861
 20
6.873285340794783
 30
0.0
 40
0.085
  0
CIRCLE
  5
2BF9
330
17
100
AcDbEntity
  8
OBJECT
100
AcDbCircle
 10
5.099006455128861
 20
6.873285340794783
 30
0.0
 40
0.1578493243095513
  0
ARC
  5
2BFA
330
17
100
AcDbEntity
  8
OBJECT
100
AcDbCircle
 10
5.147042846196212
 20
6.873285340794783
 30
0.0
 40
0.1869636089326487
100
AcDbArc
 50
300.2476451438229
 51
59.75235485617699
  0
LINE
  5
2BFB
330
17
100
AcDbEntity
  8
OBJECT
100
AcDbLine
 10
4.793891622227622
 20
7.295646681930847
 30
0.0
 11
5.241223609063938
 21
7.034795015337127
 31
0.0
  0
LINE
  5
2BFC
330
17
100
AcDbEntity
  8
OBJECT
100
AcDbLine
 10
4.793891622227622
 20
6.450923999658718
 30
0.0
 11
5.241223609063938
 21
6.71177566625244
 31
0.0
  0
CIRCLE
  5
2BFD
330
17
100
AcDbEntity
  8
OBJECT
100
AcDbCircle
 10
2.189006455128859
 20
6.873285340794783
 30
0.0
 40
0.085
  0
CIRCLE
  5
2BFE
330
17
100
AcDbEntity
  8
OBJECT
100
AcDbCircle
 10
2.189006455128859
 20
6.873285340794783
 30
0.0
 40
0.1578493243095513
  0
ARC
  5
2BFF
330
17
100
AcDbEntity
  8
OBJECT
100
AcDbCircle
 10
2.140970064061509
 20
6.873285340794783
 30
0.0
 40
0.1869636089326487
100
AcDbArc
 50
120.247645143823
 51
239.7523548561771
  0
LINE
  5
2C00
330
17
100
AcDbEntity
  8
OBJECT
100
AcDbLine
 10
2.494121288030099
 20
6.450923999658718
 30
0.0
 11
2.046789301193783
 21
6.71177566625244
 31
0.0
  0
LINE
  5
2C01
330
17
100
AcDbEntity
  8
OBJECT
100
AcDbLine
 10
2.494121288030099
 20
7.295646681930847
 30
0.0
 11
2.046789301193783
 21
7.034795015337127
 31
0.0
  0
LWPOLYLINE
  5
2C02
330
17
100
AcDbEntity
  8
OBJECT
100
AcDbPolyline
 90
        6
 70
     1
 43
0.0
 10
3.488788524092838
 20
7.798772106980797
 10
3.567988524092838
 20
7.753045965660978
 10
3.647188524092838
 20
7.798772106980797
 10
3.647188524092838
 20
7.890224389620435
 10
3.567988524092838
 20
7.935950530940253
 10
3.488788524092838
 20
7.890224389620435
  0
LWPOLYLINE
  5
2C0A
330
17
100
AcDbEntity
  8
OBJECT
100
AcDbPolyline
 90
        6
 70
     1
 43
0.0
 10
3.650425310126831
 20
7.798772106980797
 10
3.729625310126833
 20
7.753045965660978
 10
3.808825310126833
 20
7.798772106980797
 10
3.808825310126833
 20
7.890224389620435
 10
3.729625310126833
 20
7.935950530940253
 10
3.650425310126831
 20
7.890224389620435
  0
LWPOLYLINE
  5
2C12
330
17
100
AcDbEntity
  8
OBJECT
100
AcDbPolyline
 90
        6
 70
     1
 43
0.0
 10
3.252982639613385
 20
7.65916813231232
 10
3.332182639613387
 20
7.613441990992502
 10
3.411382639613387
 20
7.65916813231232
 10
3.411382639613387
 20
7.750620414951958
 10
3.332182639613387
 20
7.796346556271776
 10
3.252982639613385
 20
7.750620414951958
  0
LWPOLYLINE
  5
2C1A
330
17
100
AcDbEntity
  8
OBJECT
100
AcDbPolyline
 90
        6
 70
     1
 43
0.0
 10
3.411382639613385
 20
7.65916813231232
 10
3.490582639613387
 20
7.613441990992502
 10
3.569782639613386
 20
7.65916813231232
 10
3.569782639613386
 20
7.750620414951958
 10
3.490582639613387
 20
7.796346556271776
 10
3.411382639613385
 20
7.750620414951958
  0
LWPOLYLINE
  5
2C22
330
17
100
AcDbEntity
  8
OBJECT
100
AcDbPolyline
 90
        6
 70
     1
 43
0.0
 10
3.569782639613386
 20
7.65916813231232
 10
3.648982639613388
 20
7.613441990992502
 10
3.728182639613388
 20
7.65916813231232
 10
3.728182639613388
 20
7.750620414951958
 10
3.648982639613388
 20
7.796346556271776
 10
3.569782639613386
 20
7.750620414951958
  0
LWPOLYLINE
  5
2C2A
330
17
100
AcDbEntity
  8
OBJECT
100
AcDbPolyline
 90
        6
 70
     1
 43
0.0
 10
3.728182639613386
 20
7.65916813231232
 10
3.807382639613388
 20
7.613441990992502
 10
3.886582639613386
 20
7.65916813231232
 10
3.886582639613386
 20
7.750620414951958
 10
3.807382639613388
 20
7.796346556271776
 10
3.728182639613386
 20
7.750620414951958
  0
LWPOLYLINE
  5
2C32
330
17
100
AcDbEntity
  8
OBJECT
100
AcDbPolyline
 90
        6
 70
     1
 43
0.0
 10
3.886582639613386
 20
7.65916813231232
 10
3.965782639613388
 20
7.613441990992502
 10
4.044982639613388
 20
7.65916813231232
 10
4.044982639613388
 20
7.750620414951958
 10
3.965782639613388
 20
7.796346556271776
 10
3.886582639613386
 20
7.750620414951958
  0
LWPOLYLINE
  5
2C3A
330
17
100
AcDbEntity
  8
OBJECT
100
AcDbPolyline
 90
        6
 70
     1
 43
0.0
 10
3.015382639613386
 20
7.521989708352865
 10
3.094582639613388
 20
7.476263567033047
 10
3.173782639613389
 20
7.521989708352865
 10
3.173782639613389
 20
7.613441990992502
 10
3.094582639613388
 20
7.65916813231232
 10
3.015382639613386
 20
7.613441990992502
  0
LWPOLYLINE
  5
2C42
330
17
100
AcDbEntity
  8
OBJECT
100
AcDbPolyline
 90
        6
 70
     1
 43
0.0
 10
3.173782639613387
 20
7.521989708352865
 10
3.252982639613385
 20
7.476263567033047
 10
3.332182639613387
 20
7.521989708352865
 10
3.332182639613387
 20
7.613441990992502
 10
3.252982639613385
 20
7.65916813231232
 10
3.173782639613387
 20
7.613441990992502
  0
LWPOLYLINE
  5
2C4A
330
17
100
AcDbEntity
  8
OBJECT
100
AcDbPolyline
 90
        6
 70
     1
 43
0.0
 10
3.332182639613387
 20
7.521989708352865
 10
3.411382639613387
 20
7.476263567033047
 10
3.490582639613389
 20
7.521989708352865
 10
3.490582639613389
 20
7.613441990992502
 10
3.411382639613387
 20
7.65916813231232
 10
3.332182639613387
 20
7.613441990992502
  0
LWPOLYLINE
  5
2C52
330
17
100
AcDbEntity
  8
OBJECT
100
AcDbPolyline
 90
        6
 70
     1
 43
0.0
 10
3.490582639613387
 20
7.521989708352865
 10
3.569782639613386
 20
7.476263567033047
 10
3.648982639613388
 20
7.521989708352865
 10
3.648982639613388
 20
7.613441990992502
 10
3.569782639613386
 20
7.65916813231232
 10
3.490582639613387
 20
7.613441990992502
  0
LWPOLYLINE
  5
2C5A
330
17
100
AcDbEntity
  8
OBJECT
100
AcDbPolyline
 90
        6
 70
     1
 43
0.0
 10
3.648982639613388
 20
7.521989708352865
 10
3.728182639613388
 20
7.476263567033047
 10
3.80738263961339
 20
7.521989708352865
 10
3.80738263961339
 20
7.613441990992502
 10
3.728182639613388
 20
7.65916813231232
 10
3.648982639613388
 20
7.613441990992502
  0
LWPOLYLINE
  5
2C62
330
17
100
AcDbEntity
  8
OBJECT
100
AcDbPolyline
 90
        6
 70
     1
 43
0.0
 10
3.807382639613388
 20
7.521989708352865
 10
3.886582639613386
 20
7.476263567033047
 10
3.965782639613388
 20
7.521989708352865
 10
3.965782639613388
 20
7.613441990992502
 10
3.886582639613386
 20
7.65916813231232
 10
3.807382639613388
 20
7.613441990992502
  0
LWPOLYLINE
  5
2C6A
330
17
100
AcDbEntity
  8
OBJECT
100
AcDbPolyline
 90
        6
 70
     1
 43
0.0
 10
3.965782639613388
 20
7.521989708352865
 10
4.044982639613388
 20
7.476263567033047
 10
4.12418263961339
 20
7.521989708352865
 10
4.12418263961339
 20
7.613441990992502
 10
4.044982639613388
 20
7.65916813231232
 10
3.965782639613388
 20
7.613441990992502
  0
LWPOLYLINE
  5
2C72
330
17
100
AcDbEntity
  8
OBJECT
100
AcDbPolyline
 90
        6
 70
     1
 43
0.0
 10
4.124182639613389
 20
7.521989708352865
 10
4.203382639613387
 20
7.476263567033047
 10
4.282582639613387
 20
7.521989708352865
 10
4.282582639613387
 20
7.613441990992502
 10
4.203382639613387
 20
7.65916813231232
 10
4.124182639613389
 20
7.613441990992502
  0
LWPOLYLINE
  5
2C7A
330
17
100
AcDbEntity
  8
OBJECT
100
AcDbPolyline
 90
        6
 70
     1
 43
0.0
 10
2.777782639613388
 20
7.384811284393411
 10
2.856982639613388
 20
7.339085143073591
 10
2.93618263961339
 20
7.384811284393411
 10
2.93618263961339
 20
7.476263567033047
 10
2.856982639613388
 20
7.521989708352865
 10
2.777782639613388
 20
7.476263567033047
  0
LWPOLYLINE
  5
2C82
330
17
100
AcDbEntity
  8
OBJECT
100
AcDbPolyline
 90
        6
 70
     1
 43
0.0
 10
2.936182639613386
 20
7.384811284393411
 10
3.015382639613386
 20
7.339085143073591
 10
3.094582639613388
 20
7.384811284393411
 10
3.094582639613388
 20
7.476263567033047
 10
3.015382639613386
 20
7.521989708352865
 10
2.936182639613386
 20
7.476263567033047
  0
LWPOLYLINE
  5
2C8A
330
17
100
AcDbEntity
  8
OBJECT
100
AcDbPolyline
 90
        6
 70
     1
 43
0.0
 10
3.094582639613388
 20
7.384811284393411
 10
3.173782639613389
 20
7.339085143073591
 10
3.25298263961339
 20
7.384811284393411
 10
3.25298263961339
 20
7.476263567033047
 10
3.173782639613389
 20
7.521989708352865
 10
3.094582639613388
 20
7.476263567033047
  0
LWPOLYLINE
  5
2C92
330
17
100
AcDbEntity
  8
OBJECT
100
AcDbPolyline
 90
        6
 70
     1
 43
0.0
 10
3.252982639613385
 20
7.384811284393411
 10
3.332182639613387
 20
7.339085143073591
 10
3.411382639613387
 20
7.384811284393411
 10
3.411382639613387
 20
7.476263567033047
 10
3.332182639613387
 20
7.521989708352865
 10
3.252982639613385
 20
7.476263567033047
  0
LWPOLYLINE
  5
2C9A
330
17
100
AcDbEntity
  8
OBJECT
100
AcDbPolyline
 90
        6
 70
     1
 43
0.0
 10
3.411382639613387
 20
7.384811284393411
 10
3.490582639613389
 20
7.339085143073591
 10
3.569782639613389
 20
7.384811284393411
 10
3.569782639613389
 20
7.476263567033047
 10
3.490582639613389
 20
7.521989708352865
 10
3.411382639613387
 20
7.476263567033047
  0
LWPOLYLINE
  5
2CA2
330
17
100
AcDbEntity
  8
OBJECT
100
AcDbPolyline
 90
        6
 70
     1
 43
0.0
 10
3.569782639613386
 20
7.384811284393411
 10
3.648982639613388
 20
7.339085143073591
 10
3.728182639613388
 20
7.384811284393411
 10
3.728182639613388
 20
7.476263567033047
 10
3.648982639613388
 20
7.521989708352865
 10
3.569782639613386
 20
7.476263567033047
  0
LWPOLYLINE
  5
2CAA
330
17
100
AcDbEntity
  8
OBJECT
100
AcDbPolyline
 90
        6
 70
     1
 43
0.0
 10
3.728182639613388
 20
7.384811284393411
 10
3.80738263961339
 20
7.339085143073591
 10
3.88658263961339
 20
7.384811284393411
 10
3.88658263961339
 20
7.476263567033047
 10
3.80738263961339
 20
7.521989708352865
 10
3.728182639613388
 20
7.476263567033047
  0
LWPOLYLINE
  5
2CB2
330
17
100
AcDbEntity
  8
OBJECT
100
AcDbPolyline
 90
        6
 70
     1
 43
0.0
 10
3.886582639613386
 20
7.384811284393411
 10
3.965782639613388
 20
7.339085143073591
 10
4.044982639613388
 20
7.384811284393411
 10
4.044982639613388
 20
7.476263567033047
 10
3.965782639613388
 20
7.521989708352865
 10
3.886582639613386
 20
7.476263567033047
  0
LWPOLYLINE
  5
2CBA
330
17
100
AcDbEntity
  8
OBJECT
100
AcDbPolyline
 90
        6
 70
     1
 43
0.0
 10
4.044982639613388
 20
7.384811284393411
 10
4.124182639613389
 20
7.339085143073591
 10
4.203382639613391
 20
7.384811284393411
 10
4.203382639613391
 20
7.476263567033047
 10
4.124182639613389
 20
7.521989708352865
 10
4.044982639613388
 20
7.476263567033047
  0
LWPOLYLINE
  5
2CC2
330
17
100
AcDbEntity
  8
OBJECT
100
AcDbPolyline
 90
        6
 70
     1
 43
0.0
 10
4.203382639613387
 20
7.384811284393411
 10
4.282582639613387
 20
7.339085143073591
 10
4.361782639613389
 20
7.384811284393411
 10
4.361782639613389
 20
7.476263567033047
 10
4.282582639613387
 20
7.521989708352865
 10
4.203382639613387
 20
7.476263567033047
  0
LWPOLYLINE
  5
2CCA
330
17
100
AcDbEntity
  8
OBJECT
100
AcDbPolyline
 90
        6
 70
     1
 43
0.0
 10
4.361782639613387
 20
7.384811284393411
 10
4.440982639613388
 20
7.339085143073591
 10
4.520182639613388
 20
7.384811284393411
 10
4.520182639613388
 20
7.476263567033047
 10
4.440982639613388
 20
7.521989708352865
 10
4.361782639613387
 20
7.476263567033047
  0
LWPOLYLINE
  5
2CD2
330
17
100
AcDbEntity
  8
OBJECT
100
AcDbPolyline
 90
        6
 70
     1
 43
0.0
 10
3.807382639613388
 20
7.247632860433952
 10
3.886582639613386
 20
7.201906719114134
 10
3.965782639613388
 20
7.247632860433952
 10
3.965782639613388
 20
7.339085143073589
 10
3.886582639613386
 20
7.384811284393407
 10
3.807382639613388
 20
7.339085143073589
  0
LWPOLYLINE
  5
2CDA
330
17
100
AcDbEntity
  8
OBJECT
100
AcDbPolyline
 90
        6
 70
     1
 43
0.0
 10
2.856982639613386
 20
7.247632860433952
 10
2.936182639613386
 20
7.201906719114134
 10
3.015382639613386
 20
7.247632860433952
 10
3.015382639613386
 20
7.339085143073589
 10
2.936182639613386
 20
7.384811284393407
 10
2.856982639613386
 20
7.339085143073589
  0
LWPOLYLINE
  5
2CE2
330
17
100
AcDbEntity
  8
OBJECT
100
AcDbPolyline
 90
        6
 70
     1
 43
0.0
 10
2.693920361035084
 20
7.250324628226174
 10
2.773120361035086
 20
7.204598486906355
 10
2.852320361035086
 20
7.250324628226174
 10
2.852320361035086
 20
7.34177691086581
 10
2.773120361035086
 20
7.387503052185628
 10
2.693920361035084
 20
7.34177691086581
  0
LWPOLYLINE
  5
2CEA
330
17
100
AcDbEntity
  8
OBJECT
100
AcDbPolyline
 90
        6
 70
     1
 43
0.0
 10
3.332182639613387
 20
7.247632860433952
 10
3.411382639613387
 20
7.201906719114134
 10
3.490582639613389
 20
7.247632860433952
 10
3.490582639613389
 20
7.339085143073589
 10
3.411382639613387
 20
7.384811284393407
 10
3.332182639613387
 20
7.339085143073589
  0
LWPOLYLINE
  5
2CF2
330
17
100
AcDbEntity
  8
OBJECT
100
AcDbPolyline
 90
        6
 70
     1
 43
0.0
 10
3.015382639613386
 20
7.247632860433952
 10
3.094582639613388
 20
7.201906719114134
 10
3.173782639613389
 20
7.247632860433952
 10
3.173782639613389
 20
7.339085143073589
 10
3.094582639613388
 20
7.384811284393407
 10
3.015382639613386
 20
7.339085143073589
  0
LWPOLYLINE
  5
2CFA
330
17
100
AcDbEntity
  8
OBJECT
100
AcDbPolyline
 90
        6
 70
     1
 43
0.0
 10
3.173782639613387
 20
7.247632860433952
 10
3.252982639613385
 20
7.201906719114134
 10
3.332182639613387
 20
7.247632860433952
 10
3.332182639613387
 20
7.339085143073589
 10
3.252982639613385
 20
7.384811284393407
 10
3.173782639613387
 20
7.339085143073589
  0
LWPOLYLINE
  5
2D02
330
17
100
AcDbEntity
  8
OBJECT
100
AcDbPolyline
 90
        6
 70
     1
 43
0.0
 10
3.490582639613387
 20
7.247632860433952
 10
3.569782639613386
 20
7.201906719114134
 10
3.648982639613388
 20
7.247632860433952
 10
3.648982639613388
 20
7.339085143073589
 10
3.569782639613386
 20
7.384811284393407
 10
3.490582639613387
 20
7.339085143073589
  0
LWPOLYLINE
  5
2D0A
330
17
100
AcDbEntity
  8
OBJECT
100
AcDbPolyline
 90
        6
 70
     1
 43
0.0
 10
3.648982639613388
 20
7.247632860433952
 10
3.728182639613388
 20
7.201906719114134
 10
3.80738263961339
 20
7.247632860433952
 10
3.80738263961339
 20
7.339085143073589
 10
3.728182639613388
 20
7.384811284393407
 10
3.648982639613388
 20
7.339085143073589
  0
LWPOLYLINE
  5
2D12
330
17
100
AcDbEntity
  8
OBJECT
100
AcDbPolyline
 90
        6
 70
     1
 43
0.0
 10
4.124182639613389
 20
7.247632860433952
 10
4.203382639613387
 20
7.201906719114134
 10
4.282582639613387
 20
7.247632860433952
 10
4.282582639613387
 20
7.339085143073589
 10
4.203382639613387
 20
7.384811284393407
 10
4.124182639613389
 20
7.339085143073589
  0
LWPOLYLINE
  5
2D1A
330
17
100
AcDbEntity
  8
OBJECT
100
AcDbPolyline
 90
        6
 70
     1
 43
0.0
 10
3.965782639613388
 20
7.247632860433952
 10
4.044982639613387
 20
7.201906719114134
 10
4.12418263961339
 20
7.247632860433952
 10
4.12418263961339
 20
7.339085143073589
 10
4.044982639613387
 20
7.384811284393407
 10
3.965782639613388
 20
7.339085143073589
  0
LWPOLYLINE
  5
2D22
330
17
100
AcDbEntity
  8
OBJECT
100
AcDbPolyline
 90
        6
 70
     1
 43
0.0
 10
4.282582639613385
 20
7.247632860433952
 10
4.361782639613387
 20
7.201906719114134
 10
4.440982639613388
 20
7.247632860433952
 10
4.440982639613388
 20
7.339085143073589
 10
4.361782639613387
 20
7.384811284393407
 10
4.282582639613385
 20
7.339085143073589
  0
LWPOLYLINE
  5
2D2A
330
17
100
AcDbEntity
  8
OBJECT
100
AcDbPolyline
 90
        6
 70
     1
 43
0.0
 10
4.440982639613384
 20
7.247632860433952
 10
4.520182639613386
 20
7.201906719114134
 10
4.599382639613386
 20
7.247632860433952
 10
4.599382639613386
 20
7.339085143073591
 10
4.520182639613386
 20
7.384811284393411
 10
4.440982639613384
 20
7.339085143073591
  0
LWPOLYLINE
  5
2D32
330
17
100
AcDbEntity
  8
OBJECT
100
AcDbPolyline
 90
        6
 70
     1
 43
0.0
 10
3.728182639613388
 20
7.110454436474496
 10
3.80738263961339
 20
7.064728295154676
 10
3.88658263961339
 20
7.110454436474496
 10
3.88658263961339
 20
7.201906719114132
 10
3.80738263961339
 20
7.247632860433952
 10
3.728182639613388
 20
7.201906719114132
  0
LWPOLYLINE
  5
2D3A
330
17
100
AcDbEntity
  8
OBJECT
100
AcDbPolyline
 90
        6
 70
     1
 43
0.0
 10
3.807382639613388
 20
6.973276012515039
 10
3.886582639613386
 20
6.927549871195221
 10
3.965782639613388
 20
6.973276012515039
 10
3.965782639613388
 20
7.064728295154676
 10
3.886582639613386
 20
7.110454436474494
 10
3.807382639613388
 20
7.064728295154676
  0
LWPOLYLINE
  5
2D42
330
17
100
AcDbEntity
  8
OBJECT
100
AcDbPolyline
 90
        6
 70
     1
 43
0.0
 10
3.094582639613388
 20
7.110454436474496
 10
3.173782639613389
 20
7.064728295154676
 10
3.25298263961339
 20
7.110454436474496
 10
3.25298263961339
 20
7.201906719114132
 10
3.173782639613389
 20
7.247632860433952
 10
3.094582639613388
 20
7.201906719114132
  0
LWPOLYLINE
  5
2D4A
330
17
100
AcDbEntity
  8
OBJECT
100
AcDbPolyline
 90
        6
 70
     1
 43
0.0
 10
3.015382639613386
 20
6.973276012515039
 10
3.094582639613388
 20
6.927549871195221
 10
3.173782639613389
 20
6.973276012515039
 10
3.173782639613389
 20
7.064728295154676
 10
3.094582639613388
 20
7.110454436474494
 10
3.015382639613386
 20
7.064728295154676
  0
LWPOLYLINE
  5
2D52
330
17
100
AcDbEntity
  8
OBJECT
100
AcDbPolyline
 90
        6
 70
     1
 43
0.0
 10
2.856982639613386
 20
6.973276012515039
 10
2.936182639613386
 20
6.927549871195221
 10
3.015382639613386
 20
6.973276012515039
 10
3.015382639613386
 20
7.064728295154676
 10
2.936182639613386
 20
7.110454436474494
 10
2.856982639613386
 20
7.064728295154676
  0
LWPOLYLINE
  5
2D5A
330
17
100
AcDbEntity
  8
OBJECT
100
AcDbPolyline
 90
        6
 70
     1
 43
0.0
 10
2.693920361035084
 20
6.975967780307259
 10
2.773120361035086
 20
6.930241638987441
 10
2.852320361035086
 20
6.975967780307259
 10
2.852320361035086
 20
7.067420062946897
 10
2.773120361035086
 20
7.113146204266715
 10
2.693920361035084
 20
7.067420062946897
  0
LWPOLYLINE
  5
2D62
330
17
100
AcDbEntity
  8
OBJECT
100
AcDbPolyline
 90
        6
 70
     1
 43
0.0
 10
2.777782639613388
 20
7.110454436474496
 10
2.856982639613388
 20
7.064728295154676
 10
2.93618263961339
 20
7.110454436474496
 10
2.93618263961339
 20
7.201906719114132
 10
2.856982639613388
 20
7.247632860433952
 10
2.777782639613388
 20
7.201906719114132
  0
LWPOLYLINE
  5
2D6A
330
17
100
AcDbEntity
  8
OBJECT
100
AcDbPolyline
 90
        6
 70
     1
 43
0.0
 10
2.936182639613386
 20
7.110454436474496
 10
3.015382639613386
 20
7.064728295154676
 10
3.094582639613388
 20
7.110454436474496
 10
3.094582639613388
 20
7.201906719114132
 10
3.015382639613386
 20
7.247632860433952
 10
2.936182639613386
 20
7.201906719114132
  0
LWPOLYLINE
  5
2D72
330
17
100
AcDbEntity
  8
OBJECT
100
AcDbPolyline
 90
        6
 70
     1
 43
0.0
 10
3.332182639613387
 20
6.973276012515039
 10
3.411382639613387
 20
6.927549871195221
 10
3.490582639613389
 20
6.973276012515039
 10
3.490582639613389
 20
7.064728295154676
 10
3.411382639613387
 20
7.110454436474494
 10
3.332182639613387
 20
7.064728295154676
  0
LWPOLYLINE
  5
2D7A
330
17
100
AcDbEntity
  8
OBJECT
100
AcDbPolyline
 90
        6
 70
     1
 43
0.0
 10
3.173782639613387
 20
6.973276012515039
 10
3.252982639613385
 20
6.927549871195221
 10
3.332182639613387
 20
6.973276012515039
 10
3.332182639613387
 20
7.064728295154676
 10
3.252982639613385
 20
7.110454436474494
 10
3.173782639613387
 20
7.064728295154676
  0
LWPOLYLINE
  5
2D82
330
17
100
AcDbEntity
  8
OBJECT
100
AcDbPolyline
 90
        6
 70
     1
 43
0.0
 10
3.648982639613388
 20
6.973276012515039
 10
3.728182639613388
 20
6.927549871195221
 10
3.80738263961339
 20
6.973276012515039
 10
3.80738263961339
 20
7.064728295154676
 10
3.728182639613388
 20
7.110454436474494
 10
3.648982639613388
 20
7.064728295154676
  0
LWPOLYLINE
  5
2D8A
330
17
100
AcDbEntity
  8
OBJECT
100
AcDbPolyline
 90
        6
 70
     1
 43
0.0
 10
3.490582639613387
 20
6.973276012515039
 10
3.569782639613386
 20
6.927549871195221
 10
3.648982639613388
 20
6.973276012515039
 10
3.648982639613388
 20
7.064728295154676
 10
3.569782639613386
 20
7.110454436474494
 10
3.490582639613387
 20
7.064728295154676
  0
LWPOLYLINE
  5
2D92
330
17
100
AcDbEntity
  8
OBJECT
100
AcDbPolyline
 90
        6
 70
     1
 43
0.0
 10
3.411382639613387
 20
7.110454436474496
 10
3.490582639613389
 20
7.064728295154676
 10
3.569782639613389
 20
7.110454436474496
 10
3.569782639613389
 20
7.201906719114132
 10
3.490582639613389
 20
7.247632860433952
 10
3.411382639613387
 20
7.201906719114132
  0
LWPOLYLINE
  5
2D9A
330
17
100
AcDbEntity
  8
OBJECT
100
AcDbPolyline
 90
        6
 70
     1
 43
0.0
 10
3.252982639613385
 20
7.110454436474496
 10
3.332182639613387
 20
7.064728295154676
 10
3.411382639613387
 20
7.110454436474496
 10
3.411382639613387
 20
7.201906719114132
 10
3.332182639613387
 20
7.247632860433952
 10
3.252982639613385
 20
7.201906719114132
  0
LWPOLYLINE
  5
2DA2
330
17
100
AcDbEntity
  8
OBJECT
100
AcDbPolyline
 90
        6
 70
     1
 43
0.0
 10
3.569782639613386
 20
7.110454436474496
 10
3.648982639613388
 20
7.064728295154676
 10
3.728182639613388
 20
7.110454436474496
 10
3.728182639613388
 20
7.201906719114132
 10
3.648982639613388
 20
7.247632860433952
 10
3.569782639613386
 20
7.201906719114132
  0
LWPOLYLINE
  5
2DAA
330
17
100
AcDbEntity
  8
OBJECT
100
AcDbPolyline
 90
        6
 70
     1
 43
0.0
 10
4.361782639613387
 20
7.110454436474496
 10
4.440982639613388
 20
7.064728295154676
 10
4.520182639613388
 20
7.110454436474496
 10
4.520182639613388
 20
7.201906719114132
 10
4.440982639613388
 20
7.247632860433952
 10
4.361782639613387
 20
7.201906719114132
  0
LWPOLYLINE
  5
2DB2
330
17
100
AcDbEntity
  8
OBJECT
100
AcDbPolyline
 90
        6
 70
     1
 43
0.0
 10
4.440982639613384
 20
6.973276012515039
 10
4.520182639613386
 20
6.927549871195221
 10
4.599382639613386
 20
6.973276012515039
 10
4.599382639613386
 20
7.064728295154676
 10
4.520182639613386
 20
7.110454436474496
 10
4.440982639613384
 20
7.064728295154676
  0
LWPOLYLINE
  5
2DBA
330
17
100
AcDbEntity
  8
OBJECT
100
AcDbPolyline
 90
        6
 70
     1
 43
0.0
 10
4.124182639613389
 20
6.973276012515039
 10
4.203382639613387
 20
6.927549871195221
 10
4.282582639613387
 20
6.973276012515039
 10
4.282582639613387
 20
7.064728295154676
 10
4.203382639613387
 20
7.110454436474494
 10
4.124182639613389
 20
7.064728295154676
  0
LWPOLYLINE
  5
2DC2
330
17
100
AcDbEntity
  8
OBJECT
100
AcDbPolyline
 90
        6
 70
     1
 43
0.0
 10
3.965782639613388
 20
6.973276012515039
 10
4.044982639613387
 20
6.927549871195221
 10
4.12418263961339
 20
6.973276012515039
 10
4.12418263961339
 20
7.064728295154676
 10
4.044982639613387
 20
7.110454436474494
 10
3.965782639613388
 20
7.064728295154676
  0
LWPOLYLINE
  5
2DCA
330
17
100
AcDbEntity
  8
OBJECT
100
AcDbPolyline
 90
        6
 70
     1
 43
0.0
 10
4.282582639613385
 20
6.973276012515039
 10
4.361782639613387
 20
6.927549871195221
 10
4.440982639613388
 20
6.973276012515039
 10
4.440982639613388
 20
7.064728295154676
 10
4.361782639613387
 20
7.110454436474494
 10
4.282582639613385
 20
7.064728295154676
  0
LWPOLYLINE
  5
2DD2
330
17
100
AcDbEntity
  8
OBJECT
100
AcDbPolyline
 90
        6
 70
     1
 43
0.0
 10
4.044982639613388
 20
7.110454436474496
 10
4.124182639613389
 20
7.064728295154676
 10
4.203382639613391
 20
7.110454436474496
 10
4.203382639613391
 20
7.201906719114132
 10
4.124182639613389
 20
7.247632860433952
 10
4.044982639613388
 20
7.201906719114132
  0
LWPOLYLINE
  5
2DDA
330
17
100
AcDbEntity
  8
OBJECT
100
AcDbPolyline
 90
        6
 70
     1
 43
0.0
 10
3.886582639613386
 20
7.110454436474496
 10
3.965782639613388
 20
7.064728295154676
 10
4.044982639613388
 20
7.110454436474496
 10
4.044982639613388
 20
7.201906719114132
 10
3.965782639613388
 20
7.247632860433952
 10
3.886582639613386
 20
7.201906719114132
  0
LWPOLYLINE
  5
2DE2
330
17
100
AcDbEntity
  8
OBJECT
100
AcDbPolyline
 90
        6
 70
     1
 43
0.0
 10
4.203382639613387
 20
7.110454436474496
 10
4.282582639613387
 20
7.064728295154676
 10
4.361782639613389
 20
7.110454436474496
 10
4.361782639613389
 20
7.201906719114132
 10
4.282582639613387
 20
7.247632860433952
 10
4.203382639613387
 20
7.201906719114132
  0
LWPOLYLINE
  5
2DEA
330
17
100
AcDbEntity
  8
OBJECT
100
AcDbPolyline
 90
        6
 70
     1
 43
0.0
 10
3.728182639613386
 20
6.836097588555582
 10
3.807382639613388
 20
6.790371447235763
 10
3.886582639613388
 20
6.836097588555582
 10
3.886582639613388
 20
6.927549871195218
 10
3.807382639613388
 20
6.973276012515038
 10
3.728182639613386
 20
6.927549871195218
  0
LWPOLYLINE
  5
2DF2
330
17
100
AcDbEntity
  8
OBJECT
100
AcDbPolyline
 90
        6
 70
     1
 43
0.0
 10
3.807382639613386
 20
6.698919164596125
 10
3.886582639613385
 20
6.653193023276307
 10
3.965782639613387
 20
6.698919164596125
 10
3.965782639613387
 20
6.790371447235762
 10
3.886582639613385
 20
6.83609758855558
 10
3.807382639613386
 20
6.790371447235762
  0
LWPOLYLINE
  5
2DFA
330
17
100
AcDbEntity
  8
OBJECT
100
AcDbPolyline
 90
        6
 70
     1
 43
0.0
 10
3.094582639613387
 20
6.836097588555582
 10
3.173782639613387
 20
6.790371447235763
 10
3.252982639613389
 20
6.836097588555582
 10
3.252982639613389
 20
6.927549871195218
 10
3.173782639613387
 20
6.973276012515038
 10
3.094582639613387
 20
6.927549871195218
  0
LWPOLYLINE
  5
2E02
330
17
100
AcDbEntity
  8
OBJECT
100
AcDbPolyline
 90
        6
 70
     1
 43
0.0
 10
3.015382639613385
 20
6.698919164596125
 10
3.094582639613387
 20
6.653193023276307
 10
3.173782639613387
 20
6.698919164596125
 10
3.173782639613387
 20
6.790371447235762
 10
3.094582639613387
 20
6.83609758855558
 10
3.015382639613385
 20
6.790371447235762
  0
LWPOLYLINE
  5
2E0A
330
17
100
AcDbEntity
  8
OBJECT
100
AcDbPolyline
 90
        6
 70
     1
 43
0.0
 10
2.856982639613384
 20
6.698919164596125
 10
2.936182639613384
 20
6.653193023276307
 10
3.015382639613385
 20
6.698919164596125
 10
3.015382639613385
 20
6.790371447235762
 10
2.936182639613384
 20
6.83609758855558
 10
2.856982639613384
 20
6.790371447235762
  0
LWPOLYLINE
  5
2E12
330
17
100
AcDbEntity
  8
OBJECT
100
AcDbPolyline
 90
        6
 70
     1
 43
0.0
 10
2.693920361035083
 20
6.701610932388345
 10
2.773120361035084
 20
6.655884791068527
 10
2.852320361035085
 20
6.701610932388345
 10
2.852320361035085
 20
6.793063215027983
 10
2.773120361035084
 20
6.838789356347801
 10
2.693920361035083
 20
6.793063215027983
  0
LWPOLYLINE
  5
2E1A
330
17
100
AcDbEntity
  8
OBJECT
100
AcDbPolyline
 90
        6
 70
     1
 43
0.0
 10
2.777782639613386
 20
6.836097588555582
 10
2.856982639613386
 20
6.790371447235763
 10
2.936182639613388
 20
6.836097588555582
 10
2.936182639613388
 20
6.927549871195218
 10
2.856982639613386
 20
6.973276012515038
 10
2.777782639613386
 20
6.927549871195218
  0
LWPOLYLINE
  5
2E22
330
17
100
AcDbEntity
  8
OBJECT
100
AcDbPolyline
 90
        6
 70
     1
 43
0.0
 10
2.936182639613384
 20
6.836097588555582
 10
3.015382639613385
 20
6.790371447235763
 10
3.094582639613387
 20
6.836097588555582
 10
3.094582639613387
 20
6.927549871195218
 10
3.015382639613385
 20
6.973276012515038
 10
2.936182639613384
 20
6.927549871195218
  0
LWPOLYLINE
  5
2E2A
330
17
100
AcDbEntity
  8
OBJECT
100
AcDbPolyline
 90
        6
 70
     1
 43
0.0
 10
3.332182639613385
 20
6.698919164596125
 10
3.411382639613385
 20
6.653193023276307
 10
3.490582639613387
 20
6.698919164596125
 10
3.490582639613387
 20
6.790371447235762
 10
3.411382639613385
 20
6.83609758855558
 10
3.332182639613385
 20
6.790371447235762
  0
LWPOLYLINE
  5
2E32
330
17
100
AcDbEntity
  8
OBJECT
100
AcDbPolyline
 90
        6
 70
     1
 43
0.0
 10
3.173782639613385
 20
6.698919164596125
 10
3.252982639613383
 20
6.653193023276307
 10
3.332182639613385
 20
6.698919164596125
 10
3.332182639613385
 20
6.790371447235762
 10
3.252982639613383
 20
6.83609758855558
 10
3.173782639613385
 20
6.790371447235762
  0
LWPOLYLINE
  5
2E3A
330
17
100
AcDbEntity
  8
OBJECT
100
AcDbPolyline
 90
        6
 70
     1
 43
0.0
 10
3.648982639613386
 20
6.698919164596125
 10
3.728182639613386
 20
6.653193023276307
 10
3.807382639613388
 20
6.698919164596125
 10
3.807382639613388
 20
6.790371447235762
 10
3.728182639613386
 20
6.83609758855558
 10
3.648982639613386
 20
6.790371447235762
  0
LWPOLYLINE
  5
2E42
330
17
100
AcDbEntity
  8
OBJECT
100
AcDbPolyline
 90
        6
 70
     1
 43
0.0
 10
3.490582639613386
 20
6.698919164596125
 10
3.569782639613384
 20
6.653193023276307
 10
3.648982639613386
 20
6.698919164596125
 10
3.648982639613386
 20
6.790371447235762
 10
3.569782639613384
 20
6.83609758855558
 10
3.490582639613386
 20
6.790371447235762
  0
LWPOLYLINE
  5
2E4A
330
17
100
AcDbEntity
  8
OBJECT
100
AcDbPolyline
 90
        6
 70
     1
 43
0.0
 10
3.411382639613385
 20
6.836097588555582
 10
3.490582639613387
 20
6.790371447235763
 10
3.569782639613388
 20
6.836097588555582
 10
3.569782639613388
 20
6.927549871195218
 10
3.490582639613387
 20
6.973276012515038
 10
3.411382639613385
 20
6.927549871195218
  0
LWPOLYLINE
  5
2E52
330
17
100
AcDbEntity
  8
OBJECT
100
AcDbPolyline
 90
        6
 70
     1
 43
0.0
 10
3.252982639613383
 20
6.836097588555582
 10
3.332182639613385
 20
6.790371447235763
 10
3.411382639613385
 20
6.836097588555582
 10
3.411382639613385
 20
6.927549871195218
 10
3.332182639613385
 20
6.973276012515038
 10
3.252982639613383
 20
6.927549871195218
  0
LWPOLYLINE
  5
2E5A
330
17
100
AcDbEntity
  8
OBJECT
100
AcDbPolyline
 90
        6
 70
     1
 43
0.0
 10
3.569782639613384
 20
6.836097588555582
 10
3.648982639613386
 20
6.790371447235763
 10
3.728182639613386
 20
6.836097588555582
 10
3.728182639613386
 20
6.927549871195218
 10
3.648982639613386
 20
6.973276012515038
 10
3.569782639613384
 20
6.927549871195218
  0
LWPOLYLINE
  5
2E62
330
17
100
AcDbEntity
  8
OBJECT
100
AcDbPolyline
 90
        6
 70
     1
 43
0.0
 10
4.361782639613386
 20
6.836097588555582
 10
4.440982639613386
 20
6.790371447235763
 10
4.520182639613386
 20
6.836097588555582
 10
4.520182639613386
 20
6.927549871195218
 10
4.440982639613386
 20
6.973276012515038
 10
4.361782639613386
 20
6.927549871195218
  0
LWPOLYLINE
  5
2E6A
330
17
100
AcDbEntity
  8
OBJECT
100
AcDbPolyline
 90
        6
 70
     1
 43
0.0
 10
4.440982639613382
 20
6.698919164596126
 10
4.520182639613384
 20
6.653193023276307
 10
4.599382639613384
 20
6.698919164596126
 10
4.599382639613384
 20
6.790371447235763
 10
4.520182639613384
 20
6.836097588555582
 10
4.440982639613382
 20
6.790371447235763
  0
LWPOLYLINE
  5
2E72
330
17
100
AcDbEntity
  8
OBJECT
100
AcDbPolyline
 90
        6
 70
     1
 43
0.0
 10
4.124182639613387
 20
6.698919164596125
 10
4.203382639613385
 20
6.653193023276307
 10
4.282582639613385
 20
6.698919164596125
 10
4.282582639613385
 20
6.790371447235762
 10
4.203382639613385
 20
6.83609758855558
 10
4.124182639613387
 20
6.790371447235762
  0
LWPOLYLINE
  5
2E7A
330
17
100
AcDbEntity
  8
OBJECT
100
AcDbPolyline
 90
        6
 70
     1
 43
0.0
 10
3.965782639613387
 20
6.698919164596125
 10
4.044982639613385
 20
6.653193023276307
 10
4.124182639613389
 20
6.698919164596125
 10
4.124182639613389
 20
6.790371447235762
 10
4.044982639613385
 20
6.83609758855558
 10
3.965782639613387
 20
6.790371447235762
  0
LWPOLYLINE
  5
2E82
330
17
100
AcDbEntity
  8
OBJECT
100
AcDbPolyline
 90
        6
 70
     1
 43
0.0
 10
4.282582639613384
 20
6.698919164596125
 10
4.361782639613386
 20
6.653193023276307
 10
4.440982639613386
 20
6.698919164596125
 10
4.440982639613386
 20
6.790371447235762
 10
4.361782639613386
 20
6.83609758855558
 10
4.282582639613384
 20
6.790371447235762
  0
LWPOLYLINE
  5
2E8A
330
17
100
AcDbEntity
  8
OBJECT
100
AcDbPolyline
 90
        6
 70
     1
 43
0.0
 10
4.044982639613387
 20
6.836097588555582
 10
4.124182639613387
 20
6.790371447235763
 10
4.203382639613389
 20
6.836097588555582
 10
4.203382639613389
 20
6.927549871195218
 10
4.124182639613387
 20
6.973276012515038
 10
4.044982639613387
 20
6.927549871195218
  0
LWPOLYLINE
  5
2E92
330
17
100
AcDbEntity
  8
OBJECT
100
AcDbPolyline
 90
        6
 70
     1
 43
0.0
 10
3.886582639613385
 20
6.836097588555582
 10
3.965782639613387
 20
6.790371447235763
 10
4.044982639613387
 20
6.836097588555582
 10
4.044982639613387
 20
6.927549871195218
 10
3.965782639613387
 20
6.973276012515038
 10
3.886582639613385
 20
6.927549871195218
  0
LWPOLYLINE
  5
2E9A
330
17
100
AcDbEntity
  8
OBJECT
100
AcDbPolyline
 90
        6
 70
     1
 43
0.0
 10
4.203382639613385
 20
6.836097588555582
 10
4.282582639613385
 20
6.790371447235763
 10
4.361782639613387
 20
6.836097588555582
 10
4.361782639613387
 20
6.927549871195218
 10
4.282582639613385
 20
6.973276012515038
 10
4.203382639613385
 20
6.927549871195218
  0
LWPOLYLINE
  5
2EA2
330
17
100
AcDbEntity
  8
OBJECT
100
AcDbPolyline
 90
        6
 70
     1
 43
0.0
 10
3.728182639613384
 20
6.561740740636668
 10
3.807382639613386
 20
6.516014599316849
 10
3.886582639613386
 20
6.561740740636668
 10
3.886582639613386
 20
6.653193023276305
 10
3.807382639613386
 20
6.698919164596124
 10
3.728182639613384
 20
6.653193023276305
  0
LWPOLYLINE
  5
2EAA
330
17
100
AcDbEntity
  8
OBJECT
100
AcDbPolyline
 90
        6
 70
     1
 43
0.0
 10
3.807382639613384
 20
6.424562316677211
 10
3.886582639613383
 20
6.378836175357393
 10
3.965782639613385
 20
6.424562316677211
 10
3.965782639613385
 20
6.516014599316848
 10
3.886582639613383
 20
6.561740740636667
 10
3.807382639613384
 20
6.516014599316848
  0
LWPOLYLINE
  5
2EB2
330
17
100
AcDbEntity
  8
OBJECT
100
AcDbPolyline
 90
        6
 70
     1
 43
0.0
 10
3.094582639613385
 20
6.561740740636668
 10
3.173782639613385
 20
6.516014599316849
 10
3.252982639613387
 20
6.561740740636668
 10
3.252982639613387
 20
6.653193023276305
 10
3.173782639613385
 20
6.698919164596124
 10
3.094582639613385
 20
6.653193023276305
  0
LWPOLYLINE
  5
2EBA
330
17
100
AcDbEntity
  8
OBJECT
100
AcDbPolyline
 90
        6
 70
     1
 43
0.0
 10
3.015382639613383
 20
6.424562316677211
 10
3.094582639613385
 20
6.378836175357393
 10
3.173782639613385
 20
6.424562316677211
 10
3.173782639613385
 20
6.516014599316848
 10
3.094582639613385
 20
6.561740740636667
 10
3.015382639613383
 20
6.516014599316848
  0
LWPOLYLINE
  5
2EC2
330
17
100
AcDbEntity
  8
OBJECT
100
AcDbPolyline
 90
        6
 70
     1
 43
0.0
 10
2.856982639613383
 20
6.424562316677211
 10
2.936182639613383
 20
6.378836175357393
 10
3.015382639613383
 20
6.424562316677211
 10
3.015382639613383
 20
6.516014599316848
 10
2.936182639613383
 20
6.561740740636667
 10
2.856982639613383
 20
6.516014599316848
  0
LWPOLYLINE
  5
2ECA
330
17
100
AcDbEntity
  8
OBJECT
100
AcDbPolyline
 90
        6
 70
     1
 43
0.0
 10
2.693920361035081
 20
6.427254084469431
 10
2.773120361035083
 20
6.381527943149613
 10
2.852320361035083
 20
6.427254084469431
 10
2.852320361035083
 20
6.518706367109069
 10
2.773120361035083
 20
6.564432508428887
 10
2.693920361035081
 20
6.518706367109069
  0
LWPOLYLINE
  5
2ED2
330
17
100
AcDbEntity
  8
OBJECT
100
AcDbPolyline
 90
        6
 70
     1
 43
0.0
 10
2.777782639613384
 20
6.561740740636668
 10
2.856982639613384
 20
6.516014599316849
 10
2.936182639613386
 20
6.561740740636668
 10
2.936182639613386
 20
6.653193023276305
 10
2.856982639613384
 20
6.698919164596124
 10
2.777782639613384
 20
6.653193023276305
  0
LWPOLYLINE
  5
2EDA
330
17
100
AcDbEntity
  8
OBJECT
100
AcDbPolyline
 90
        6
 70
     1
 43
0.0
 10
2.936182639613383
 20
6.561740740636668
 10
3.015382639613383
 20
6.516014599316849
 10
3.094582639613385
 20
6.561740740636668
 10
3.094582639613385
 20
6.653193023276305
 10
3.015382639613383
 20
6.698919164596124
 10
2.936182639613383
 20
6.653193023276305
  0
LWPOLYLINE
  5
2EE2
330
17
100
AcDbEntity
  8
OBJECT
100
AcDbPolyline
 90
        6
 70
     1
 43
0.0
 10
3.332182639613384
 20
6.424562316677211
 10
3.411382639613384
 20
6.378836175357393
 10
3.490582639613386
 20
6.424562316677211
 10
3.490582639613386
 20
6.516014599316848
 10
3.411382639613384
 20
6.561740740636667
 10
3.332182639613384
 20
6.516014599316848
  0
LWPOLYLINE
  5
2EEA
330
17
100
AcDbEntity
  8
OBJECT
100
AcDbPolyline
 90
        6
 70
     1
 43
0.0
 10
3.173782639613383
 20
6.424562316677211
 10
3.252982639613382
 20
6.378836175357393
 10
3.332182639613384
 20
6.424562316677211
 10
3.332182639613384
 20
6.516014599316848
 10
3.252982639613382
 20
6.561740740636667
 10
3.173782639613383
 20
6.516014599316848
  0
LWPOLYLINE
  5
2EF2
330
17
100
AcDbEntity
  8
OBJECT
100
AcDbPolyline
 90
        6
 70
     1
 43
0.0
 10
3.648982639613384
 20
6.424562316677211
 10
3.728182639613384
 20
6.378836175357393
 10
3.807382639613386
 20
6.424562316677211
 10
3.807382639613386
 20
6.516014599316848
 10
3.728182639613384
 20
6.561740740636667
 10
3.648982639613384
 20
6.516014599316848
  0
LWPOLYLINE
  5
2EFA
330
17
100
AcDbEntity
  8
OBJECT
100
AcDbPolyline
 90
        6
 70
     1
 43
0.0
 10
3.490582639613384
 20
6.424562316677211
 10
3.569782639613382
 20
6.378836175357393
 10
3.648982639613384
 20
6.424562316677211
 10
3.648982639613384
 20
6.516014599316848
 10
3.569782639613382
 20
6.561740740636667
 10
3.490582639613384
 20
6.516014599316848
  0
LWPOLYLINE
  5
2F02
330
17
100
AcDbEntity
  8
OBJECT
100
AcDbPolyline
 90
        6
 70
     1
 43
0.0
 10
3.411382639613384
 20
6.561740740636668
 10
3.490582639613386
 20
6.516014599316849
 10
3.569782639613386
 20
6.561740740636668
 10
3.569782639613386
 20
6.653193023276305
 10
3.490582639613386
 20
6.698919164596124
 10
3.411382639613384
 20
6.653193023276305
  0
LWPOLYLINE
  5
2F0A
330
17
100
AcDbEntity
  8
OBJECT
100
AcDbPolyline
 90
        6
 70
     1
 43
0.0
 10
3.252982639613382
 20
6.561740740636668
 10
3.332182639613384
 20
6.516014599316849
 10
3.411382639613384
 20
6.561740740636668
 10
3.411382639613384
 20
6.653193023276305
 10
3.332182639613384
 20
6.698919164596124
 10
3.252982639613382
 20
6.653193023276305
  0
LWPOLYLINE
  5
2F12
330
17
100
AcDbEntity
  8
OBJECT
100
AcDbPolyline
 90
        6
 70
     1
 43
0.0
 10
3.569782639613382
 20
6.561740740636668
 10
3.648982639613384
 20
6.516014599316849
 10
3.728182639613384
 20
6.561740740636668
 10
3.728182639613384
 20
6.653193023276305
 10
3.648982639613384
 20
6.698919164596124
 10
3.569782639613382
 20
6.653193023276305
  0
LWPOLYLINE
  5
2F1A
330
17
100
AcDbEntity
  8
OBJECT
100
AcDbPolyline
 90
        6
 70
     1
 43
0.0
 10
4.361782639613384
 20
6.561740740636668
 10
4.440982639613384
 20
6.516014599316849
 10
4.520182639613384
 20
6.561740740636668
 10
4.520182639613384
 20
6.653193023276305
 10
4.440982639613384
 20
6.698919164596124
 10
4.361782639613384
 20
6.653193023276305
  0
LWPOLYLINE
  5
2F22
330
17
100
AcDbEntity
  8
OBJECT
100
AcDbPolyline
 90
        6
 70
     1
 43
0.0
 10
4.44098263961338
 20
6.424562316677212
 10
4.520182639613382
 20
6.378836175357394
 10
4.599382639613383
 20
6.424562316677212
 10
4.599382639613383
 20
6.516014599316849
 10
4.520182639613382
 20
6.561740740636668
 10
4.44098263961338
 20
6.516014599316849
  0
LWPOLYLINE
  5
2F2A
330
17
100
AcDbEntity
  8
OBJECT
100
AcDbPolyline
 90
        6
 70
     1
 43
0.0
 10
4.124182639613385
 20
6.424562316677211
 10
4.203382639613383
 20
6.378836175357393
 10
4.282582639613384
 20
6.424562316677211
 10
4.282582639613384
 20
6.516014599316848
 10
4.203382639613383
 20
6.561740740636667
 10
4.124182639613385
 20
6.516014599316848
  0
LWPOLYLINE
  5
2F32
330
17
100
AcDbEntity
  8
OBJECT
100
AcDbPolyline
 90
        6
 70
     1
 43
0.0
 10
3.965782639613385
 20
6.424562316677211
 10
4.044982639613383
 20
6.378836175357393
 10
4.124182639613387
 20
6.424562316677211
 10
4.124182639613387
 20
6.516014599316848
 10
4.044982639613383
 20
6.561740740636667
 10
3.965782639613385
 20
6.516014599316848
  0
LWPOLYLINE
  5
2F3A
330
17
100
AcDbEntity
  8
OBJECT
100
AcDbPolyline
 90
        6
 70
     1
 43
0.0
 10
4.282582639613382
 20
6.424562316677211
 10
4.361782639613384
 20
6.378836175357393
 10
4.440982639613384
 20
6.424562316677211
 10
4.440982639613384
 20
6.516014599316848
 10
4.361782639613384
 20
6.561740740636667
 10
4.282582639613382
 20
6.516014599316848
  0
LWPOLYLINE
  5
2F42
330
17
100
AcDbEntity
  8
OBJECT
100
AcDbPolyline
 90
        6
 70
     1
 43
0.0
 10
4.044982639613385
 20
6.561740740636668
 10
4.124182639613385
 20
6.516014599316849
 10
4.203382639613387
 20
6.561740740636668
 10
4.203382639613387
 20
6.653193023276305
 10
4.124182639613385
 20
6.698919164596124
 10
4.044982639613385
 20
6.653193023276305
  0
LWPOLYLINE
  5
2F4A
330
17
100
AcDbEntity
  8
OBJECT
100
AcDbPolyline
 90
        6
 70
     1
 43
0.0
 10
3.886582639613383
 20
6.561740740636668
 10
3.965782639613385
 20
6.516014599316849
 10
4.044982639613385
 20
6.561740740636668
 10
4.044982639613385
 20
6.653193023276305
 10
3.965782639613385
 20
6.698919164596124
 10
3.886582639613383
 20
6.653193023276305
  0
LWPOLYLINE
  5
2F52
330
17
100
AcDbEntity
  8
OBJECT
100
AcDbPolyline
 90
        6
 70
     1
 43
0.0
 10
4.203382639613383
 20
6.561740740636668
 10
4.282582639613384
 20
6.516014599316849
 10
4.361782639613386
 20
6.561740740636668
 10
4.361782639613386
 20
6.653193023276305
 10
4.282582639613384
 20
6.698919164596124
 10
4.203382639613383
 20
6.653193023276305
  0
LWPOLYLINE
  5
2F5A
330
17
100
AcDbEntity
  8
OBJECT
100
AcDbPolyline
 90
        6
 70
     1
 43
0.0
 10
3.728182639613384
 20
6.287383892717754
 10
3.807382639613386
 20
6.241657751397935
 10
3.886582639613386
 20
6.287383892717754
 10
3.886582639613386
 20
6.378836175357391
 10
3.807382639613386
 20
6.42456231667721
 10
3.728182639613384
 20
6.378836175357391
  0
LWPOLYLINE
  5
2F62
330
17
100
AcDbEntity
  8
OBJECT
100
AcDbPolyline
 90
        6
 70
     1
 43
0.0
 10
3.094582639613385
 20
6.287383892717754
 10
3.173782639613385
 20
6.241657751397935
 10
3.252982639613387
 20
6.287383892717754
 10
3.252982639613387
 20
6.378836175357391
 10
3.173782639613385
 20
6.42456231667721
 10
3.094582639613385
 20
6.378836175357391
  0
LWPOLYLINE
  5
2F6A
330
17
100
AcDbEntity
  8
OBJECT
100
AcDbPolyline
 90
        6
 70
     1
 43
0.0
 10
2.777782639613384
 20
6.287383892717754
 10
2.856982639613384
 20
6.241657751397935
 10
2.936182639613386
 20
6.287383892717754
 10
2.936182639613386
 20
6.378836175357391
 10
2.856982639613384
 20
6.42456231667721
 10
2.777782639613384
 20
6.378836175357391
  0
LWPOLYLINE
  5
2F72
330
17
100
AcDbEntity
  8
OBJECT
100
AcDbPolyline
 90
        6
 70
     1
 43
0.0
 10
2.936182639613383
 20
6.287383892717754
 10
3.015382639613383
 20
6.241657751397935
 10
3.094582639613385
 20
6.287383892717754
 10
3.094582639613385
 20
6.378836175357391
 10
3.015382639613383
 20
6.42456231667721
 10
2.936182639613383
 20
6.378836175357391
  0
LWPOLYLINE
  5
2F7A
330
17
100
AcDbEntity
  8
OBJECT
100
AcDbPolyline
 90
        6
 70
     1
 43
0.0
 10
3.411382639613384
 20
6.287383892717754
 10
3.490582639613386
 20
6.241657751397935
 10
3.569782639613386
 20
6.287383892717754
 10
3.569782639613386
 20
6.378836175357391
 10
3.490582639613386
 20
6.42456231667721
 10
3.411382639613384
 20
6.378836175357391
  0
LWPOLYLINE
  5
2F82
330
17
100
AcDbEntity
  8
OBJECT
100
AcDbPolyline
 90
        6
 70
     1
 43
0.0
 10
3.252982639613382
 20
6.287383892717754
 10
3.332182639613384
 20
6.241657751397935
 10
3.411382639613384
 20
6.287383892717754
 10
3.411382639613384
 20
6.378836175357391
 10
3.332182639613384
 20
6.42456231667721
 10
3.252982639613382
 20
6.378836175357391
  0
LWPOLYLINE
  5
2F8A
330
17
100
AcDbEntity
  8
OBJECT
100
AcDbPolyline
 90
        6
 70
     1
 43
0.0
 10
3.569782639613382
 20
6.287383892717754
 10
3.648982639613384
 20
6.241657751397935
 10
3.728182639613384
 20
6.287383892717754
 10
3.728182639613384
 20
6.378836175357391
 10
3.648982639613384
 20
6.42456231667721
 10
3.569782639613382
 20
6.378836175357391
  0
LWPOLYLINE
  5
2F92
330
17
100
AcDbEntity
  8
OBJECT
100
AcDbPolyline
 90
        6
 70
     1
 43
0.0
 10
4.361782639613384
 20
6.287383892717754
 10
4.440982639613384
 20
6.241657751397935
 10
4.520182639613384
 20
6.287383892717754
 10
4.520182639613384
 20
6.378836175357391
 10
4.440982639613384
 20
6.42456231667721
 10
4.361782639613384
 20
6.378836175357391
  0
LWPOLYLINE
  5
2F9A
330
17
100
AcDbEntity
  8
OBJECT
100
AcDbPolyline
 90
        6
 70
     1
 43
0.0
 10
4.044982639613385
 20
6.287383892717754
 10
4.124182639613385
 20
6.241657751397935
 10
4.203382639613387
 20
6.287383892717754
 10
4.203382639613387
 20
6.378836175357391
 10
4.124182639613385
 20
6.42456231667721
 10
4.044982639613385
 20
6.378836175357391
  0
LWPOLYLINE
  5
2FA2
330
17
100
AcDbEntity
  8
OBJECT
100
AcDbPolyline
 90
        6
 70
     1
 43
0.0
 10
3.886582639613383
 20
6.287383892717754
 10
3.965782639613385
 20
6.241657751397935
 10
4.044982639613385
 20
6.287383892717754
 10
4.044982639613385
 20
6.378836175357391
 10
3.965782639613385
 20
6.42456231667721
 10
3.886582639613383
 20
6.378836175357391
  0
LWPOLYLINE
  5
2FAA
330
17
100
AcDbEntity
  8
OBJECT
100
AcDbPolyline
 90
        6
 70
     1
 43
0.0
 10
4.203382639613383
 20
6.287383892717754
 10
4.282582639613384
 20
6.241657751397935
 10
4.361782639613386
 20
6.287383892717754
 10
4.361782639613386
 20
6.378836175357391
 10
4.282582639613384
 20
6.42456231667721
 10
4.203382639613383
 20
6.378836175357391
  0
LWPOLYLINE
  5
2FB2
330
17
100
AcDbEntity
  8
OBJECT
100
AcDbPolyline
 90
        6
 70
     1
 43
0.0
 10
3.728182639613383
 20
6.10447932743848
 10
3.807382639613384
 20
6.150205468758298
 10
3.886582639613383
 20
6.10447932743848
 10
3.886582639613383
 20
6.013027044798842
 10
3.807382639613384
 20
5.967300903479024
 10
3.728182639613383
 20
6.013027044798842
  0
LWPOLYLINE
  5
2FBA
330
17
100
AcDbEntity
  8
OBJECT
100
AcDbPolyline
 90
        6
 70
     1
 43
0.0
 10
3.807382639613384
 20
6.241657751397935
 10
3.886582639613383
 20
6.287383892717754
 10
3.965782639613385
 20
6.241657751397935
 10
3.965782639613385
 20
6.150205468758298
 10
3.886582639613383
 20
6.10447932743848
 10
3.807382639613384
 20
6.150205468758298
  0
LWPOLYLINE
  5
2FC2
330
17
100
AcDbEntity
  8
OBJECT
100
AcDbPolyline
 90
        6
 70
     1
 43
0.0
 10
3.569782639613382
 20
6.10447932743848
 10
3.648982639613384
 20
6.150205468758298
 10
3.728182639613384
 20
6.10447932743848
 10
3.728182639613384
 20
6.013027044798842
 10
3.648982639613384
 20
5.967300903479024
 10
3.569782639613382
 20
6.013027044798842
  0
LWPOLYLINE
  5
2FCA
330
17
100
AcDbEntity
  8
OBJECT
100
AcDbPolyline
 90
        6
 70
     1
 43
0.0
 10
3.252982639613382
 20
6.10447932743848
 10
3.332182639613384
 20
6.150205468758298
 10
3.411382639613384
 20
6.10447932743848
 10
3.411382639613384
 20
6.013027044798842
 10
3.332182639613384
 20
5.967300903479024
 10
3.252982639613382
 20
6.013027044798842
  0
LWPOLYLINE
  5
2FD2
330
17
100
AcDbEntity
  8
OBJECT
100
AcDbPolyline
 90
        6
 70
     1
 43
0.0
 10
3.411382639613382
 20
6.10447932743848
 10
3.490582639613384
 20
6.150205468758298
 10
3.569782639613382
 20
6.10447932743848
 10
3.569782639613382
 20
6.013027044798842
 10
3.490582639613384
 20
5.967300903479024
 10
3.411382639613382
 20
6.013027044798842
  0
LWPOLYLINE
  5
2FDA
330
17
100
AcDbEntity
  8
OBJECT
100
AcDbPolyline
 90
        6
 70
     1
 43
0.0
 10
3.015382639613383
 20
6.241657751397935
 10
3.094582639613385
 20
6.287383892717754
 10
3.173782639613385
 20
6.241657751397935
 10
3.173782639613385
 20
6.150205468758298
 10
3.094582639613385
 20
6.10447932743848
 10
3.015382639613383
 20
6.150205468758298
  0
LWPOLYLINE
  5
2FE2
330
17
100
AcDbEntity
  8
OBJECT
100
AcDbPolyline
 90
        6
 70
     1
 43
0.0
 10
3.490582639613384
 20
6.241657751397935
 10
3.569782639613382
 20
6.287383892717754
 10
3.648982639613384
 20
6.241657751397935
 10
3.648982639613384
 20
6.150205468758298
 10
3.569782639613382
 20
6.10447932743848
 10
3.490582639613384
 20
6.150205468758298
  0
LWPOLYLINE
  5
2FEA
330
17
100
AcDbEntity
  8
OBJECT
100
AcDbPolyline
 90
        6
 70
     1
 43
0.0
 10
3.173782639613383
 20
6.241657751397935
 10
3.252982639613382
 20
6.287383892717754
 10
3.332182639613384
 20
6.241657751397935
 10
3.332182639613384
 20
6.150205468758298
 10
3.252982639613382
 20
6.10447932743848
 10
3.173782639613383
 20
6.150205468758298
  0
LWPOLYLINE
  5
2FF2
330
17
100
AcDbEntity
  8
OBJECT
100
AcDbPolyline
 90
        6
 70
     1
 43
0.0
 10
3.332182639613384
 20
6.241657751397935
 10
3.411382639613384
 20
6.287383892717754
 10
3.490582639613386
 20
6.241657751397935
 10
3.490582639613386
 20
6.150205468758298
 10
3.411382639613384
 20
6.10447932743848
 10
3.332182639613384
 20
6.150205468758298
  0
LWPOLYLINE
  5
2FFA
330
17
100
AcDbEntity
  8
OBJECT
100
AcDbPolyline
 90
        6
 70
     1
 43
0.0
 10
3.648982639613384
 20
6.241657751397935
 10
3.728182639613384
 20
6.287383892717754
 10
3.807382639613386
 20
6.241657751397935
 10
3.807382639613386
 20
6.150205468758298
 10
3.728182639613384
 20
6.10447932743848
 10
3.648982639613384
 20
6.150205468758298
  0
LWPOLYLINE
  5
3002
330
17
100
AcDbEntity
  8
OBJECT
100
AcDbPolyline
 90
        6
 70
     1
 43
0.0
 10
3.488788524092834
 20
5.964875352770004
 10
3.567988524092834
 20
6.010601494089822
 10
3.647188524092834
 20
5.964875352770004
 10
3.647188524092834
 20
5.873423070130367
 10
3.567988524092834
 20
5.827696928810548
 10
3.488788524092834
 20
5.873423070130367
  0
LWPOLYLINE
  5
300A
330
17
100
AcDbEntity
  8
OBJECT
100
AcDbPolyline
 90
        6
 70
     1
 43
0.0
 10
3.650425310126827
 20
5.964875352770004
 10
3.729625310126829
 20
6.010601494089822
 10
3.808825310126829
 20
5.964875352770004
 10
3.808825310126829
 20
5.873423070130367
 10
3.729625310126829
 20
5.827696928810548
 10
3.650425310126827
 20
5.873423070130367
  0
LWPOLYLINE
  5
3012
330
17
100
AcDbEntity
  8
OBJECT
100
AcDbPolyline
 90
        6
 70
     1
 43
0.0
 10
3.886582639613383
 20
6.10447932743848
 10
3.965782639613385
 20
6.150205468758298
 10
4.044982639613385
 20
6.10447932743848
 10
4.044982639613385
 20
6.013027044798842
 10
3.965782639613385
 20
5.967300903479024
 10
3.886582639613383
 20
6.013027044798842
  0
LWPOLYLINE
  5
301A
330
17
100
AcDbEntity
  8
OBJECT
100
AcDbPolyline
 90
        6
 70
     1
 43
0.0
 10
4.124182639613385
 20
6.241657751397935
 10
4.203382639613383
 20
6.287383892717754
 10
4.282582639613384
 20
6.241657751397935
 10
4.282582639613384
 20
6.150205468758298
 10
4.203382639613383
 20
6.10447932743848
 10
4.124182639613385
 20
6.150205468758298
  0
LWPOLYLINE
  5
3022
330
17
100
AcDbEntity
  8
OBJECT
100
AcDbPolyline
 90
        6
 70
     1
 43
0.0
 10
3.965782639613385
 20
6.241657751397935
 10
4.044982639613385
 20
6.287383892717754
 10
4.124182639613387
 20
6.241657751397935
 10
4.124182639613387
 20
6.150205468758298
 10
4.044982639613385
 20
6.10447932743848
 10
3.965782639613385
 20
6.150205468758298
  0
LINE
  5
302A
330
17
100
AcDbEntity
  8
DIM
100
AcDbLine
 10
2.099006455128858
 20
6.873285340794785
 30
0.0
 11
2.279006455128858
 21
6.873285340794785
 31
0.0
  0
LINE
  5
302B
330
17
100
AcDbEntity
  8
DIM
100
AcDbLine
 10
2.189006455128858
 20
6.783285340794785
 30
0.0
 11
2.189006455128858
 21
6.963285340794785
 31
0.0
  0
LINE
  5
302C
330
17
100
AcDbEntity
  8
DIM
100
AcDbLine
 10
5.009006455128862
 20
6.873285340794783
 30
0.0
 11
5.189006455128861
 21
6.873285340794783
 31
0.0
  0
LINE
  5
302D
330
17
100
AcDbEntity
  8
DIM
100
AcDbLine
 10
5.099006455128861
 20
6.783285340794783
 30
0.0
 11
5.099006455128861
 21
6.963285340794783
 31
0.0
  0
LINE
  5
302E
330
17
100
AcDbEntity
  8
DIM
100
AcDbLine
 10
2.419006455128862
 20
6.783285340794783
 30
0.0
 11
2.419006455128862
 21
4.990026845058822
 31
0.0
  0
LINE
  5
302F
330
17
100
AcDbEntity
  8
DIM
100
AcDbLine
 10
4.869006455128861
 20
6.783285340794783
 30
0.0
 11
4.869006455128861
 21
4.990026845058822
 31
0.0
  0
LINE
  5
3030
330
17
100
AcDbEntity
  8
DIM
100
AcDbLine
 10
2.544006455128862
 20
5.110026845058822
 30
0.0
 11
3.325435026557433
 21
5.110026845058822
 31
0.0
  0
LINE
  5
3031
330
17
100
AcDbEntity
  8
DIM
100
AcDbLine
 10
4.744006455128861
 20
5.110026845058822
 30
0.0
 11
3.962577883700291
 21
5.110026845058822
 31
0.0
  0
SOLID
  5
3032
330
17
100
AcDbEntity
  8
DIM
100
AcDbTrace
 10
2.544006455128862
 20
5.130860178392155
 30
0.0
 11
2.544006455128862
 21
5.089193511725489
 31
0.0
 12
2.419006455128862
 22
5.110026845058822
 32
0.0
 13
2.419006455128862
 23
5.110026845058822
 33
0.0
  0
SOLID
  5
3033
330
17
100
AcDbEntity
  8
DIM
100
AcDbTrace
 10
4.744006455128861
 20
5.130860178392155
 30
0.0
 11
4.744006455128861
 21
5.089193511725489
 31
0.0
 12
4.869006455128861
 22
5.110026845058822
 32
0.0
 13
4.869006455128861
 23
5.110026845058822
 33
0.0
  0
TEXT
  5
3034
330
17
100
AcDbEntity
  8
DIM
 62
     7
100
AcDbText
 10
3.394006455128861
 20
5.035026845058822
 30
0.0
 40
0.15
  1
2.48
  7
ROMANS
 72
     1
 11
3.644006455128861
 21
5.110026845058822
 31
0.0
100
AcDbText
 73
     2
  0
TEXT
  5
3035
330
17
100
AcDbEntity
  8
DIM
 62
     7
100
AcDbText
 10
3.411298489366203
 20
4.753646190214981
 30
0.0
 40
0.15
  1
[63]
  7
ROMANS
100
AcDbText
  0
LINE
  5
3036
330
17
100
AcDbEntity
  8
DIM
100
AcDbLine
 10
2.189006455128858
 20
6.693285340794785
 30
0.0
 11
2.189006455128858
 21
4.178904347072588
 31
0.0
  0
LINE
  5
3037
330
17
100
AcDbEntity
  8
DIM
100
AcDbLine
 10
5.099006455128861
 20
6.693285340794783
 30
0.0
 11
5.099006455128861
 21
4.178904347072588
 31
0.0
  0
LINE
  5
3038
330
17
100
AcDbEntity
  8
DIM
100
AcDbLine
 10
2.314006455128858
 20
4.298904347072588
 30
0.0
 11
3.346863597986002
 21
4.298904347072588
 31
0.0
  0
LINE
  5
3039
330
17
100
AcDbEntity
  8
DIM
100
AcDbLine
 10
4.974006455128861
 20
4.298904347072588
 30
0.0
 11
3.941149312271717
 21
4.298904347072588
 31
0.0
  0
SOLID
  5
303A
330
17
100
AcDbEntity
  8
DIM
100
AcDbTrace
 10
2.314006455128858
 20
4.319737680405921
 30
0.0
 11
2.314006455128858
 21
4.278071013739255
 31
0.0
 12
2.189006455128858
 22
4.298904347072588
 32
0.0
 13
2.189006455128858
 23
4.298904347072588
 33
0.0
  0
SOLID
  5
303B
330
17
100
AcDbEntity
  8
DIM
100
AcDbTrace
 10
4.974006455128861
 20
4.319737680405921
 30
0.0
 11
4.974006455128861
 21
4.278071013739255
 31
0.0
 12
5.099006455128861
 22
4.298904347072588
 32
0.0
 13
5.099006455128861
 23
4.298904347072588
 33
0.0
  0
TEXT
  5
303C
330
17
100
AcDbEntity
  8
DIM
 62
     7
100
AcDbText
 10
3.415435026557431
 20
4.223904347072588
 30
0.0
 40
0.15
  1
2.91
  7
ROMANS
 72
     1
 11
3.64400645512886
 21
4.298904347072588
 31
0.0
100
AcDbText
 73
     2
  0
LINE
  5
303D
330
17
100
AcDbEntity
  8
DIM
100
AcDbLine
 10
1.95400645512886
 20
6.783285340794783
 30
0.0
 11
1.95400645512886
 21
3.472442813807592
 31
0.0
  0
LINE
  5
303E
330
17
100
AcDbEntity
  8
DIM
100
AcDbLine
 10
5.334006455128861
 20
6.783285340794783
 30
0.0
 11
5.334006455128861
 21
3.472442813807592
 31
0.0
  0
LINE
  5
303F
330
17
100
AcDbEntity
  8
DIM
100
AcDbLine
 10
2.07900645512886
 20
3.592442813807592
 30
0.0
 11
3.325435026557432
 21
3.592442813807592
 31
0.0
  0
LINE
  5
3040
330
17
100
AcDbEntity
  8
DIM
100
AcDbLine
 10
5.209006455128861
 20
3.592442813807592
 30
0.0
 11
3.962577883700289
 21
3.592442813807592
 31
0.0
  0
SOLID
  5
3041
330
17
100
AcDbEntity
  8
DIM
100
AcDbTrace
 10
2.07900645512886
 20
3.613276147140926
 30
0.0
 11
2.07900645512886
 21
3.571609480474259
 31
0.0
 12
1.95400645512886
 22
3.592442813807592
 32
0.0
 13
1.95400645512886
 23
3.592442813807592
 33
0.0
  0
SOLID
  5
3042
330
17
100
AcDbEntity
  8
DIM
100
AcDbTrace
 10
5.209006455128861
 20
3.613276147140926
 30
0.0
 11
5.209006455128861
 21
3.571609480474259
 31
0.0
 12
5.334006455128861
 22
3.592442813807592
 32
0.0
 13
5.334006455128861
 23
3.592442813807592
 33
0.0
  0
TEXT
  5
3043
330
17
100
AcDbEntity
  8
DIM
 62
     7
100
AcDbText
 10
3.39400645512886
 20
3.517442813807591
 30
0.0
 40
0.15
  1
3.38
  7
ROMANS
 72
     1
 11
3.64400645512886
 21
3.592442813807592
 31
0.0
100
AcDbText
 73
     2
  0
TEXT
  5
3044
330
17
100
AcDbEntity
  8
DIM
 62
     7
100
AcDbText
 10
3.411298489366203
 20
3.942523663699883
 30
0.0
 40
0.15
  1
[74]
  7
ROMANS
100
AcDbText
  0
TEXT
  5
3045
330
17
100
AcDbEntity
  8
DIM
 62
     7
100
AcDbText
 10
3.411298489366203
 20
3.249144754591149
 30
0.0
 40
0.15
  1
[86]
  7
ROMANS
100
AcDbText
  0
SOLID
  5
3046
330
17
100
AcDbEntity
  8
DIM
100
AcDbTrace
 10
5.245007626269881
 20
7.034927720032651
 30
0.0
 11
5.210103687017369
 21
7.057683513487681
 31
0.0
 12
5.15928827627853
 22
6.94159379900263
 32
0.0
 13
5.15928827627853
 23
6.94159379900263
 33
0.0
  0
LINE
  5
3047
330
17
100
AcDbEntity
  8
DIM
100
AcDbLine
 10
5.227555656643627
 20
7.046305616760166
 30
0.0
 11
5.722220667988118
 21
7.805046793613914
 31
0.0
  0
LINE
  5
3048
330
17
100
AcDbEntity
  8
DIM
100
AcDbLine
 10
5.722220667988118
 20
7.805046793613914
 30
0.0
 11
5.879318052933694
 21
7.805046793613911
 31
0.0
  0
TEXT
  5
3049
330
17
100
AcDbEntity
  8
DIM
 62
     7
100
AcDbText
 10
5.969318052933692
 20
7.730046793613911
 30
0.0
 40
0.15
  1
.169 DIA
 50
359.9999999999984
  7
ROMANS
 11
5.969318052933694
 21
7.805046793613911
 31
0.0
100
AcDbText
 73
     2
  0
TEXT
  5
304A
330
17
100
AcDbEntity
  8
DIM
 62
     7
100
AcDbText
 10
6.206604347434305
 20
7.464898651137675
 30
0.0
 40
0.15
  1
[%%C4.3]
  7
ROMANS
100
AcDbText
  0
LINE
  5
304B
330
17
100
AcDbEntity
  8
OBJECT
100
AcDbLine
 10
8.850433024438498
 20
8.098285340794783
 30
0.0
 11
9.204433024438497
 21
8.098285340794783
 31
0.0
  0
LINE
  5
304C
330
17
100
AcDbEntity
  8
OBJECT
100
AcDbLine
 10
9.204433024438497
 20
8.098285340794783
 30
0.0
 11
9.204433024438497
 21
5.648285340794783
 31
0.0
  0
LINE
  5
304D
330
17
100
AcDbEntity
  8
OBJECT
100
AcDbLine
 10
9.204433024438497
 20
5.648285340794783
 30
0.0
 11
8.850433024438498
 21
5.648285340794783
 31
0.0
  0
LINE
  5
304E
330
17
100
AcDbEntity
  8
OBJECT
100
AcDbLine
 10
8.850433024438498
 20
5.648285340794783
 30
0.0
 11
8.850433024438498
 21
8.098285340794783
 31
0.0
  0
LINE
  5
304F
330
17
100
AcDbEntity
  8
OBJECT
100
AcDbLine
 10
9.204433024438497
 20
6.494725538392336
 30
0.0
 11
9.027433024438497
 21
6.494725538392336
 31
0.0
  0
LINE
  5
3050
330
17
100
AcDbEntity
  8
OBJECT
100
AcDbLine
 10
9.027433024438497
 20
6.494725538392336
 30
0.0
 11
9.027433024438497
 21
7.295646681930847
 31
0.0
  0
LINE
  5
3051
330
17
100
AcDbEntity
  8
OBJECT
100
AcDbLine
 10
9.027433024438497
 20
7.295646681930847
 30
0.0
 11
9.204433024438497
 21
7.295646681930847
 31
0.0
  0
LINE
  5
3052
330
17
100
AcDbEntity
  8
HIDDEN
100
AcDbLine
 10
9.027433024438497
 20
6.958285340794784
 30
0.0
 11
9.087152207817091
 21
6.958285340794784
 31
0.0
  0
LINE
  5
3053
330
17
100
AcDbEntity
  8
HIDDEN
100
AcDbLine
 10
9.027433024438497
 20
6.788285340794783
 30
0.0
 11
9.087152207817091
 21
6.788285340794783
 31
0.0
  0
LINE
  5
3054
330
17
100
AcDbEntity
  8
HIDDEN
100
AcDbLine
 10
9.138706218580439
 20
6.958285340794784
 30
0.0
 11
9.204433024438497
 21
6.958285340794784
 31
0.0
  0
LINE
  5
3055
330
17
100
AcDbEntity
  8
HIDDEN
100
AcDbLine
 10
9.135269263419571
 20
6.788285340794783
 30
0.0
 11
9.204433024438497
 21
6.788285340794783
 31
0.0
  0
LINE
  5
3056
330
17
100
AcDbEntity
  8
DIM
100
AcDbLine
 10
8.850433024438498
 20
5.558285340794784
 30
0.0
 11
8.850433024438498
 21
5.007077149610126
 31
0.0
  0
LINE
  5
3057
330
17
100
AcDbEntity
  8
DIM
100
AcDbLine
 10
9.204433024438497
 20
5.558285340794784
 30
0.0
 11
9.204433024438497
 21
5.007077149610126
 31
0.0
  0
LINE
  5
3058
330
17
100
AcDbEntity
  8
DIM
100
AcDbLine
 10
8.725433024438498
 20
5.127077149610126
 30
0.0
 11
8.600433024438498
 21
5.127077149610126
 31
0.0
  0
LINE
  5
3059
330
17
100
AcDbEntity
  8
DIM
100
AcDbLine
 10
9.329433024438497
 20
5.127077149610126
 30
0.0
 11
9.454433024438497
 21
5.127077149610126
 31
0.0
  0
SOLID
  5
305A
330
17
100
AcDbEntity
  8
DIM
100
AcDbTrace
 10
8.725433024438498
 20
5.147910482943459
 30
0.0
 11
8.725433024438498
 21
5.106243816276793
 31
0.0
 12
8.850433024438498
 22
5.127077149610126
 32
0.0
 13
8.850433024438498
 23
5.127077149610126
 33
0.0
  0
SOLID
  5
305B
330
17
100
AcDbEntity
  8
DIM
100
AcDbTrace
 10
9.329433024438497
 20
5.147910482943459
 30
0.0
 11
9.329433024438497
 21
5.106243816276793
 31
0.0
 12
9.204433024438497
 22
5.127077149610126
 32
0.0
 13
9.204433024438497
 23
5.127077149610126
 33
0.0
  0
TEXT
  5
305C
330
17
100
AcDbEntity
  8
DIM
 62
     7
100
AcDbText
 10
9.476138234089255
 20
5.052077149610126
 30
0.0
 40
0.15
  1
.354
  7
ROMANS
 72
     1
 11
9.733281091232111
 21
5.127077149610126
 31
0.0
100
AcDbText
 73
     2
  0
TEXT
  5
305D
330
17
100
AcDbEntity
  8
DIM
 62
     7
100
AcDbText
 10
9.560377073530457
 20
4.78767566898295
 30
0.0
 40
0.15
  1
[9]
  7
ROMANS
100
AcDbText
  0
TEXT
  5
305E
330
17
100
AcDbEntity
  8
TEXT
100
AcDbText
 10
14.97896812318729
 20
0.6026341277671118
 30
0.0
 40
0.16
  1
92-90
  7
ROMANS
100
AcDbText
  0
TEXT
  5
305F
330
17
100
AcDbEntity
  8
TEXT
100
AcDbText
 10
16.43591492035048
 20
0.5169891634367149
 30
0.0
 40
0.16
  1
4
  7
ROMANS
100
AcDbText
  0
TEXT
  5
3060
330
17
100
AcDbEntity
  8
TEXT
100
AcDbText
 10
15.54772275248332
 20
0.3301274671695489
 30
0.0
 40
0.1
  1
1
  7
ROMANS
100
AcDbText
  0
TEXT
  5
3061
330
17
100
AcDbEntity
  8
TEXT
100
AcDbText
 10
15.85157796051502
 20
0.3301274671695489
 30
0.0
 40
0.1
  1
1
  7
ROMANS
100
AcDbText
  0
TEXT
  5
3062
330
17
100
AcDbEntity
  8
TEXT
100
AcDbText
 10
13.3116600220666
 20
0.6182059239023486
 30
0.0
 40
0.1
  1
9/20/94
  7
ROMANS
100
AcDbText
  0
TEXT
  5
3064
330
17
100
AcDbEntity
  8
TEXT
100
AcDbText
 10
9.543297945857613
 20
0.3424715360749642
 30
0.0
 40
0.12
  1
1:1
  7
ROMANS
100
AcDbText
  0
TEXT
  5
3070
330
17
100
AcDbEntity
  8
TEXT
100
AcDbText
 10
10.05123611228263
 20
3.746378917118519
 30
0.0
 40
0.125
  1
NOTES:
  7
ROMANS
100
AcDbText
  0
TEXT
  5
3071
330
17
100
AcDbEntity
  8
TEXT
100
AcDbText
 10
9.897543177952009
 20
3.324733439814614
 30
0.0
 40
0.125
  1
 1. DIMENSIONS ARE IN INCHES [MM]
  7
ROMANS
100
AcDbText
  0
TEXT
  5
3072
330
17
100
AcDbEntity
  8
TEXT
100
AcDbText
 10
11.9111498504981
 20
1.524232571920414
 30
0.0
 40
0.18
  1
REFLECTOR
  7
ROMANS
 72
     1
 11
12.6611498504981
 21
1.524232571920414
 31
0.0
100
AcDbText
  0
LINE
  5
3073
330
17
100
AcDbEntity
  8
HATCH
100
AcDbLine
 10
3.490582639613389
 20
7.247632860433952
 30
0.0
 11
3.648982639613386
 21
7.339085143073589
 31
0.0
  0
LINE
  5
3074
330
17
100
AcDbEntity
  8
HATCH
100
AcDbLine
 10
3.648982639613388
 20
7.247632860433952
 30
0.0
 11
3.49058263961339
 21
7.339085143073591
 31
0.0
  0
LINE
  5
3075
330
17
100
AcDbEntity
  8
HATCH
100
AcDbLine
 10
3.569782639613389
 20
7.384811284393405
 30
0.0
 11
3.569782639613389
 21
7.201906719114136
 31
0.0
  0
LINE
  5
3076
330
17
100
AcDbEntity
  8
HATCH
100
AcDbLine
 10
3.728182639613388
 20
7.384811284393407
 30
0.0
 11
3.728182639613388
 21
7.201906719114138
 31
0.0
  0
LINE
  5
3077
330
17
100
AcDbEntity
  8
HATCH
100
AcDbLine
 10
3.807382639613386
 20
7.247632860433954
 30
0.0
 11
3.648982639613389
 21
7.339085143073592
 31
0.0
  0
LINE
  5
3078
330
17
100
AcDbEntity
  8
HATCH
100
AcDbLine
 10
3.648982639613388
 20
7.247632860433954
 30
0.0
 11
3.807382639613384
 21
7.339085143073591
 31
0.0
  0
LINE
  5
3079
330
17
100
AcDbEntity
  8
HATCH
100
AcDbLine
 10
3.88658263961339
 20
7.384811284393405
 30
0.0
 11
3.88658263961339
 21
7.201906719114136
 31
0.0
  0
LINE
  5
307A
330
17
100
AcDbEntity
  8
HATCH
100
AcDbLine
 10
3.965782639613388
 20
7.247632860433952
 30
0.0
 11
3.80738263961339
 21
7.339085143073591
 31
0.0
  0
LINE
  5
307B
330
17
100
AcDbEntity
  8
HATCH
100
AcDbLine
 10
3.80738263961339
 20
7.247632860433952
 30
0.0
 11
3.965782639613387
 21
7.339085143073589
 31
0.0
  0
LINE
  5
307C
330
17
100
AcDbEntity
  8
HATCH
100
AcDbLine
 10
4.044982639613388
 20
7.384811284393405
 30
0.0
 11
4.044982639613388
 21
7.201906719114136
 31
0.0
  0
LINE
  5
307D
330
17
100
AcDbEntity
  8
HATCH
100
AcDbLine
 10
4.124182639613387
 20
7.247632860433952
 30
0.0
 11
3.96578263961339
 21
7.339085143073591
 31
0.0
  0
LINE
  5
307E
330
17
100
AcDbEntity
  8
HATCH
100
AcDbLine
 10
3.965782639613388
 20
7.247632860433952
 30
0.0
 11
4.124182639613385
 21
7.339085143073589
 31
0.0
  0
LINE
  5
307F
330
17
100
AcDbEntity
  8
HATCH
100
AcDbLine
 10
4.203382639613391
 20
7.384811284393405
 30
0.0
 11
4.203382639613391
 21
7.201906719114136
 31
0.0
  0
LINE
  5
3080
330
17
100
AcDbEntity
  8
HATCH
100
AcDbLine
 10
4.282582639613389
 20
7.247632860433952
 30
0.0
 11
4.12418263961339
 21
7.339085143073591
 31
0.0
  0
LINE
  5
3081
330
17
100
AcDbEntity
  8
HATCH
100
AcDbLine
 10
4.12418263961339
 20
7.247632860433952
 30
0.0
 11
4.282582639613387
 21
7.339085143073589
 31
0.0
  0
LINE
  5
3082
330
17
100
AcDbEntity
  8
HATCH
100
AcDbLine
 10
4.361782639613389
 20
7.384811284393405
 30
0.0
 11
4.361782639613389
 21
7.201906719114136
 31
0.0
  0
LINE
  5
3083
330
17
100
AcDbEntity
  8
HATCH
100
AcDbLine
 10
4.440982639613388
 20
7.247632860433952
 30
0.0
 11
4.282582639613391
 21
7.339085143073591
 31
0.0
  0
LINE
  5
3084
330
17
100
AcDbEntity
  8
HATCH
100
AcDbLine
 10
4.282582639613389
 20
7.247632860433952
 30
0.0
 11
4.440982639613386
 21
7.339085143073589
 31
0.0
  0
LINE
  5
3085
330
17
100
AcDbEntity
  8
HATCH
100
AcDbLine
 10
3.411382639613387
 20
7.384811284393407
 30
0.0
 11
3.411382639613387
 21
7.201906719114138
 31
0.0
  0
LINE
  5
3086
330
17
100
AcDbEntity
  8
HATCH
100
AcDbLine
 10
3.490582639613386
 20
7.247632860433954
 30
0.0
 11
3.332182639613388
 21
7.339085143073592
 31
0.0
  0
LINE
  5
3087
330
17
100
AcDbEntity
  8
HATCH
100
AcDbLine
 10
3.332182639613387
 20
7.247632860433954
 30
0.0
 11
3.490582639613384
 21
7.339085143073591
 31
0.0
  0
LINE
  5
3088
330
17
100
AcDbEntity
  8
HATCH
100
AcDbLine
 10
3.25298263961339
 20
7.384811284393403
 30
0.0
 11
3.25298263961339
 21
7.201906719114134
 31
0.0
  0
LINE
  5
3089
330
17
100
AcDbEntity
  8
HATCH
100
AcDbLine
 10
3.332182639613389
 20
7.247632860433951
 30
0.0
 11
3.173782639613391
 21
7.339085143073589
 31
0.0
  0
LINE
  5
308A
330
17
100
AcDbEntity
  8
HATCH
100
AcDbLine
 10
3.17378263961339
 20
7.247632860433951
 30
0.0
 11
3.332182639613387
 21
7.339085143073587
 31
0.0
  0
LINE
  5
308B
330
17
100
AcDbEntity
  8
HATCH
100
AcDbLine
 10
3.094582639613388
 20
7.384811284393407
 30
0.0
 11
3.094582639613388
 21
7.201906719114138
 31
0.0
  0
LINE
  5
308C
330
17
100
AcDbEntity
  8
HATCH
100
AcDbLine
 10
3.173782639613387
 20
7.247632860433954
 30
0.0
 11
3.015382639613389
 21
7.339085143073592
 31
0.0
  0
LINE
  5
308D
330
17
100
AcDbEntity
  8
HATCH
100
AcDbLine
 10
3.015382639613388
 20
7.247632860433954
 30
0.0
 11
3.173782639613385
 21
7.339085143073591
 31
0.0
  0
LINE
  5
308E
330
17
100
AcDbEntity
  8
HATCH
100
AcDbLine
 10
2.93618263961339
 20
7.384811284393405
 30
0.0
 11
2.93618263961339
 21
7.201906719114136
 31
0.0
  0
LINE
  5
308F
330
17
100
AcDbEntity
  8
HATCH
100
AcDbLine
 10
3.015382639613388
 20
7.247632860433952
 30
0.0
 11
2.856982639613391
 21
7.339085143073591
 31
0.0
  0
LINE
  5
3090
330
17
100
AcDbEntity
  8
HATCH
100
AcDbLine
 10
2.85698263961339
 20
7.247632860433952
 30
0.0
 11
3.015382639613386
 21
7.339085143073589
 31
0.0
  0
LINE
  5
3091
330
17
100
AcDbEntity
  8
HATCH
100
AcDbLine
 10
2.777782639613388
 20
7.384811284393409
 30
0.0
 11
2.777782639613388
 21
7.201906719114139
 31
0.0
  0
LINE
  5
3092
330
17
100
AcDbEntity
  8
HATCH
100
AcDbLine
 10
2.856982639613386
 20
7.247632860433956
 30
0.0
 11
2.698582639613388
 21
7.339085143073594
 31
0.0
  0
LINE
  5
3093
330
17
100
AcDbEntity
  8
HATCH
100
AcDbLine
 10
2.698582639613388
 20
7.247632860433956
 30
0.0
 11
2.856982639613384
 21
7.339085143073592
 31
0.0
  0
LINE
  5
3094
330
17
100
AcDbEntity
  8
HATCH
100
AcDbLine
 10
4.520182639613388
 20
7.384811284393409
 30
0.0
 11
4.520182639613388
 21
7.201906719114139
 31
0.0
  0
LINE
  5
3095
330
17
100
AcDbEntity
  8
HATCH
100
AcDbLine
 10
4.599382639613386
 20
7.247632860433956
 30
0.0
 11
4.440982639613388
 21
7.339085143073594
 31
0.0
  0
LINE
  5
3096
330
17
100
AcDbEntity
  8
HATCH
100
AcDbLine
 10
4.440982639613388
 20
7.247632860433956
 30
0.0
 11
4.599382639613384
 21
7.339085143073592
 31
0.0
  0
LINE
  5
3097
330
17
100
AcDbEntity
  8
HATCH
100
AcDbLine
 10
3.572650802671141
 20
7.933258763148034
 30
0.0
 11
3.572650802671141
 21
7.750354197868764
 31
0.0
  0
LINE
  5
3098
330
17
100
AcDbEntity
  8
HATCH
100
AcDbLine
 10
3.731050802671143
 20
7.93325876314803
 30
0.0
 11
3.731050802671143
 21
7.750354197868761
 31
0.0
  0
LINE
  5
3099
330
17
100
AcDbEntity
  8
HATCH
100
AcDbLine
 10
3.651850802671143
 20
7.796080339188577
 30
0.0
 11
3.81025080267114
 21
7.887532621828214
 31
0.0
  0
LINE
  5
309A
330
17
100
AcDbEntity
  8
HATCH
100
AcDbLine
 10
3.810250802671141
 20
7.796080339188577
 30
0.0
 11
3.651850802671144
 21
7.887532621828215
 31
0.0
  0
LINE
  5
309B
330
17
100
AcDbEntity
  8
HATCH
100
AcDbLine
 10
3.493450802671141
 20
7.796080339188581
 30
0.0
 11
3.651850802671138
 21
7.887532621828217
 31
0.0
  0
LINE
  5
309C
330
17
100
AcDbEntity
  8
HATCH
100
AcDbLine
 10
3.651850802671139
 20
7.796080339188581
 30
0.0
 11
3.493450802671142
 21
7.887532621828219
 31
0.0
  0
LINE
  5
309D
330
17
100
AcDbEntity
  8
HATCH
100
AcDbLine
 10
3.732844918191691
 20
7.656476364520099
 30
0.0
 11
3.891244918191688
 21
7.747928647159735
 31
0.0
  0
LINE
  5
309E
330
17
100
AcDbEntity
  8
HATCH
100
AcDbLine
 10
3.89124491819169
 20
7.656476364520099
 30
0.0
 11
3.732844918191692
 21
7.747928647159737
 31
0.0
  0
LINE
  5
309F
330
17
100
AcDbEntity
  8
HATCH
100
AcDbLine
 10
3.336844918191689
 20
7.793654788479557
 30
0.0
 11
3.336844918191689
 21
7.610750223200287
 31
0.0
  0
LINE
  5
30A0
330
17
100
AcDbEntity
  8
HATCH
100
AcDbLine
 10
3.495244918191691
 20
7.793654788479553
 30
0.0
 11
3.495244918191691
 21
7.610750223200284
 31
0.0
  0
LINE
  5
30A1
330
17
100
AcDbEntity
  8
HATCH
100
AcDbLine
 10
3.653644918191689
 20
7.793654788479555
 30
0.0
 11
3.653644918191689
 21
7.610750223200286
 31
0.0
  0
LINE
  5
30A2
330
17
100
AcDbEntity
  8
HATCH
100
AcDbLine
 10
3.41604491819169
 20
7.6564763645201
 30
0.0
 11
3.574444918191687
 21
7.747928647159737
 31
0.0
  0
LINE
  5
30A3
330
17
100
AcDbEntity
  8
HATCH
100
AcDbLine
 10
3.574444918191689
 20
7.6564763645201
 30
0.0
 11
3.416044918191691
 21
7.747928647159739
 31
0.0
  0
LINE
  5
30A4
330
17
100
AcDbEntity
  8
HATCH
100
AcDbLine
 10
3.257644918191688
 20
7.656476364520104
 30
0.0
 11
3.416044918191685
 21
7.74792864715974
 31
0.0
  0
LINE
  5
30A5
330
17
100
AcDbEntity
  8
HATCH
100
AcDbLine
 10
3.416044918191687
 20
7.656476364520104
 30
0.0
 11
3.257644918191689
 21
7.747928647159742
 31
0.0
  0
LINE
  5
30A6
330
17
100
AcDbEntity
  8
HATCH
100
AcDbLine
 10
3.574444918191689
 20
7.656476364520102
 30
0.0
 11
3.732844918191686
 21
7.747928647159739
 31
0.0
  0
LINE
  5
30A7
330
17
100
AcDbEntity
  8
HATCH
100
AcDbLine
 10
3.732844918191688
 20
7.656476364520102
 30
0.0
 11
3.57444491819169
 21
7.74792864715974
 31
0.0
  0
LINE
  5
30A8
330
17
100
AcDbEntity
  8
HATCH
100
AcDbLine
 10
3.812044918191691
 20
7.793654788479551
 30
0.0
 11
3.812044918191691
 21
7.610750223200282
 31
0.0
  0
LINE
  5
30A9
330
17
100
AcDbEntity
  8
HATCH
100
AcDbLine
 10
3.970444918191688
 20
7.793654788479555
 30
0.0
 11
3.970444918191688
 21
7.610750223200286
 31
0.0
  0
LINE
  5
30AA
330
17
100
AcDbEntity
  8
HATCH
100
AcDbLine
 10
3.891244918191688
 20
7.656476364520102
 30
0.0
 11
4.049644918191685
 21
7.747928647159739
 31
0.0
  0
LINE
  5
30AB
330
17
100
AcDbEntity
  8
HATCH
100
AcDbLine
 10
4.049644918191686
 20
7.656476364520102
 30
0.0
 11
3.891244918191688
 21
7.74792864715974
 31
0.0
  0
LINE
  5
30AC
330
17
100
AcDbEntity
  8
HATCH
100
AcDbLine
 10
3.495244918191692
 20
7.519297940560642
 30
0.0
 11
3.653644918191689
 21
7.610750223200279
 31
0.0
  0
LINE
  5
30AD
330
17
100
AcDbEntity
  8
HATCH
100
AcDbLine
 10
3.653644918191691
 20
7.519297940560642
 30
0.0
 11
3.495244918191693
 21
7.61075022320028
 31
0.0
  0
LINE
  5
30AE
330
17
100
AcDbEntity
  8
HATCH
100
AcDbLine
 10
3.09924491819169
 20
7.6564763645201
 30
0.0
 11
3.09924491819169
 21
7.473571799240831
 31
0.0
  0
LINE
  5
30AF
330
17
100
AcDbEntity
  8
HATCH
100
AcDbLine
 10
3.257644918191692
 20
7.656476364520097
 30
0.0
 11
3.257644918191692
 21
7.473571799240827
 31
0.0
  0
LINE
  5
30B0
330
17
100
AcDbEntity
  8
HATCH
100
AcDbLine
 10
3.41604491819169
 20
7.656476364520099
 30
0.0
 11
3.41604491819169
 21
7.473571799240829
 31
0.0
  0
LINE
  5
30B1
330
17
100
AcDbEntity
  8
HATCH
100
AcDbLine
 10
3.178444918191692
 20
7.519297940560644
 30
0.0
 11
3.336844918191689
 21
7.61075022320028
 31
0.0
  0
LINE
  5
30B2
330
17
100
AcDbEntity
  8
HATCH
100
AcDbLine
 10
3.33684491819169
 20
7.519297940560644
 30
0.0
 11
3.178444918191693
 21
7.610750223200282
 31
0.0
  0
LINE
  5
30B3
330
17
100
AcDbEntity
  8
HATCH
100
AcDbLine
 10
3.02004491819169
 20
7.519297940560647
 30
0.0
 11
3.178444918191686
 21
7.610750223200284
 31
0.0
  0
LINE
  5
30B4
330
17
100
AcDbEntity
  8
HATCH
100
AcDbLine
 10
3.178444918191688
 20
7.519297940560647
 30
0.0
 11
3.020044918191691
 21
7.610750223200286
 31
0.0
  0
LINE
  5
30B5
330
17
100
AcDbEntity
  8
HATCH
100
AcDbLine
 10
3.33684491819169
 20
7.519297940560646
 30
0.0
 11
3.495244918191687
 21
7.610750223200282
 31
0.0
  0
LINE
  5
30B6
330
17
100
AcDbEntity
  8
HATCH
100
AcDbLine
 10
3.495244918191689
 20
7.519297940560646
 30
0.0
 11
3.336844918191691
 21
7.610750223200284
 31
0.0
  0
LINE
  5
30B7
330
17
100
AcDbEntity
  8
HATCH
100
AcDbLine
 10
4.128844918191692
 20
7.519297940560644
 30
0.0
 11
4.287244918191689
 21
7.61075022320028
 31
0.0
  0
LINE
  5
30B8
330
17
100
AcDbEntity
  8
HATCH
100
AcDbLine
 10
4.28724491819169
 20
7.519297940560644
 30
0.0
 11
4.128844918191692
 21
7.610750223200282
 31
0.0
  0
LINE
  5
30B9
330
17
100
AcDbEntity
  8
HATCH
100
AcDbLine
 10
3.574444918191693
 20
7.656476364520095
 30
0.0
 11
3.574444918191693
 21
7.473571799240826
 31
0.0
  0
LINE
  5
30BA
330
17
100
AcDbEntity
  8
HATCH
100
AcDbLine
 10
3.732844918191689
 20
7.656476364520099
 30
0.0
 11
3.732844918191689
 21
7.473571799240829
 31
0.0
  0
LINE
  5
30BB
330
17
100
AcDbEntity
  8
HATCH
100
AcDbLine
 10
4.208044918191692
 20
7.656476364520097
 30
0.0
 11
4.208044918191692
 21
7.473571799240827
 31
0.0
  0
LINE
  5
30BC
330
17
100
AcDbEntity
  8
HATCH
100
AcDbLine
 10
4.04964491819169
 20
7.656476364520099
 30
0.0
 11
4.04964491819169
 21
7.473571799240829
 31
0.0
  0
LINE
  5
30BD
330
17
100
AcDbEntity
  8
HATCH
100
AcDbLine
 10
3.891244918191691
 20
7.656476364520097
 30
0.0
 11
3.891244918191691
 21
7.473571799240827
 31
0.0
  0
LINE
  5
30BE
330
17
100
AcDbEntity
  8
HATCH
100
AcDbLine
 10
3.97044491819169
 20
7.519297940560644
 30
0.0
 11
3.812044918191691
 21
7.610750223200282
 31
0.0
  0
LINE
  5
30BF
330
17
100
AcDbEntity
  8
HATCH
100
AcDbLine
 10
3.812044918191691
 20
7.519297940560644
 30
0.0
 11
3.970444918191688
 21
7.61075022320028
 31
0.0
  0
LINE
  5
30C0
330
17
100
AcDbEntity
  8
HATCH
100
AcDbLine
 10
3.653644918191689
 20
7.519297940560646
 30
0.0
 11
3.812044918191686
 21
7.610750223200282
 31
0.0
  0
LINE
  5
30C1
330
17
100
AcDbEntity
  8
HATCH
100
AcDbLine
 10
3.812044918191688
 20
7.519297940560646
 30
0.0
 11
3.65364491819169
 21
7.610750223200284
 31
0.0
  0
LINE
  5
30C2
330
17
100
AcDbEntity
  8
HATCH
100
AcDbLine
 10
3.97044491819169
 20
7.519297940560646
 30
0.0
 11
4.128844918191687
 21
7.610750223200282
 31
0.0
  0
LINE
  5
30C3
330
17
100
AcDbEntity
  8
HATCH
100
AcDbLine
 10
4.128844918191688
 20
7.519297940560646
 30
0.0
 11
3.970444918191692
 21
7.610750223200284
 31
0.0
  0
LINE
  5
30C4
330
17
100
AcDbEntity
  8
HATCH
100
AcDbLine
 10
3.257644918191694
 20
7.382119516601187
 30
0.0
 11
3.41604491819169
 21
7.473571799240824
 31
0.0
  0
LINE
  5
30C5
330
17
100
AcDbEntity
  8
HATCH
100
AcDbLine
 10
3.416044918191692
 20
7.382119516601187
 30
0.0
 11
3.257644918191695
 21
7.473571799240826
 31
0.0
  0
LINE
  5
30C6
330
17
100
AcDbEntity
  8
HATCH
100
AcDbLine
 10
2.861644918191691
 20
7.519297940560646
 30
0.0
 11
2.861644918191691
 21
7.336393375281376
 31
0.0
  0
LINE
  5
30C7
330
17
100
AcDbEntity
  8
HATCH
100
AcDbLine
 10
3.020044918191693
 20
7.519297940560642
 30
0.0
 11
3.020044918191693
 21
7.336393375281373
 31
0.0
  0
LINE
  5
30C8
330
17
100
AcDbEntity
  8
HATCH
100
AcDbLine
 10
3.178444918191692
 20
7.519297940560644
 30
0.0
 11
3.178444918191692
 21
7.336393375281375
 31
0.0
  0
LINE
  5
30C9
330
17
100
AcDbEntity
  8
HATCH
100
AcDbLine
 10
2.940844918191693
 20
7.382119516601189
 30
0.0
 11
3.09924491819169
 21
7.473571799240826
 31
0.0
  0
LINE
  5
30CA
330
17
100
AcDbEntity
  8
HATCH
100
AcDbLine
 10
3.099244918191692
 20
7.382119516601189
 30
0.0
 11
2.940844918191693
 21
7.473571799240827
 31
0.0
  0
LINE
  5
30CB
330
17
100
AcDbEntity
  8
HATCH
100
AcDbLine
 10
2.782444918191691
 20
7.382119516601193
 30
0.0
 11
2.940844918191688
 21
7.473571799240829
 31
0.0
  0
LINE
  5
30CC
330
17
100
AcDbEntity
  8
HATCH
100
AcDbLine
 10
2.94084491819169
 20
7.382119516601193
 30
0.0
 11
2.782444918191693
 21
7.473571799240831
 31
0.0
  0
LINE
  5
30CD
330
17
100
AcDbEntity
  8
HATCH
100
AcDbLine
 10
3.099244918191692
 20
7.382119516601191
 30
0.0
 11
3.257644918191688
 21
7.473571799240827
 31
0.0
  0
LINE
  5
30CE
330
17
100
AcDbEntity
  8
HATCH
100
AcDbLine
 10
3.25764491819169
 20
7.382119516601191
 30
0.0
 11
3.099244918191693
 21
7.473571799240829
 31
0.0
  0
LINE
  5
30CF
330
17
100
AcDbEntity
  8
HATCH
100
AcDbLine
 10
3.891244918191693
 20
7.382119516601189
 30
0.0
 11
4.04964491819169
 21
7.473571799240826
 31
0.0
  0
LINE
  5
30D0
330
17
100
AcDbEntity
  8
HATCH
100
AcDbLine
 10
4.049644918191692
 20
7.382119516601189
 30
0.0
 11
3.891244918191695
 21
7.473571799240827
 31
0.0
  0
LINE
  5
30D1
330
17
100
AcDbEntity
  8
HATCH
100
AcDbLine
 10
3.336844918191694
 20
7.51929794056064
 30
0.0
 11
3.336844918191694
 21
7.336393375281371
 31
0.0
  0
LINE
  5
30D2
330
17
100
AcDbEntity
  8
HATCH
100
AcDbLine
 10
3.495244918191691
 20
7.519297940560644
 30
0.0
 11
3.495244918191691
 21
7.336393375281375
 31
0.0
  0
LINE
  5
30D3
330
17
100
AcDbEntity
  8
HATCH
100
AcDbLine
 10
3.970444918191693
 20
7.519297940560642
 30
0.0
 11
3.970444918191693
 21
7.336393375281373
 31
0.0
  0
LINE
  5
30D4
330
17
100
AcDbEntity
  8
HATCH
100
AcDbLine
 10
3.812044918191691
 20
7.519297940560644
 30
0.0
 11
3.812044918191691
 21
7.336393375281375
 31
0.0
  0
LINE
  5
30D5
330
17
100
AcDbEntity
  8
HATCH
100
AcDbLine
 10
3.653644918191693
 20
7.519297940560642
 30
0.0
 11
3.653644918191693
 21
7.336393375281373
 31
0.0
  0
LINE
  5
30D6
330
17
100
AcDbEntity
  8
HATCH
100
AcDbLine
 10
3.732844918191691
 20
7.382119516601189
 30
0.0
 11
3.574444918191693
 21
7.473571799240827
 31
0.0
  0
LINE
  5
30D7
330
17
100
AcDbEntity
  8
HATCH
100
AcDbLine
 10
3.574444918191693
 20
7.382119516601189
 30
0.0
 11
3.732844918191689
 21
7.473571799240826
 31
0.0
  0
LINE
  5
30D8
330
17
100
AcDbEntity
  8
HATCH
100
AcDbLine
 10
3.41604491819169
 20
7.382119516601191
 30
0.0
 11
3.574444918191687
 21
7.473571799240827
 31
0.0
  0
LINE
  5
30D9
330
17
100
AcDbEntity
  8
HATCH
100
AcDbLine
 10
3.574444918191689
 20
7.382119516601191
 30
0.0
 11
3.416044918191691
 21
7.473571799240829
 31
0.0
  0
LINE
  5
30DA
330
17
100
AcDbEntity
  8
HATCH
100
AcDbLine
 10
3.732844918191691
 20
7.382119516601191
 30
0.0
 11
3.891244918191688
 21
7.473571799240827
 31
0.0
  0
LINE
  5
30DB
330
17
100
AcDbEntity
  8
HATCH
100
AcDbLine
 10
3.89124491819169
 20
7.382119516601191
 30
0.0
 11
3.732844918191692
 21
7.473571799240829
 31
0.0
  0
LINE
  5
30DC
330
17
100
AcDbEntity
  8
HATCH
100
AcDbLine
 10
4.445644918191693
 20
7.519297940560642
 30
0.0
 11
4.445644918191693
 21
7.336393375281373
 31
0.0
  0
LINE
  5
30DD
330
17
100
AcDbEntity
  8
HATCH
100
AcDbLine
 10
4.287244918191694
 20
7.519297940560642
 30
0.0
 11
4.287244918191694
 21
7.336393375281373
 31
0.0
  0
LINE
  5
30DE
330
17
100
AcDbEntity
  8
HATCH
100
AcDbLine
 10
4.128844918191692
 20
7.519297940560642
 30
0.0
 11
4.128844918191692
 21
7.336393375281373
 31
0.0
  0
LINE
  5
30DF
330
17
100
AcDbEntity
  8
HATCH
100
AcDbLine
 10
4.208044918191694
 20
7.382119516601189
 30
0.0
 11
4.366444918191691
 21
7.473571799240826
 31
0.0
  0
LINE
  5
30E0
330
17
100
AcDbEntity
  8
HATCH
100
AcDbLine
 10
4.366444918191692
 20
7.382119516601189
 30
0.0
 11
4.208044918191696
 21
7.473571799240827
 31
0.0
  0
LINE
  5
30E1
330
17
100
AcDbEntity
  8
HATCH
100
AcDbLine
 10
4.049644918191692
 20
7.382119516601189
 30
0.0
 11
4.208044918191689
 21
7.473571799240826
 31
0.0
  0
LINE
  5
30E2
330
17
100
AcDbEntity
  8
HATCH
100
AcDbLine
 10
4.20804491819169
 20
7.382119516601189
 30
0.0
 11
4.049644918191692
 21
7.473571799240827
 31
0.0
  0
LINE
  5
30E3
330
17
100
AcDbEntity
  8
HATCH
100
AcDbLine
 10
4.366444918191692
 20
7.382119516601189
 30
0.0
 11
4.524844918191689
 21
7.473571799240826
 31
0.0
  0
LINE
  5
30E4
330
17
100
AcDbEntity
  8
HATCH
100
AcDbLine
 10
4.524844918191691
 20
7.382119516601189
 30
0.0
 11
4.366444918191692
 21
7.473571799240827
 31
0.0
  0
LINE
  5
30E5
330
17
100
AcDbEntity
  8
HATCH
100
AcDbLine
 10
3.257644918191694
 20
7.107762668682273
 30
0.0
 11
3.41604491819169
 21
7.199214951321909
 31
0.0
  0
LINE
  5
30E6
330
17
100
AcDbEntity
  8
HATCH
100
AcDbLine
 10
3.416044918191692
 20
7.107762668682273
 30
0.0
 11
3.257644918191695
 21
7.199214951321911
 31
0.0
  0
LINE
  5
30E7
330
17
100
AcDbEntity
  8
HATCH
100
AcDbLine
 10
2.861644918191691
 20
7.244941092641731
 30
0.0
 11
2.861644918191691
 21
7.062036527362462
 31
0.0
  0
LINE
  5
30E8
330
17
100
AcDbEntity
  8
HATCH
100
AcDbLine
 10
3.020044918191693
 20
7.244941092641727
 30
0.0
 11
3.020044918191693
 21
7.062036527362458
 31
0.0
  0
LINE
  5
30E9
330
17
100
AcDbEntity
  8
HATCH
100
AcDbLine
 10
3.178444918191692
 20
7.244941092641729
 30
0.0
 11
3.178444918191692
 21
7.06203652736246
 31
0.0
  0
LINE
  5
30EA
330
17
100
AcDbEntity
  8
HATCH
100
AcDbLine
 10
2.940844918191693
 20
7.107762668682275
 30
0.0
 11
3.09924491819169
 21
7.199214951321911
 31
0.0
  0
LINE
  5
30EB
330
17
100
AcDbEntity
  8
HATCH
100
AcDbLine
 10
3.099244918191692
 20
7.107762668682275
 30
0.0
 11
2.940844918191693
 21
7.199214951321913
 31
0.0
  0
LINE
  5
30EC
330
17
100
AcDbEntity
  8
HATCH
100
AcDbLine
 10
2.782444918191691
 20
7.107762668682278
 30
0.0
 11
2.940844918191688
 21
7.199214951321915
 31
0.0
  0
LINE
  5
30ED
330
17
100
AcDbEntity
  8
HATCH
100
AcDbLine
 10
2.94084491819169
 20
7.107762668682278
 30
0.0
 11
2.782444918191693
 21
7.199214951321916
 31
0.0
  0
LINE
  5
30EE
330
17
100
AcDbEntity
  8
HATCH
100
AcDbLine
 10
3.099244918191692
 20
7.107762668682276
 30
0.0
 11
3.257644918191688
 21
7.199214951321913
 31
0.0
  0
LINE
  5
30EF
330
17
100
AcDbEntity
  8
HATCH
100
AcDbLine
 10
3.25764491819169
 20
7.107762668682276
 30
0.0
 11
3.099244918191693
 21
7.199214951321915
 31
0.0
  0
LINE
  5
30F0
330
17
100
AcDbEntity
  8
HATCH
100
AcDbLine
 10
3.891244918191693
 20
7.107762668682275
 30
0.0
 11
4.04964491819169
 21
7.199214951321911
 31
0.0
  0
LINE
  5
30F1
330
17
100
AcDbEntity
  8
HATCH
100
AcDbLine
 10
4.049644918191692
 20
7.107762668682275
 30
0.0
 11
3.891244918191695
 21
7.199214951321913
 31
0.0
  0
LINE
  5
30F2
330
17
100
AcDbEntity
  8
HATCH
100
AcDbLine
 10
3.336844918191694
 20
7.244941092641726
 30
0.0
 11
3.336844918191694
 21
7.062036527362456
 31
0.0
  0
LINE
  5
30F3
330
17
100
AcDbEntity
  8
HATCH
100
AcDbLine
 10
3.495244918191691
 20
7.244941092641729
 30
0.0
 11
3.495244918191691
 21
7.06203652736246
 31
0.0
  0
LINE
  5
30F4
330
17
100
AcDbEntity
  8
HATCH
100
AcDbLine
 10
3.970444918191693
 20
7.244941092641727
 30
0.0
 11
3.970444918191693
 21
7.062036527362458
 31
0.0
  0
LINE
  5
30F5
330
17
100
AcDbEntity
  8
HATCH
100
AcDbLine
 10
3.812044918191691
 20
7.244941092641729
 30
0.0
 11
3.812044918191691
 21
7.06203652736246
 31
0.0
  0
LINE
  5
30F6
330
17
100
AcDbEntity
  8
HATCH
100
AcDbLine
 10
3.653644918191693
 20
7.244941092641727
 30
0.0
 11
3.653644918191693
 21
7.062036527362458
 31
0.0
  0
LINE
  5
30F7
330
17
100
AcDbEntity
  8
HATCH
100
AcDbLine
 10
3.732844918191691
 20
7.107762668682275
 30
0.0
 11
3.574444918191693
 21
7.199214951321913
 31
0.0
  0
LINE
  5
30F8
330
17
100
AcDbEntity
  8
HATCH
100
AcDbLine
 10
3.574444918191693
 20
7.107762668682275
 30
0.0
 11
3.732844918191689
 21
7.199214951321911
 31
0.0
  0
LINE
  5
30F9
330
17
100
AcDbEntity
  8
HATCH
100
AcDbLine
 10
3.41604491819169
 20
7.107762668682276
 30
0.0
 11
3.574444918191687
 21
7.199214951321913
 31
0.0
  0
LINE
  5
30FA
330
17
100
AcDbEntity
  8
HATCH
100
AcDbLine
 10
3.574444918191689
 20
7.107762668682276
 30
0.0
 11
3.416044918191691
 21
7.199214951321915
 31
0.0
  0
LINE
  5
30FB
330
17
100
AcDbEntity
  8
HATCH
100
AcDbLine
 10
3.732844918191691
 20
7.107762668682276
 30
0.0
 11
3.891244918191688
 21
7.199214951321913
 31
0.0
  0
LINE
  5
30FC
330
17
100
AcDbEntity
  8
HATCH
100
AcDbLine
 10
3.89124491819169
 20
7.107762668682276
 30
0.0
 11
3.732844918191692
 21
7.199214951321915
 31
0.0
  0
LINE
  5
30FD
330
17
100
AcDbEntity
  8
HATCH
100
AcDbLine
 10
4.445644918191693
 20
7.244941092641727
 30
0.0
 11
4.445644918191693
 21
7.062036527362458
 31
0.0
  0
LINE
  5
30FE
330
17
100
AcDbEntity
  8
HATCH
100
AcDbLine
 10
4.287244918191694
 20
7.244941092641727
 30
0.0
 11
4.287244918191694
 21
7.062036527362458
 31
0.0
  0
LINE
  5
30FF
330
17
100
AcDbEntity
  8
HATCH
100
AcDbLine
 10
4.128844918191692
 20
7.244941092641727
 30
0.0
 11
4.128844918191692
 21
7.062036527362458
 31
0.0
  0
LINE
  5
3100
330
17
100
AcDbEntity
  8
HATCH
100
AcDbLine
 10
4.208044918191694
 20
7.107762668682275
 30
0.0
 11
4.366444918191691
 21
7.199214951321911
 31
0.0
  0
LINE
  5
3101
330
17
100
AcDbEntity
  8
HATCH
100
AcDbLine
 10
4.366444918191692
 20
7.107762668682275
 30
0.0
 11
4.208044918191696
 21
7.199214951321913
 31
0.0
  0
LINE
  5
3102
330
17
100
AcDbEntity
  8
HATCH
100
AcDbLine
 10
4.049644918191692
 20
7.107762668682275
 30
0.0
 11
4.208044918191689
 21
7.199214951321911
 31
0.0
  0
LINE
  5
3103
330
17
100
AcDbEntity
  8
HATCH
100
AcDbLine
 10
4.20804491819169
 20
7.107762668682275
 30
0.0
 11
4.049644918191692
 21
7.199214951321913
 31
0.0
  0
LINE
  5
3104
330
17
100
AcDbEntity
  8
HATCH
100
AcDbLine
 10
4.366444918191692
 20
7.107762668682275
 30
0.0
 11
4.524844918191689
 21
7.199214951321911
 31
0.0
  0
LINE
  5
3105
330
17
100
AcDbEntity
  8
HATCH
100
AcDbLine
 10
4.524844918191691
 20
7.107762668682275
 30
0.0
 11
4.366444918191692
 21
7.199214951321913
 31
0.0
  0
LINE
  5
3106
330
17
100
AcDbEntity
  8
HATCH
100
AcDbLine
 10
4.440982639613388
 20
6.973276012515043
 30
0.0
 11
4.599382639613384
 21
7.064728295154679
 31
0.0
  0
LINE
  5
3107
330
17
100
AcDbEntity
  8
HATCH
100
AcDbLine
 10
4.599382639613386
 20
6.973276012515043
 30
0.0
 11
4.440982639613388
 21
7.064728295154681
 31
0.0
  0
LINE
  5
3108
330
17
100
AcDbEntity
  8
HATCH
100
AcDbLine
 10
3.17378263961339
 20
6.973276012515038
 30
0.0
 11
3.332182639613387
 21
7.064728295154674
 31
0.0
  0
LINE
  5
3109
330
17
100
AcDbEntity
  8
HATCH
100
AcDbLine
 10
3.332182639613389
 20
6.973276012515038
 30
0.0
 11
3.173782639613391
 21
7.064728295154676
 31
0.0
  0
LINE
  5
310A
330
17
100
AcDbEntity
  8
HATCH
100
AcDbLine
 10
2.777782639613388
 20
7.110454436474496
 30
0.0
 11
2.777782639613388
 21
6.927549871195227
 31
0.0
  0
LINE
  5
310B
330
17
100
AcDbEntity
  8
HATCH
100
AcDbLine
 10
2.93618263961339
 20
7.110454436474492
 30
0.0
 11
2.93618263961339
 21
6.927549871195223
 31
0.0
  0
LINE
  5
310C
330
17
100
AcDbEntity
  8
HATCH
100
AcDbLine
 10
3.094582639613388
 20
7.110454436474494
 30
0.0
 11
3.094582639613388
 21
6.927549871195225
 31
0.0
  0
LINE
  5
310D
330
17
100
AcDbEntity
  8
HATCH
100
AcDbLine
 10
2.85698263961339
 20
6.973276012515039
 30
0.0
 11
3.015382639613386
 21
7.064728295154676
 31
0.0
  0
LINE
  5
310E
330
17
100
AcDbEntity
  8
HATCH
100
AcDbLine
 10
3.015382639613388
 20
6.973276012515039
 30
0.0
 11
2.856982639613391
 21
7.064728295154678
 31
0.0
  0
LINE
  5
310F
330
17
100
AcDbEntity
  8
HATCH
100
AcDbLine
 10
2.698582639613388
 20
6.973276012515043
 30
0.0
 11
2.856982639613384
 21
7.064728295154679
 31
0.0
  0
LINE
  5
3110
330
17
100
AcDbEntity
  8
HATCH
100
AcDbLine
 10
2.856982639613386
 20
6.973276012515043
 30
0.0
 11
2.698582639613388
 21
7.064728295154681
 31
0.0
  0
LINE
  5
3111
330
17
100
AcDbEntity
  8
HATCH
100
AcDbLine
 10
3.015382639613388
 20
6.973276012515041
 30
0.0
 11
3.173782639613385
 21
7.064728295154678
 31
0.0
  0
LINE
  5
3112
330
17
100
AcDbEntity
  8
HATCH
100
AcDbLine
 10
3.173782639613387
 20
6.973276012515041
 30
0.0
 11
3.015382639613389
 21
7.064728295154679
 31
0.0
  0
LINE
  5
3113
330
17
100
AcDbEntity
  8
HATCH
100
AcDbLine
 10
3.80738263961339
 20
6.973276012515039
 30
0.0
 11
3.965782639613387
 21
7.064728295154676
 31
0.0
  0
LINE
  5
3114
330
17
100
AcDbEntity
  8
HATCH
100
AcDbLine
 10
3.965782639613388
 20
6.973276012515039
 30
0.0
 11
3.80738263961339
 21
7.064728295154678
 31
0.0
  0
LINE
  5
3115
330
17
100
AcDbEntity
  8
HATCH
100
AcDbLine
 10
3.25298263961339
 20
7.110454436474491
 30
0.0
 11
3.25298263961339
 21
6.927549871195221
 31
0.0
  0
LINE
  5
3116
330
17
100
AcDbEntity
  8
HATCH
100
AcDbLine
 10
3.411382639613387
 20
7.110454436474494
 30
0.0
 11
3.411382639613387
 21
6.927549871195225
 31
0.0
  0
LINE
  5
3117
330
17
100
AcDbEntity
  8
HATCH
100
AcDbLine
 10
3.88658263961339
 20
7.110454436474492
 30
0.0
 11
3.88658263961339
 21
6.927549871195223
 31
0.0
  0
LINE
  5
3118
330
17
100
AcDbEntity
  8
HATCH
100
AcDbLine
 10
3.728182639613388
 20
7.110454436474494
 30
0.0
 11
3.728182639613388
 21
6.927549871195225
 31
0.0
  0
LINE
  5
3119
330
17
100
AcDbEntity
  8
HATCH
100
AcDbLine
 10
3.569782639613389
 20
7.110454436474492
 30
0.0
 11
3.569782639613389
 21
6.927549871195223
 31
0.0
  0
LINE
  5
311A
330
17
100
AcDbEntity
  8
HATCH
100
AcDbLine
 10
3.648982639613388
 20
6.973276012515039
 30
0.0
 11
3.49058263961339
 21
7.064728295154678
 31
0.0
  0
LINE
  5
311B
330
17
100
AcDbEntity
  8
HATCH
100
AcDbLine
 10
3.490582639613389
 20
6.973276012515039
 30
0.0
 11
3.648982639613386
 21
7.064728295154676
 31
0.0
  0
LINE
  5
311C
330
17
100
AcDbEntity
  8
HATCH
100
AcDbLine
 10
3.332182639613387
 20
6.973276012515041
 30
0.0
 11
3.490582639613384
 21
7.064728295154678
 31
0.0
  0
LINE
  5
311D
330
17
100
AcDbEntity
  8
HATCH
100
AcDbLine
 10
3.490582639613386
 20
6.973276012515041
 30
0.0
 11
3.332182639613388
 21
7.064728295154679
 31
0.0
  0
LINE
  5
311E
330
17
100
AcDbEntity
  8
HATCH
100
AcDbLine
 10
3.648982639613388
 20
6.973276012515041
 30
0.0
 11
3.807382639613384
 21
7.064728295154678
 31
0.0
  0
LINE
  5
311F
330
17
100
AcDbEntity
  8
HATCH
100
AcDbLine
 10
3.807382639613386
 20
6.973276012515041
 30
0.0
 11
3.648982639613389
 21
7.064728295154679
 31
0.0
  0
LINE
  5
3120
330
17
100
AcDbEntity
  8
HATCH
100
AcDbLine
 10
4.520182639613388
 20
7.110454436474496
 30
0.0
 11
4.520182639613388
 21
6.927549871195227
 31
0.0
  0
LINE
  5
3121
330
17
100
AcDbEntity
  8
HATCH
100
AcDbLine
 10
4.361782639613389
 20
7.110454436474492
 30
0.0
 11
4.361782639613389
 21
6.927549871195223
 31
0.0
  0
LINE
  5
3122
330
17
100
AcDbEntity
  8
HATCH
100
AcDbLine
 10
4.203382639613391
 20
7.110454436474492
 30
0.0
 11
4.203382639613391
 21
6.927549871195223
 31
0.0
  0
LINE
  5
3123
330
17
100
AcDbEntity
  8
HATCH
100
AcDbLine
 10
4.044982639613388
 20
7.110454436474492
 30
0.0
 11
4.044982639613388
 21
6.927549871195223
 31
0.0
  0
LINE
  5
3124
330
17
100
AcDbEntity
  8
HATCH
100
AcDbLine
 10
4.12418263961339
 20
6.973276012515039
 30
0.0
 11
4.282582639613387
 21
7.064728295154676
 31
0.0
  0
LINE
  5
3125
330
17
100
AcDbEntity
  8
HATCH
100
AcDbLine
 10
4.282582639613389
 20
6.973276012515039
 30
0.0
 11
4.12418263961339
 21
7.064728295154678
 31
0.0
  0
LINE
  5
3126
330
17
100
AcDbEntity
  8
HATCH
100
AcDbLine
 10
3.965782639613388
 20
6.973276012515039
 30
0.0
 11
4.124182639613385
 21
7.064728295154676
 31
0.0
  0
LINE
  5
3127
330
17
100
AcDbEntity
  8
HATCH
100
AcDbLine
 10
4.124182639613387
 20
6.973276012515039
 30
0.0
 11
3.96578263961339
 21
7.064728295154678
 31
0.0
  0
LINE
  5
3128
330
17
100
AcDbEntity
  8
HATCH
100
AcDbLine
 10
4.282582639613389
 20
6.973276012515039
 30
0.0
 11
4.440982639613386
 21
7.064728295154676
 31
0.0
  0
LINE
  5
3129
330
17
100
AcDbEntity
  8
HATCH
100
AcDbLine
 10
4.440982639613388
 20
6.973276012515039
 30
0.0
 11
4.282582639613391
 21
7.064728295154678
 31
0.0
  0
LINE
  5
312A
330
17
100
AcDbEntity
  8
HATCH
100
AcDbLine
 10
3.257644918191694
 20
6.838789356347801
 30
0.0
 11
3.41604491819169
 21
6.930241638987437
 31
0.0
  0
LINE
  5
312B
330
17
100
AcDbEntity
  8
HATCH
100
AcDbLine
 10
3.416044918191692
 20
6.838789356347801
 30
0.0
 11
3.257644918191695
 21
6.930241638987439
 31
0.0
  0
LINE
  5
312C
330
17
100
AcDbEntity
  8
HATCH
100
AcDbLine
 10
2.861644918191691
 20
6.975967780307259
 30
0.0
 11
2.861644918191691
 21
6.79306321502799
 31
0.0
  0
LINE
  5
312D
330
17
100
AcDbEntity
  8
HATCH
100
AcDbLine
 10
3.020044918191693
 20
6.975967780307255
 30
0.0
 11
3.020044918191693
 21
6.793063215027986
 31
0.0
  0
LINE
  5
312E
330
17
100
AcDbEntity
  8
HATCH
100
AcDbLine
 10
3.178444918191692
 20
6.975967780307257
 30
0.0
 11
3.178444918191692
 21
6.793063215027988
 31
0.0
  0
LINE
  5
312F
330
17
100
AcDbEntity
  8
HATCH
100
AcDbLine
 10
2.940844918191693
 20
6.838789356347803
 30
0.0
 11
3.09924491819169
 21
6.930241638987439
 31
0.0
  0
LINE
  5
3130
330
17
100
AcDbEntity
  8
HATCH
100
AcDbLine
 10
3.099244918191692
 20
6.838789356347803
 30
0.0
 11
2.940844918191693
 21
6.930241638987441
 31
0.0
  0
LINE
  5
3131
330
17
100
AcDbEntity
  8
HATCH
100
AcDbLine
 10
2.782444918191691
 20
6.838789356347806
 30
0.0
 11
2.940844918191688
 21
6.930241638987443
 31
0.0
  0
LINE
  5
3132
330
17
100
AcDbEntity
  8
HATCH
100
AcDbLine
 10
2.94084491819169
 20
6.838789356347806
 30
0.0
 11
2.782444918191693
 21
6.930241638987444
 31
0.0
  0
LINE
  5
3133
330
17
100
AcDbEntity
  8
HATCH
100
AcDbLine
 10
3.099244918191692
 20
6.838789356347804
 30
0.0
 11
3.257644918191688
 21
6.930241638987441
 31
0.0
  0
LINE
  5
3134
330
17
100
AcDbEntity
  8
HATCH
100
AcDbLine
 10
3.25764491819169
 20
6.838789356347804
 30
0.0
 11
3.099244918191693
 21
6.930241638987443
 31
0.0
  0
LINE
  5
3135
330
17
100
AcDbEntity
  8
HATCH
100
AcDbLine
 10
3.891244918191693
 20
6.838789356347803
 30
0.0
 11
4.04964491819169
 21
6.930241638987439
 31
0.0
  0
LINE
  5
3136
330
17
100
AcDbEntity
  8
HATCH
100
AcDbLine
 10
4.049644918191692
 20
6.838789356347803
 30
0.0
 11
3.891244918191695
 21
6.930241638987441
 31
0.0
  0
LINE
  5
3137
330
17
100
AcDbEntity
  8
HATCH
100
AcDbLine
 10
3.336844918191694
 20
6.975967780307254
 30
0.0
 11
3.336844918191694
 21
6.793063215027984
 31
0.0
  0
LINE
  5
3138
330
17
100
AcDbEntity
  8
HATCH
100
AcDbLine
 10
3.495244918191691
 20
6.975967780307257
 30
0.0
 11
3.495244918191691
 21
6.793063215027988
 31
0.0
  0
LINE
  5
3139
330
17
100
AcDbEntity
  8
HATCH
100
AcDbLine
 10
3.970444918191693
 20
6.975967780307255
 30
0.0
 11
3.970444918191693
 21
6.793063215027986
 31
0.0
  0
LINE
  5
313A
330
17
100
AcDbEntity
  8
HATCH
100
AcDbLine
 10
3.812044918191691
 20
6.975967780307257
 30
0.0
 11
3.812044918191691
 21
6.793063215027988
 31
0.0
  0
LINE
  5
313B
330
17
100
AcDbEntity
  8
HATCH
100
AcDbLine
 10
3.653644918191693
 20
6.975967780307255
 30
0.0
 11
3.653644918191693
 21
6.793063215027986
 31
0.0
  0
LINE
  5
313C
330
17
100
AcDbEntity
  8
HATCH
100
AcDbLine
 10
3.732844918191691
 20
6.838789356347803
 30
0.0
 11
3.574444918191693
 21
6.930241638987441
 31
0.0
  0
LINE
  5
313D
330
17
100
AcDbEntity
  8
HATCH
100
AcDbLine
 10
3.574444918191693
 20
6.838789356347803
 30
0.0
 11
3.732844918191689
 21
6.930241638987439
 31
0.0
  0
LINE
  5
313E
330
17
100
AcDbEntity
  8
HATCH
100
AcDbLine
 10
3.41604491819169
 20
6.838789356347804
 30
0.0
 11
3.574444918191687
 21
6.930241638987441
 31
0.0
  0
LINE
  5
313F
330
17
100
AcDbEntity
  8
HATCH
100
AcDbLine
 10
3.574444918191689
 20
6.838789356347804
 30
0.0
 11
3.416044918191691
 21
6.930241638987443
 31
0.0
  0
LINE
  5
3140
330
17
100
AcDbEntity
  8
HATCH
100
AcDbLine
 10
3.732844918191691
 20
6.838789356347804
 30
0.0
 11
3.891244918191688
 21
6.930241638987441
 31
0.0
  0
LINE
  5
3141
330
17
100
AcDbEntity
  8
HATCH
100
AcDbLine
 10
3.89124491819169
 20
6.838789356347804
 30
0.0
 11
3.732844918191692
 21
6.930241638987443
 31
0.0
  0
LINE
  5
3142
330
17
100
AcDbEntity
  8
HATCH
100
AcDbLine
 10
4.445644918191693
 20
6.975967780307255
 30
0.0
 11
4.445644918191693
 21
6.793063215027986
 31
0.0
  0
LINE
  5
3143
330
17
100
AcDbEntity
  8
HATCH
100
AcDbLine
 10
4.287244918191694
 20
6.975967780307255
 30
0.0
 11
4.287244918191694
 21
6.793063215027986
 31
0.0
  0
LINE
  5
3144
330
17
100
AcDbEntity
  8
HATCH
100
AcDbLine
 10
4.128844918191692
 20
6.975967780307255
 30
0.0
 11
4.128844918191692
 21
6.793063215027986
 31
0.0
  0
LINE
  5
3145
330
17
100
AcDbEntity
  8
HATCH
100
AcDbLine
 10
4.208044918191694
 20
6.838789356347803
 30
0.0
 11
4.366444918191691
 21
6.930241638987439
 31
0.0
  0
LINE
  5
3146
330
17
100
AcDbEntity
  8
HATCH
100
AcDbLine
 10
4.366444918191692
 20
6.838789356347803
 30
0.0
 11
4.208044918191696
 21
6.930241638987441
 31
0.0
  0
LINE
  5
3147
330
17
100
AcDbEntity
  8
HATCH
100
AcDbLine
 10
4.049644918191692
 20
6.838789356347803
 30
0.0
 11
4.208044918191689
 21
6.930241638987439
 31
0.0
  0
LINE
  5
3148
330
17
100
AcDbEntity
  8
HATCH
100
AcDbLine
 10
4.20804491819169
 20
6.838789356347803
 30
0.0
 11
4.049644918191692
 21
6.930241638987441
 31
0.0
  0
LINE
  5
3149
330
17
100
AcDbEntity
  8
HATCH
100
AcDbLine
 10
4.366444918191692
 20
6.838789356347803
 30
0.0
 11
4.524844918191689
 21
6.930241638987439
 31
0.0
  0
LINE
  5
314A
330
17
100
AcDbEntity
  8
HATCH
100
AcDbLine
 10
4.524844918191691
 20
6.838789356347803
 30
0.0
 11
4.366444918191692
 21
6.930241638987441
 31
0.0
  0
LINE
  5
314B
330
17
100
AcDbEntity
  8
HATCH
100
AcDbLine
 10
4.440982639613386
 20
6.698919164596128
 30
0.0
 11
4.599382639613383
 21
6.790371447235765
 31
0.0
  0
LINE
  5
314C
330
17
100
AcDbEntity
  8
HATCH
100
AcDbLine
 10
4.599382639613384
 20
6.698919164596128
 30
0.0
 11
4.440982639613388
 21
6.790371447235767
 31
0.0
  0
LINE
  5
314D
330
17
100
AcDbEntity
  8
HATCH
100
AcDbLine
 10
3.173782639613389
 20
6.698919164596123
 30
0.0
 11
3.332182639613385
 21
6.790371447235759
 31
0.0
  0
LINE
  5
314E
330
17
100
AcDbEntity
  8
HATCH
100
AcDbLine
 10
3.332182639613387
 20
6.698919164596123
 30
0.0
 11
3.173782639613389
 21
6.790371447235761
 31
0.0
  0
LINE
  5
314F
330
17
100
AcDbEntity
  8
HATCH
100
AcDbLine
 10
2.777782639613386
 20
6.836097588555581
 30
0.0
 11
2.777782639613386
 21
6.653193023276312
 31
0.0
  0
LINE
  5
3150
330
17
100
AcDbEntity
  8
HATCH
100
AcDbLine
 10
2.936182639613388
 20
6.836097588555578
 30
0.0
 11
2.936182639613388
 21
6.653193023276308
 31
0.0
  0
LINE
  5
3151
330
17
100
AcDbEntity
  8
HATCH
100
AcDbLine
 10
3.094582639613387
 20
6.836097588555579
 30
0.0
 11
3.094582639613387
 21
6.65319302327631
 31
0.0
  0
LINE
  5
3152
330
17
100
AcDbEntity
  8
HATCH
100
AcDbLine
 10
2.856982639613388
 20
6.698919164596125
 30
0.0
 11
3.015382639613385
 21
6.790371447235761
 31
0.0
  0
LINE
  5
3153
330
17
100
AcDbEntity
  8
HATCH
100
AcDbLine
 10
3.015382639613386
 20
6.698919164596125
 30
0.0
 11
2.856982639613388
 21
6.790371447235763
 31
0.0
  0
LINE
  5
3154
330
17
100
AcDbEntity
  8
HATCH
100
AcDbLine
 10
2.698582639613386
 20
6.698919164596128
 30
0.0
 11
2.856982639613383
 21
6.790371447235765
 31
0.0
  0
LINE
  5
3155
330
17
100
AcDbEntity
  8
HATCH
100
AcDbLine
 10
2.856982639613384
 20
6.698919164596128
 30
0.0
 11
2.698582639613388
 21
6.790371447235767
 31
0.0
  0
LINE
  5
3156
330
17
100
AcDbEntity
  8
HATCH
100
AcDbLine
 10
3.015382639613386
 20
6.698919164596127
 30
0.0
 11
3.173782639613383
 21
6.790371447235763
 31
0.0
  0
LINE
  5
3157
330
17
100
AcDbEntity
  8
HATCH
100
AcDbLine
 10
3.173782639613385
 20
6.698919164596127
 30
0.0
 11
3.015382639613387
 21
6.790371447235765
 31
0.0
  0
LINE
  5
3158
330
17
100
AcDbEntity
  8
HATCH
100
AcDbLine
 10
3.807382639613388
 20
6.698919164596125
 30
0.0
 11
3.965782639613385
 21
6.790371447235761
 31
0.0
  0
LINE
  5
3159
330
17
100
AcDbEntity
  8
HATCH
100
AcDbLine
 10
3.965782639613387
 20
6.698919164596125
 30
0.0
 11
3.80738263961339
 21
6.790371447235763
 31
0.0
  0
LINE
  5
315A
330
17
100
AcDbEntity
  8
HATCH
100
AcDbLine
 10
3.252982639613389
 20
6.836097588555576
 30
0.0
 11
3.252982639613389
 21
6.653193023276307
 31
0.0
  0
LINE
  5
315B
330
17
100
AcDbEntity
  8
HATCH
100
AcDbLine
 10
3.411382639613385
 20
6.836097588555579
 30
0.0
 11
3.411382639613385
 21
6.65319302327631
 31
0.0
  0
LINE
  5
315C
330
17
100
AcDbEntity
  8
HATCH
100
AcDbLine
 10
3.886582639613388
 20
6.836097588555578
 30
0.0
 11
3.886582639613388
 21
6.653193023276308
 31
0.0
  0
LINE
  5
315D
330
17
100
AcDbEntity
  8
HATCH
100
AcDbLine
 10
3.728182639613386
 20
6.836097588555579
 30
0.0
 11
3.728182639613386
 21
6.65319302327631
 31
0.0
  0
LINE
  5
315E
330
17
100
AcDbEntity
  8
HATCH
100
AcDbLine
 10
3.569782639613388
 20
6.836097588555578
 30
0.0
 11
3.569782639613388
 21
6.653193023276308
 31
0.0
  0
LINE
  5
315F
330
17
100
AcDbEntity
  8
HATCH
100
AcDbLine
 10
3.648982639613386
 20
6.698919164596125
 30
0.0
 11
3.490582639613388
 21
6.790371447235763
 31
0.0
  0
LINE
  5
3160
330
17
100
AcDbEntity
  8
HATCH
100
AcDbLine
 10
3.490582639613387
 20
6.698919164596125
 30
0.0
 11
3.648982639613384
 21
6.790371447235761
 31
0.0
  0
LINE
  5
3161
330
17
100
AcDbEntity
  8
HATCH
100
AcDbLine
 10
3.332182639613385
 20
6.698919164596127
 30
0.0
 11
3.490582639613382
 21
6.790371447235763
 31
0.0
  0
LINE
  5
3162
330
17
100
AcDbEntity
  8
HATCH
100
AcDbLine
 10
3.490582639613384
 20
6.698919164596127
 30
0.0
 11
3.332182639613386
 21
6.790371447235765
 31
0.0
  0
LINE
  5
3163
330
17
100
AcDbEntity
  8
HATCH
100
AcDbLine
 10
3.648982639613386
 20
6.698919164596127
 30
0.0
 11
3.807382639613383
 21
6.790371447235763
 31
0.0
  0
LINE
  5
3164
330
17
100
AcDbEntity
  8
HATCH
100
AcDbLine
 10
3.807382639613384
 20
6.698919164596127
 30
0.0
 11
3.648982639613387
 21
6.790371447235765
 31
0.0
  0
LINE
  5
3165
330
17
100
AcDbEntity
  8
HATCH
100
AcDbLine
 10
4.520182639613386
 20
6.836097588555581
 30
0.0
 11
4.520182639613386
 21
6.653193023276312
 31
0.0
  0
LINE
  5
3166
330
17
100
AcDbEntity
  8
HATCH
100
AcDbLine
 10
4.361782639613387
 20
6.836097588555578
 30
0.0
 11
4.361782639613387
 21
6.653193023276308
 31
0.0
  0
LINE
  5
3167
330
17
100
AcDbEntity
  8
HATCH
100
AcDbLine
 10
4.203382639613389
 20
6.836097588555578
 30
0.0
 11
4.203382639613389
 21
6.653193023276308
 31
0.0
  0
LINE
  5
3168
330
17
100
AcDbEntity
  8
HATCH
100
AcDbLine
 10
4.044982639613387
 20
6.836097588555578
 30
0.0
 11
4.044982639613387
 21
6.653193023276308
 31
0.0
  0
LINE
  5
3169
330
17
100
AcDbEntity
  8
HATCH
100
AcDbLine
 10
4.124182639613389
 20
6.698919164596125
 30
0.0
 11
4.282582639613385
 21
6.790371447235761
 31
0.0
  0
LINE
  5
316A
330
17
100
AcDbEntity
  8
HATCH
100
AcDbLine
 10
4.282582639613387
 20
6.698919164596125
 30
0.0
 11
4.12418263961339
 21
6.790371447235763
 31
0.0
  0
LINE
  5
316B
330
17
100
AcDbEntity
  8
HATCH
100
AcDbLine
 10
3.965782639613387
 20
6.698919164596125
 30
0.0
 11
4.124182639613383
 21
6.790371447235761
 31
0.0
  0
LINE
  5
316C
330
17
100
AcDbEntity
  8
HATCH
100
AcDbLine
 10
4.124182639613385
 20
6.698919164596125
 30
0.0
 11
3.965782639613387
 21
6.790371447235763
 31
0.0
  0
LINE
  5
316D
330
17
100
AcDbEntity
  8
HATCH
100
AcDbLine
 10
4.282582639613387
 20
6.698919164596125
 30
0.0
 11
4.440982639613384
 21
6.790371447235761
 31
0.0
  0
LINE
  5
316E
330
17
100
AcDbEntity
  8
HATCH
100
AcDbLine
 10
4.440982639613386
 20
6.698919164596125
 30
0.0
 11
4.282582639613387
 21
6.790371447235763
 31
0.0
  0
LINE
  5
316F
330
17
100
AcDbEntity
  8
HATCH
100
AcDbLine
 10
3.25298263961339
 20
6.561740740636667
 30
0.0
 11
3.411382639613387
 21
6.653193023276304
 31
0.0
  0
LINE
  5
3170
330
17
100
AcDbEntity
  8
HATCH
100
AcDbLine
 10
3.411382639613389
 20
6.561740740636667
 30
0.0
 11
3.252982639613391
 21
6.653193023276306
 31
0.0
  0
LINE
  5
3171
330
17
100
AcDbEntity
  8
HATCH
100
AcDbLine
 10
2.856982639613388
 20
6.698919164596126
 30
0.0
 11
2.856982639613388
 21
6.516014599316856
 31
0.0
  0
LINE
  5
3172
330
17
100
AcDbEntity
  8
HATCH
100
AcDbLine
 10
3.01538263961339
 20
6.698919164596122
 30
0.0
 11
3.01538263961339
 21
6.516014599316853
 31
0.0
  0
LINE
  5
3173
330
17
100
AcDbEntity
  8
HATCH
100
AcDbLine
 10
3.173782639613389
 20
6.698919164596124
 30
0.0
 11
3.173782639613389
 21
6.516014599316855
 31
0.0
  0
LINE
  5
3174
330
17
100
AcDbEntity
  8
HATCH
100
AcDbLine
 10
2.93618263961339
 20
6.561740740636669
 30
0.0
 11
3.094582639613387
 21
6.653193023276306
 31
0.0
  0
LINE
  5
3175
330
17
100
AcDbEntity
  8
HATCH
100
AcDbLine
 10
3.094582639613388
 20
6.561740740636669
 30
0.0
 11
2.936182639613392
 21
6.653193023276307
 31
0.0
  0
LINE
  5
3176
330
17
100
AcDbEntity
  8
HATCH
100
AcDbLine
 10
2.777782639613388
 20
6.561740740636673
 30
0.0
 11
2.936182639613384
 21
6.653193023276309
 31
0.0
  0
LINE
  5
3177
330
17
100
AcDbEntity
  8
HATCH
100
AcDbLine
 10
2.936182639613386
 20
6.561740740636673
 30
0.0
 11
2.777782639613388
 21
6.653193023276311
 31
0.0
  0
LINE
  5
3178
330
17
100
AcDbEntity
  8
HATCH
100
AcDbLine
 10
3.094582639613388
 20
6.561740740636671
 30
0.0
 11
3.252982639613385
 21
6.653193023276307
 31
0.0
  0
LINE
  5
3179
330
17
100
AcDbEntity
  8
HATCH
100
AcDbLine
 10
3.252982639613387
 20
6.561740740636671
 30
0.0
 11
3.094582639613389
 21
6.653193023276309
 31
0.0
  0
LINE
  5
317A
330
17
100
AcDbEntity
  8
HATCH
100
AcDbLine
 10
3.88658263961339
 20
6.561740740636669
 30
0.0
 11
4.044982639613387
 21
6.653193023276306
 31
0.0
  0
LINE
  5
317B
330
17
100
AcDbEntity
  8
HATCH
100
AcDbLine
 10
4.044982639613388
 20
6.561740740636669
 30
0.0
 11
3.88658263961339
 21
6.653193023276307
 31
0.0
  0
LINE
  5
317C
330
17
100
AcDbEntity
  8
HATCH
100
AcDbLine
 10
3.332182639613391
 20
6.69891916459612
 30
0.0
 11
3.332182639613391
 21
6.516014599316851
 31
0.0
  0
LINE
  5
317D
330
17
100
AcDbEntity
  8
HATCH
100
AcDbLine
 10
3.490582639613387
 20
6.698919164596124
 30
0.0
 11
3.490582639613387
 21
6.516014599316855
 31
0.0
  0
LINE
  5
317E
330
17
100
AcDbEntity
  8
HATCH
100
AcDbLine
 10
3.96578263961339
 20
6.698919164596122
 30
0.0
 11
3.96578263961339
 21
6.516014599316853
 31
0.0
  0
LINE
  5
317F
330
17
100
AcDbEntity
  8
HATCH
100
AcDbLine
 10
3.807382639613388
 20
6.698919164596124
 30
0.0
 11
3.807382639613388
 21
6.516014599316855
 31
0.0
  0
LINE
  5
3180
330
17
100
AcDbEntity
  8
HATCH
100
AcDbLine
 10
3.648982639613389
 20
6.698919164596122
 30
0.0
 11
3.648982639613389
 21
6.516014599316853
 31
0.0
  0
LINE
  5
3181
330
17
100
AcDbEntity
  8
HATCH
100
AcDbLine
 10
3.728182639613388
 20
6.561740740636669
 30
0.0
 11
3.56978263961339
 21
6.653193023276307
 31
0.0
  0
LINE
  5
3182
330
17
100
AcDbEntity
  8
HATCH
100
AcDbLine
 10
3.569782639613389
 20
6.561740740636669
 30
0.0
 11
3.728182639613386
 21
6.653193023276306
 31
0.0
  0
LINE
  5
3183
330
17
100
AcDbEntity
  8
HATCH
100
AcDbLine
 10
3.411382639613387
 20
6.561740740636671
 30
0.0
 11
3.569782639613384
 21
6.653193023276307
 31
0.0
  0
LINE
  5
3184
330
17
100
AcDbEntity
  8
HATCH
100
AcDbLine
 10
3.569782639613386
 20
6.561740740636671
 30
0.0
 11
3.411382639613388
 21
6.653193023276309
 31
0.0
  0
LINE
  5
3185
330
17
100
AcDbEntity
  8
HATCH
100
AcDbLine
 10
3.728182639613388
 20
6.561740740636671
 30
0.0
 11
3.886582639613385
 21
6.653193023276307
 31
0.0
  0
LINE
  5
3186
330
17
100
AcDbEntity
  8
HATCH
100
AcDbLine
 10
3.886582639613386
 20
6.561740740636671
 30
0.0
 11
3.728182639613389
 21
6.653193023276309
 31
0.0
  0
LINE
  5
3187
330
17
100
AcDbEntity
  8
HATCH
100
AcDbLine
 10
4.440982639613389
 20
6.698919164596122
 30
0.0
 11
4.440982639613389
 21
6.516014599316853
 31
0.0
  0
LINE
  5
3188
330
17
100
AcDbEntity
  8
HATCH
100
AcDbLine
 10
4.282582639613391
 20
6.698919164596122
 30
0.0
 11
4.282582639613391
 21
6.516014599316853
 31
0.0
  0
LINE
  5
3189
330
17
100
AcDbEntity
  8
HATCH
100
AcDbLine
 10
4.124182639613389
 20
6.698919164596122
 30
0.0
 11
4.124182639613389
 21
6.516014599316853
 31
0.0
  0
LINE
  5
318A
330
17
100
AcDbEntity
  8
HATCH
100
AcDbLine
 10
4.203382639613391
 20
6.561740740636669
 30
0.0
 11
4.361782639613387
 21
6.653193023276306
 31
0.0
  0
LINE
  5
318B
330
17
100
AcDbEntity
  8
HATCH
100
AcDbLine
 10
4.361782639613389
 20
6.561740740636669
 30
0.0
 11
4.203382639613391
 21
6.653193023276307
 31
0.0
  0
LINE
  5
318C
330
17
100
AcDbEntity
  8
HATCH
100
AcDbLine
 10
4.044982639613388
 20
6.561740740636669
 30
0.0
 11
4.203382639613385
 21
6.653193023276306
 31
0.0
  0
LINE
  5
318D
330
17
100
AcDbEntity
  8
HATCH
100
AcDbLine
 10
4.203382639613387
 20
6.561740740636669
 30
0.0
 11
4.04498263961339
 21
6.653193023276307
 31
0.0
  0
LINE
  5
318E
330
17
100
AcDbEntity
  8
HATCH
100
AcDbLine
 10
4.361782639613389
 20
6.561740740636669
 30
0.0
 11
4.520182639613386
 21
6.653193023276306
 31
0.0
  0
LINE
  5
318F
330
17
100
AcDbEntity
  8
HATCH
100
AcDbLine
 10
4.520182639613388
 20
6.561740740636669
 30
0.0
 11
4.361782639613391
 21
6.653193023276307
 31
0.0
  0
LINE
  5
3190
330
17
100
AcDbEntity
  8
HATCH
100
AcDbLine
 10
4.440982639613384
 20
6.424562316677215
 30
0.0
 11
4.599382639613381
 21
6.516014599316851
 31
0.0
  0
LINE
  5
3191
330
17
100
AcDbEntity
  8
HATCH
100
AcDbLine
 10
4.599382639613383
 20
6.424562316677215
 30
0.0
 11
4.440982639613384
 21
6.516014599316853
 31
0.0
  0
LINE
  5
3192
330
17
100
AcDbEntity
  8
HATCH
100
AcDbLine
 10
3.173782639613387
 20
6.424562316677209
 30
0.0
 11
3.332182639613384
 21
6.516014599316846
 31
0.0
  0
LINE
  5
3193
330
17
100
AcDbEntity
  8
HATCH
100
AcDbLine
 10
3.332182639613385
 20
6.424562316677209
 30
0.0
 11
3.173782639613388
 21
6.516014599316847
 31
0.0
  0
LINE
  5
3194
330
17
100
AcDbEntity
  8
HATCH
100
AcDbLine
 10
2.777782639613384
 20
6.561740740636667
 30
0.0
 11
2.777782639613384
 21
6.378836175357398
 31
0.0
  0
LINE
  5
3195
330
17
100
AcDbEntity
  8
HATCH
100
AcDbLine
 10
2.936182639613386
 20
6.561740740636664
 30
0.0
 11
2.936182639613386
 21
6.378836175357394
 31
0.0
  0
LINE
  5
3196
330
17
100
AcDbEntity
  8
HATCH
100
AcDbLine
 10
3.094582639613385
 20
6.561740740636666
 30
0.0
 11
3.094582639613385
 21
6.378836175357396
 31
0.0
  0
LINE
  5
3197
330
17
100
AcDbEntity
  8
HATCH
100
AcDbLine
 10
2.856982639613386
 20
6.424562316677211
 30
0.0
 11
3.015382639613383
 21
6.516014599316847
 31
0.0
  0
LINE
  5
3198
330
17
100
AcDbEntity
  8
HATCH
100
AcDbLine
 10
3.015382639613385
 20
6.424562316677211
 30
0.0
 11
2.856982639613388
 21
6.516014599316849
 31
0.0
  0
LINE
  5
3199
330
17
100
AcDbEntity
  8
HATCH
100
AcDbLine
 10
2.698582639613384
 20
6.424562316677215
 30
0.0
 11
2.856982639613381
 21
6.516014599316851
 31
0.0
  0
LINE
  5
319A
330
17
100
AcDbEntity
  8
HATCH
100
AcDbLine
 10
2.856982639613383
 20
6.424562316677215
 30
0.0
 11
2.698582639613384
 21
6.516014599316853
 31
0.0
  0
LINE
  5
319B
330
17
100
AcDbEntity
  8
HATCH
100
AcDbLine
 10
3.015382639613385
 20
6.424562316677213
 30
0.0
 11
3.173782639613381
 21
6.516014599316849
 31
0.0
  0
LINE
  5
319C
330
17
100
AcDbEntity
  8
HATCH
100
AcDbLine
 10
3.173782639613383
 20
6.424562316677213
 30
0.0
 11
3.015382639613386
 21
6.516014599316851
 31
0.0
  0
LINE
  5
319D
330
17
100
AcDbEntity
  8
HATCH
100
AcDbLine
 10
3.807382639613386
 20
6.424562316677211
 30
0.0
 11
3.965782639613383
 21
6.516014599316847
 31
0.0
  0
LINE
  5
319E
330
17
100
AcDbEntity
  8
HATCH
100
AcDbLine
 10
3.965782639613385
 20
6.424562316677211
 30
0.0
 11
3.807382639613386
 21
6.516014599316849
 31
0.0
  0
LINE
  5
319F
330
17
100
AcDbEntity
  8
HATCH
100
AcDbLine
 10
3.252982639613387
 20
6.561740740636662
 30
0.0
 11
3.252982639613387
 21
6.378836175357393
 31
0.0
  0
LINE
  5
31A0
330
17
100
AcDbEntity
  8
HATCH
100
AcDbLine
 10
3.411382639613384
 20
6.561740740636666
 30
0.0
 11
3.411382639613384
 21
6.378836175357396
 31
0.0
  0
LINE
  5
31A1
330
17
100
AcDbEntity
  8
HATCH
100
AcDbLine
 10
3.886582639613386
 20
6.561740740636664
 30
0.0
 11
3.886582639613386
 21
6.378836175357394
 31
0.0
  0
LINE
  5
31A2
330
17
100
AcDbEntity
  8
HATCH
100
AcDbLine
 10
3.728182639613384
 20
6.561740740636666
 30
0.0
 11
3.728182639613384
 21
6.378836175357396
 31
0.0
  0
LINE
  5
31A3
330
17
100
AcDbEntity
  8
HATCH
100
AcDbLine
 10
3.569782639613386
 20
6.561740740636664
 30
0.0
 11
3.569782639613386
 21
6.378836175357394
 31
0.0
  0
LINE
  5
31A4
330
17
100
AcDbEntity
  8
HATCH
100
AcDbLine
 10
3.648982639613384
 20
6.424562316677211
 30
0.0
 11
3.490582639613386
 21
6.516014599316849
 31
0.0
  0
LINE
  5
31A5
330
17
100
AcDbEntity
  8
HATCH
100
AcDbLine
 10
3.490582639613386
 20
6.424562316677211
 30
0.0
 11
3.648982639613382
 21
6.516014599316847
 31
0.0
  0
LINE
  5
31A6
330
17
100
AcDbEntity
  8
HATCH
100
AcDbLine
 10
3.332182639613384
 20
6.424562316677213
 30
0.0
 11
3.49058263961338
 21
6.516014599316849
 31
0.0
  0
LINE
  5
31A7
330
17
100
AcDbEntity
  8
HATCH
100
AcDbLine
 10
3.490582639613382
 20
6.424562316677213
 30
0.0
 11
3.332182639613384
 21
6.516014599316851
 31
0.0
  0
LINE
  5
31A8
330
17
100
AcDbEntity
  8
HATCH
100
AcDbLine
 10
3.648982639613384
 20
6.424562316677213
 30
0.0
 11
3.807382639613381
 21
6.516014599316849
 31
0.0
  0
LINE
  5
31A9
330
17
100
AcDbEntity
  8
HATCH
100
AcDbLine
 10
3.807382639613383
 20
6.424562316677213
 30
0.0
 11
3.648982639613385
 21
6.516014599316851
 31
0.0
  0
LINE
  5
31AA
330
17
100
AcDbEntity
  8
HATCH
100
AcDbLine
 10
4.520182639613384
 20
6.561740740636667
 30
0.0
 11
4.520182639613384
 21
6.378836175357398
 31
0.0
  0
LINE
  5
31AB
330
17
100
AcDbEntity
  8
HATCH
100
AcDbLine
 10
4.361782639613386
 20
6.561740740636664
 30
0.0
 11
4.361782639613386
 21
6.378836175357394
 31
0.0
  0
LINE
  5
31AC
330
17
100
AcDbEntity
  8
HATCH
100
AcDbLine
 10
4.203382639613387
 20
6.561740740636664
 30
0.0
 11
4.203382639613387
 21
6.378836175357394
 31
0.0
  0
LINE
  5
31AD
330
17
100
AcDbEntity
  8
HATCH
100
AcDbLine
 10
4.044982639613385
 20
6.561740740636664
 30
0.0
 11
4.044982639613385
 21
6.378836175357394
 31
0.0
  0
LINE
  5
31AE
330
17
100
AcDbEntity
  8
HATCH
100
AcDbLine
 10
4.124182639613387
 20
6.424562316677211
 30
0.0
 11
4.282582639613384
 21
6.516014599316847
 31
0.0
  0
LINE
  5
31AF
330
17
100
AcDbEntity
  8
HATCH
100
AcDbLine
 10
4.282582639613385
 20
6.424562316677211
 30
0.0
 11
4.124182639613387
 21
6.516014599316849
 31
0.0
  0
LINE
  5
31B0
330
17
100
AcDbEntity
  8
HATCH
100
AcDbLine
 10
3.965782639613385
 20
6.424562316677211
 30
0.0
 11
4.124182639613382
 21
6.516014599316847
 31
0.0
  0
LINE
  5
31B1
330
17
100
AcDbEntity
  8
HATCH
100
AcDbLine
 10
4.124182639613383
 20
6.424562316677211
 30
0.0
 11
3.965782639613387
 21
6.516014599316849
 31
0.0
  0
LINE
  5
31B2
330
17
100
AcDbEntity
  8
HATCH
100
AcDbLine
 10
4.282582639613385
 20
6.424562316677211
 30
0.0
 11
4.440982639613382
 21
6.516014599316847
 31
0.0
  0
LINE
  5
31B3
330
17
100
AcDbEntity
  8
HATCH
100
AcDbLine
 10
4.440982639613384
 20
6.424562316677211
 30
0.0
 11
4.282582639613387
 21
6.516014599316849
 31
0.0
  0
LINE
  5
31B4
330
17
100
AcDbEntity
  8
HATCH
100
AcDbLine
 10
3.25764491819169
 20
6.290075660509967
 30
0.0
 11
3.416044918191687
 21
6.381527943149603
 31
0.0
  0
LINE
  5
31B5
330
17
100
AcDbEntity
  8
HATCH
100
AcDbLine
 10
3.416044918191689
 20
6.290075660509967
 30
0.0
 11
3.257644918191691
 21
6.381527943149605
 31
0.0
  0
LINE
  5
31B6
330
17
100
AcDbEntity
  8
HATCH
100
AcDbLine
 10
2.861644918191688
 20
6.427254084469425
 30
0.0
 11
2.861644918191688
 21
6.244349519190156
 31
0.0
  0
LINE
  5
31B7
330
17
100
AcDbEntity
  8
HATCH
100
AcDbLine
 10
3.02004491819169
 20
6.427254084469422
 30
0.0
 11
3.02004491819169
 21
6.244349519190152
 31
0.0
  0
LINE
  5
31B8
330
17
100
AcDbEntity
  8
HATCH
100
AcDbLine
 10
3.178444918191688
 20
6.427254084469423
 30
0.0
 11
3.178444918191688
 21
6.244349519190154
 31
0.0
  0
LINE
  5
31B9
330
17
100
AcDbEntity
  8
HATCH
100
AcDbLine
 10
2.94084491819169
 20
6.290075660509969
 30
0.0
 11
3.099244918191686
 21
6.381527943149605
 31
0.0
  0
LINE
  5
31BA
330
17
100
AcDbEntity
  8
HATCH
100
AcDbLine
 10
3.099244918191688
 20
6.290075660509969
 30
0.0
 11
2.94084491819169
 21
6.381527943149607
 31
0.0
  0
LINE
  5
31BB
330
17
100
AcDbEntity
  8
HATCH
100
AcDbLine
 10
2.782444918191687
 20
6.290075660509972
 30
0.0
 11
2.940844918191684
 21
6.381527943149609
 31
0.0
  0
LINE
  5
31BC
330
17
100
AcDbEntity
  8
HATCH
100
AcDbLine
 10
2.940844918191686
 20
6.290075660509972
 30
0.0
 11
2.782444918191689
 21
6.381527943149611
 31
0.0
  0
LINE
  5
31BD
330
17
100
AcDbEntity
  8
HATCH
100
AcDbLine
 10
3.099244918191688
 20
6.290075660509971
 30
0.0
 11
3.257644918191685
 21
6.381527943149607
 31
0.0
  0
LINE
  5
31BE
330
17
100
AcDbEntity
  8
HATCH
100
AcDbLine
 10
3.257644918191687
 20
6.290075660509971
 30
0.0
 11
3.099244918191689
 21
6.381527943149609
 31
0.0
  0
LINE
  5
31BF
330
17
100
AcDbEntity
  8
HATCH
100
AcDbLine
 10
3.89124491819169
 20
6.290075660509973
 30
0.0
 11
4.049644918191686
 21
6.38152794314961
 31
0.0
  0
LINE
  5
31C0
330
17
100
AcDbEntity
  8
HATCH
100
AcDbLine
 10
4.049644918191688
 20
6.290075660509973
 30
0.0
 11
3.891244918191691
 21
6.381527943149611
 31
0.0
  0
LINE
  5
31C1
330
17
100
AcDbEntity
  8
HATCH
100
AcDbLine
 10
3.33684491819169
 20
6.42725408446942
 30
0.0
 11
3.33684491819169
 21
6.244349519190151
 31
0.0
  0
LINE
  5
31C2
330
17
100
AcDbEntity
  8
HATCH
100
AcDbLine
 10
3.495244918191687
 20
6.427254084469423
 30
0.0
 11
3.495244918191687
 21
6.244349519190154
 31
0.0
  0
LINE
  5
31C3
330
17
100
AcDbEntity
  8
HATCH
100
AcDbLine
 10
3.97044491819169
 20
6.427254084469426
 30
0.0
 11
3.97044491819169
 21
6.244349519190157
 31
0.0
  0
LINE
  5
31C4
330
17
100
AcDbEntity
  8
HATCH
100
AcDbLine
 10
3.812044918191688
 20
6.427254084469428
 30
0.0
 11
3.812044918191688
 21
6.244349519190159
 31
0.0
  0
LINE
  5
31C5
330
17
100
AcDbEntity
  8
HATCH
100
AcDbLine
 10
3.653644918191689
 20
6.427254084469426
 30
0.0
 11
3.653644918191689
 21
6.244349519190157
 31
0.0
  0
LINE
  5
31C6
330
17
100
AcDbEntity
  8
HATCH
100
AcDbLine
 10
3.732844918191688
 20
6.290075660509973
 30
0.0
 11
3.57444491819169
 21
6.381527943149611
 31
0.0
  0
LINE
  5
31C7
330
17
100
AcDbEntity
  8
HATCH
100
AcDbLine
 10
3.574444918191689
 20
6.290075660509973
 30
0.0
 11
3.732844918191686
 21
6.38152794314961
 31
0.0
  0
LINE
  5
31C8
330
17
100
AcDbEntity
  8
HATCH
100
AcDbLine
 10
3.416044918191687
 20
6.290075660509971
 30
0.0
 11
3.574444918191684
 21
6.381527943149607
 31
0.0
  0
LINE
  5
31C9
330
17
100
AcDbEntity
  8
HATCH
100
AcDbLine
 10
3.574444918191685
 20
6.290075660509971
 30
0.0
 11
3.416044918191688
 21
6.381527943149609
 31
0.0
  0
LINE
  5
31CA
330
17
100
AcDbEntity
  8
HATCH
100
AcDbLine
 10
3.732844918191688
 20
6.290075660509975
 30
0.0
 11
3.891244918191684
 21
6.381527943149611
 31
0.0
  0
LINE
  5
31CB
330
17
100
AcDbEntity
  8
HATCH
100
AcDbLine
 10
3.891244918191686
 20
6.290075660509975
 30
0.0
 11
3.732844918191688
 21
6.381527943149613
 31
0.0
  0
LINE
  5
31CC
330
17
100
AcDbEntity
  8
HATCH
100
AcDbLine
 10
4.445644918191689
 20
6.427254084469426
 30
0.0
 11
4.445644918191689
 21
6.244349519190157
 31
0.0
  0
LINE
  5
31CD
330
17
100
AcDbEntity
  8
HATCH
100
AcDbLine
 10
4.28724491819169
 20
6.427254084469426
 30
0.0
 11
4.28724491819169
 21
6.244349519190157
 31
0.0
  0
LINE
  5
31CE
330
17
100
AcDbEntity
  8
HATCH
100
AcDbLine
 10
4.128844918191688
 20
6.427254084469426
 30
0.0
 11
4.128844918191688
 21
6.244349519190157
 31
0.0
  0
LINE
  5
31CF
330
17
100
AcDbEntity
  8
HATCH
100
AcDbLine
 10
4.20804491819169
 20
6.290075660509973
 30
0.0
 11
4.366444918191687
 21
6.38152794314961
 31
0.0
  0
LINE
  5
31D0
330
17
100
AcDbEntity
  8
HATCH
100
AcDbLine
 10
4.366444918191689
 20
6.290075660509973
 30
0.0
 11
4.208044918191692
 21
6.381527943149611
 31
0.0
  0
LINE
  5
31D1
330
17
100
AcDbEntity
  8
HATCH
100
AcDbLine
 10
4.049644918191688
 20
6.290075660509973
 30
0.0
 11
4.208044918191685
 21
6.38152794314961
 31
0.0
  0
LINE
  5
31D2
330
17
100
AcDbEntity
  8
HATCH
100
AcDbLine
 10
4.208044918191687
 20
6.290075660509973
 30
0.0
 11
4.049644918191688
 21
6.381527943149611
 31
0.0
  0
LINE
  5
31D3
330
17
100
AcDbEntity
  8
HATCH
100
AcDbLine
 10
4.366444918191689
 20
6.290075660509973
 30
0.0
 11
4.524844918191686
 21
6.38152794314961
 31
0.0
  0
LINE
  5
31D4
330
17
100
AcDbEntity
  8
HATCH
100
AcDbLine
 10
4.524844918191687
 20
6.290075660509973
 30
0.0
 11
4.366444918191689
 21
6.381527943149611
 31
0.0
  0
LINE
  5
31D5
330
17
100
AcDbEntity
  8
HATCH
100
AcDbLine
 10
3.490582639613386
 20
6.150205468758296
 30
0.0
 11
3.648982639613382
 21
6.241657751397933
 31
0.0
  0
LINE
  5
31D6
330
17
100
AcDbEntity
  8
HATCH
100
AcDbLine
 10
3.648982639613384
 20
6.150205468758296
 30
0.0
 11
3.490582639613386
 21
6.241657751397934
 31
0.0
  0
LINE
  5
31D7
330
17
100
AcDbEntity
  8
HATCH
100
AcDbLine
 10
3.094582639613383
 20
6.287383892717751
 30
0.0
 11
3.094582639613383
 21
6.104479327438482
 31
0.0
  0
LINE
  5
31D8
330
17
100
AcDbEntity
  8
HATCH
100
AcDbLine
 10
3.252982639613385
 20
6.287383892717747
 30
0.0
 11
3.252982639613385
 21
6.104479327438478
 31
0.0
  0
LINE
  5
31D9
330
17
100
AcDbEntity
  8
HATCH
100
AcDbLine
 10
3.411382639613384
 20
6.287383892717749
 30
0.0
 11
3.411382639613384
 21
6.10447932743848
 31
0.0
  0
LINE
  5
31DA
330
17
100
AcDbEntity
  8
HATCH
100
AcDbLine
 10
3.173782639613385
 20
6.150205468758294
 30
0.0
 11
3.332182639613382
 21
6.241657751397931
 31
0.0
  0
LINE
  5
31DB
330
17
100
AcDbEntity
  8
HATCH
100
AcDbLine
 10
3.332182639613384
 20
6.150205468758294
 30
0.0
 11
3.173782639613386
 21
6.241657751397933
 31
0.0
  0
LINE
  5
31DC
330
17
100
AcDbEntity
  8
HATCH
100
AcDbLine
 10
3.015382639613383
 20
6.150205468758298
 30
0.0
 11
3.17378263961338
 21
6.241657751397934
 31
0.0
  0
LINE
  5
31DD
330
17
100
AcDbEntity
  8
HATCH
100
AcDbLine
 10
3.173782639613381
 20
6.150205468758298
 30
0.0
 11
3.015382639613384
 21
6.241657751397936
 31
0.0
  0
LINE
  5
31DE
330
17
100
AcDbEntity
  8
HATCH
100
AcDbLine
 10
3.332182639613384
 20
6.150205468758296
 30
0.0
 11
3.49058263961338
 21
6.241657751397933
 31
0.0
  0
LINE
  5
31DF
330
17
100
AcDbEntity
  8
HATCH
100
AcDbLine
 10
3.490582639613382
 20
6.150205468758296
 30
0.0
 11
3.332182639613384
 21
6.241657751397934
 31
0.0
  0
LINE
  5
31E0
330
17
100
AcDbEntity
  8
HATCH
100
AcDbLine
 10
4.124182639613385
 20
6.150205468758298
 30
0.0
 11
4.282582639613382
 21
6.241657751397934
 31
0.0
  0
LINE
  5
31E1
330
17
100
AcDbEntity
  8
HATCH
100
AcDbLine
 10
4.282582639613384
 20
6.150205468758298
 30
0.0
 11
4.124182639613387
 21
6.241657751397936
 31
0.0
  0
LINE
  5
31E2
330
17
100
AcDbEntity
  8
HATCH
100
AcDbLine
 10
3.569782639613386
 20
6.287383892717749
 30
0.0
 11
3.569782639613386
 21
6.10447932743848
 31
0.0
  0
LINE
  5
31E3
330
17
100
AcDbEntity
  8
HATCH
100
AcDbLine
 10
3.728182639613383
 20
6.287383892717753
 30
0.0
 11
3.728182639613383
 21
6.104479327438483
 31
0.0
  0
LINE
  5
31E4
330
17
100
AcDbEntity
  8
HATCH
100
AcDbLine
 10
4.203382639613385
 20
6.287383892717751
 30
0.0
 11
4.203382639613385
 21
6.104479327438482
 31
0.0
  0
LINE
  5
31E5
330
17
100
AcDbEntity
  8
HATCH
100
AcDbLine
 10
4.044982639613383
 20
6.287383892717753
 30
0.0
 11
4.044982639613383
 21
6.104479327438483
 31
0.0
  0
LINE
  5
31E6
330
17
100
AcDbEntity
  8
HATCH
100
AcDbLine
 10
3.886582639613385
 20
6.287383892717751
 30
0.0
 11
3.886582639613385
 21
6.104479327438482
 31
0.0
  0
LINE
  5
31E7
330
17
100
AcDbEntity
  8
HATCH
100
AcDbLine
 10
3.965782639613383
 20
6.150205468758298
 30
0.0
 11
3.807382639613386
 21
6.241657751397936
 31
0.0
  0
LINE
  5
31E8
330
17
100
AcDbEntity
  8
HATCH
100
AcDbLine
 10
3.807382639613384
 20
6.150205468758298
 30
0.0
 11
3.965782639613381
 21
6.241657751397934
 31
0.0
  0
LINE
  5
31E9
330
17
100
AcDbEntity
  8
HATCH
100
AcDbLine
 10
3.648982639613382
 20
6.1502054687583
 30
0.0
 11
3.807382639613379
 21
6.241657751397936
 31
0.0
  0
LINE
  5
31EA
330
17
100
AcDbEntity
  8
HATCH
100
AcDbLine
 10
3.807382639613381
 20
6.1502054687583
 30
0.0
 11
3.648982639613383
 21
6.241657751397938
 31
0.0
  0
LINE
  5
31EB
330
17
100
AcDbEntity
  8
HATCH
100
AcDbLine
 10
3.965782639613383
 20
6.1502054687583
 30
0.0
 11
4.12418263961338
 21
6.241657751397936
 31
0.0
  0
LINE
  5
31EC
330
17
100
AcDbEntity
  8
HATCH
100
AcDbLine
 10
4.124182639613382
 20
6.1502054687583
 30
0.0
 11
3.965782639613383
 21
6.241657751397938
 31
0.0
  0
LINE
  5
31ED
330
17
100
AcDbEntity
  8
HATCH
100
AcDbLine
 10
3.72818263961339
 20
6.013027044798839
 30
0.0
 11
3.886582639613386
 21
6.104479327438475
 31
0.0
  0
LINE
  5
31EE
330
17
100
AcDbEntity
  8
HATCH
100
AcDbLine
 10
3.886582639613388
 20
6.013027044798839
 30
0.0
 11
3.728182639613391
 21
6.104479327438477
 31
0.0
  0
LINE
  5
31EF
330
17
100
AcDbEntity
  8
HATCH
100
AcDbLine
 10
3.332182639613387
 20
6.150205468758297
 30
0.0
 11
3.332182639613387
 21
5.967300903479028
 31
0.0
  0
LINE
  5
31F0
330
17
100
AcDbEntity
  8
HATCH
100
AcDbLine
 10
3.490582639613389
 20
6.150205468758294
 30
0.0
 11
3.490582639613389
 21
5.967300903479024
 31
0.0
  0
LINE
  5
31F1
330
17
100
AcDbEntity
  8
HATCH
100
AcDbLine
 10
3.648982639613388
 20
6.150205468758295
 30
0.0
 11
3.648982639613388
 21
5.967300903479026
 31
0.0
  0
LINE
  5
31F2
330
17
100
AcDbEntity
  8
HATCH
100
AcDbLine
 10
3.411382639613389
 20
6.013027044798841
 30
0.0
 11
3.569782639613386
 21
6.104479327438477
 31
0.0
  0
LINE
  5
31F3
330
17
100
AcDbEntity
  8
HATCH
100
AcDbLine
 10
3.569782639613388
 20
6.013027044798841
 30
0.0
 11
3.41138263961339
 21
6.104479327438479
 31
0.0
  0
LINE
  5
31F4
330
17
100
AcDbEntity
  8
HATCH
100
AcDbLine
 10
3.252982639613387
 20
6.013027044798844
 30
0.0
 11
3.411382639613384
 21
6.104479327438481
 31
0.0
  0
LINE
  5
31F5
330
17
100
AcDbEntity
  8
HATCH
100
AcDbLine
 10
3.411382639613385
 20
6.013027044798844
 30
0.0
 11
3.252982639613388
 21
6.104479327438482
 31
0.0
  0
LINE
  5
31F6
330
17
100
AcDbEntity
  8
HATCH
100
AcDbLine
 10
3.569782639613388
 20
6.013027044798842
 30
0.0
 11
3.728182639613384
 21
6.104479327438479
 31
0.0
  0
LINE
  5
31F7
330
17
100
AcDbEntity
  8
HATCH
100
AcDbLine
 10
3.728182639613386
 20
6.013027044798842
 30
0.0
 11
3.569782639613388
 21
6.104479327438481
 31
0.0
  0
LINE
  5
31F8
330
17
100
AcDbEntity
  8
HATCH
100
AcDbLine
 10
3.80738263961339
 20
6.150205468758292
 30
0.0
 11
3.80738263961339
 21
5.967300903479022
 31
0.0
  0
LINE
  5
31F9
330
17
100
AcDbEntity
  8
HATCH
100
AcDbLine
 10
3.965782639613387
 20
6.150205468758295
 30
0.0
 11
3.965782639613387
 21
5.967300903479026
 31
0.0
  0
LINE
  5
31FA
330
17
100
AcDbEntity
  8
HATCH
100
AcDbLine
 10
3.886582639613386
 20
6.013027044798842
 30
0.0
 11
4.044982639613383
 21
6.104479327438479
 31
0.0
  0
LINE
  5
31FB
330
17
100
AcDbEntity
  8
HATCH
100
AcDbLine
 10
4.044982639613385
 20
6.013027044798842
 30
0.0
 11
3.886582639613386
 21
6.104479327438481
 31
0.0
  0
LINE
  5
31FC
330
17
100
AcDbEntity
  8
HATCH
100
AcDbLine
 10
3.567988524092834
 20
6.01060149408982
 30
0.0
 11
3.567988524092834
 21
5.82769692881055
 31
0.0
  0
LINE
  5
31FD
330
17
100
AcDbEntity
  8
HATCH
100
AcDbLine
 10
3.726388524092836
 20
6.010601494089816
 30
0.0
 11
3.726388524092836
 21
5.827696928810547
 31
0.0
  0
LINE
  5
31FE
330
17
100
AcDbEntity
  8
HATCH
100
AcDbLine
 10
3.647188524092836
 20
5.873423070130363
 30
0.0
 11
3.805588524092833
 21
5.96487535277
 31
0.0
  0
LINE
  5
31FF
330
17
100
AcDbEntity
  8
HATCH
100
AcDbLine
 10
3.805588524092835
 20
5.873423070130363
 30
0.0
 11
3.647188524092837
 21
5.964875352770001
 31
0.0
  0
LINE
  5
3200
330
17
100
AcDbEntity
  8
HATCH
100
AcDbLine
 10
3.488788524092834
 20
5.873423070130367
 30
0.0
 11
3.647188524092831
 21
5.964875352770003
 31
0.0
  0
LINE
  5
3201
330
17
100
AcDbEntity
  8
HATCH
100
AcDbLine
 10
3.647188524092833
 20
5.873423070130367
 30
0.0
 11
3.488788524092835
 21
5.964875352770005
 31
0.0
  0
TEXT
  5
3E83
330
17
100
AcDbEntity
  8
TEXT
100
AcDbText
 10
9.897066936839809
 20
3.122177702773776
 30
0.0
 40
0.125
  1
 2. DIMENSIONS ARE FOR REFERENCE ONLY.
  7
ROMANS
100
AcDbText
  0
TEXT
  5
3E96
330
17
100
AcDbEntity
  8
TEXT
100
AcDbText
 10
11.82354275508617
 20
0.3305850131892551
 30
0.0
 40
0.125
  1
ML
  7
SCRIPTS
 72
     4
 11
11.98128085032426
 21
0.3930850131892551
 31
0.0
100
AcDbText
  0
TEXT
  5
3E98
330
17
100
AcDbEntity
  8
TEXT
100
AcDbText
 10
13.22226001075517
 20
0.3305850131892551
 30
0.0
 40
0.125
  1
9-22-94
  7
SCRIPTS
 72
     4
 11
13.69249810599327
 21
0.3930850131892551
 31
0.0
100
AcDbText
  0
TEXT
  5
3F43
330
17
100
AcDbEntity
  8
TEXT
100
AcDbText
 10
12.77658655210564
 20
1.21856500670487
 30
0.0
 40
0.18
  1
 
  7
ROMANS
 72
     1
 11
12.86658655210564
 21
1.21856500670487
 31
0.0
100
AcDbText
  0
ENDSEC
  0
SECTION
  2
OBJECTS
  0
DICTIONARY
  5
C
330
0
100
AcDbDictionary
281
     1
  3
ACAD_COLOR
350
3EF4
  3
ACAD_GROUP
350
D
  3
ACAD_LAYOUT
350
3F1C
  3
ACAD_MATERIAL
350
3ECA
  3
ACAD_MLEADERSTYLE
350
3F19
  3
ACAD_MLINESTYLE
350
1A
  3
ACAD_PLOTSETTINGS
350
3F1D
  3
ACAD_PLOTSTYLENAME
350
3EC8
  3
ACAD_SCALELIST
350
3EF7
  3
ACAD_TABLESTYLE
350
3EF5
  3
ACAD_VISUALSTYLE
350
3EE3
  3
ACDB_RECOMPOSE_DATA
350
3F46
  3
ACDBVARIABLEDICTIONARY
350
42
  0
DICTIONARY
  5
3F24
330
E
100
AcDbDictionary
280
     1
281
     1
  3
ADSK_XREC_LAYER_RECONCILED
360
3F25
  0
DICTIONARY
  5
3F26
330
2F
100
AcDbDictionary
280
     1
281
     1
  3
ADSK_XREC_LAYER_RECONCILED
360
3F27
  0
DICTIONARY
  5
3F28
330
30
100
AcDbDictionary
280
     1
281
     1
  3
ADSK_XREC_LAYER_RECONCILED
360
3F29
  0
DICTIONARY
  5
3F2A
330
31
100
AcDbDictionary
280
     1
281
     1
  3
ADSK_XREC_LAYER_RECONCILED
360
3F2B
  0
DICTIONARY
  5
3F2C
330
32
100
AcDbDictionary
280
     1
281
     1
  3
ADSK_XREC_LAYER_RECONCILED
360
3F2D
  0
DICTIONARY
  5
3F2E
330
33
100
AcDbDictionary
280
     1
281
     1
  3
ADSK_XREC_LAYER_RECONCILED
360
3F2F
  0
DICTIONARY
  5
3F30
330
34
100
AcDbDictionary
280
     1
281
     1
  3
ADSK_XREC_LAYER_RECONCILED
360
3F31
  0
DICTIONARY
  5
3F32
330
35
100
AcDbDictionary
280
     1
281
     1
  3
ADSK_XREC_LAYER_RECONCILED
360
3F33
  0
DICTIONARY
  5
3EF4
102
{ACAD_REACTORS
330
C
102
}
330
C
100
AcDbDictionary
281
     1
  0
DICTIONARY
  5
D
102
{ACAD_REACTORS
330
C
102
}
330
C
100
AcDbDictionary
281
     1
  0
DICTIONARY
  5
3F1C
102
{ACAD_REACTORS
330
C
102
}
330
C
100
AcDbDictionary
281
     1
  3
Layout1
350
3F1F
  3
Model
350
3F1E
  0
DICTIONARY
  5
3ECA
102
{ACAD_REACTORS
330
C
102
}
330
C
100
AcDbDictionary
281
     1
  3
ByBlock
350
3ED3
  3
ByLayer
350
3ECB
  3
Global
350
3EDB
  0
DICTIONARY
  5
3F19
102
{ACAD_REACTORS
330
C
102
}
330
C
100
AcDbDictionary
281
     1
  3
Standard
350
3F1A
  0
DICTIONARY
  5
1A
102
{ACAD_REACTORS
330
C
102
}
330
C
100
AcDbDictionary
281
     1
  3
STANDARD
350
1B
  0
DICTIONARY
  5
3F1D
102
{ACAD_REACTORS
330
C
102
}
330
C
100
AcDbDictionary
281
     1
  0
ACDBDICTIONARYWDFLT
  5
3EC8
102
{ACAD_REACTORS
330
C
102
}
330
C
100
AcDbDictionary
281
     1
  3
Normal
350
3EC9
100
AcDbDictionaryWithDefault
340
3EC9
  0
DICTIONARY
  5
3EF7
102
{ACAD_REACTORS
330
C
102
}
330
C
100
AcDbDictionary
281
     1
  3
A0
350
3EF8
  3
A1
350
3EF9
  3
A2
350
3EFA
  3
A3
350
3EFB
  3
A4
350
3EFC
  3
A5
350
3EFD
  3
A6
350
3EFE
  3
A7
350
3EFF
  3
A8
350
3F00
  3
A9
350
3F01
  3
B0
350
3F02
  3
B1
350
3F03
  3
B2
350
3F04
  3
B3
350
3F05
  3
B4
350
3F06
  3
B5
350
3F07
  3
B6
350
3F08
  3
B7
350
3F09
  3
B8
350
3F0A
  3
B9
350
3F0B
  3
C0
350
3F0C
  3
C1
350
3F0D
  3
C2
350
3F0E
  3
C3
350
3F0F
  3
C4
350
3F10
  3
C5
350
3F11
  3
C6
350
3F12
  3
C7
350
3F13
  3
C8
350
3F14
  3
C9
350
3F15
  3
D0
350
3F16
  3
D1
350
3F17
  3
D2
350
3F18
  0
DICTIONARY
  5
3EF5
102
{ACAD_REACTORS
330
C
102
}
330
C
100
AcDbDictionary
281
     1
  3
Standard
350
3EF6
  0
DICTIONARY
  5
3EE3
102
{ACAD_REACTORS
330
C
102
}
330
C
100
AcDbDictionary
281
     1
  3
2dWireframe
350
3EE9
  3
3D Hidden
350
3EEB
  3
3dWireframe
350
3EEA
  3
Basic
350
3EE8
  3
Brighten
350
3EEF
  3
ColorChange
350
3EF3
  3
Conceptual
350
3EEC
  3
Dim
350
3EEE
  3
Facepattern
350
3EF2
  3
Flat
350
3EE4
  3
FlatWithEdges
350
3EE5
  3
Gouraud
350
3EE6
  3
GouraudWithEdges
350
3EE7
  3
Linepattern
350
3EF1
  3
Realistic
350
3EED
  3
Thicken
350
3EF0
  0
XRECORD
  5
3F46
102
{ACAD_REACTORS
330
C
102
}
330
C
100
AcDbXrecord
280
     1
 90
        1
330
3EF6
  0
DICTIONARY
  5
42
102
{ACAD_REACTORS
330
C
102
}
330
C
100
AcDbDictionary
281
     1
  3
CANNOSCALE
350
3F36
  3
CMLEADERSTYLE
350
3F35
  3
CTABLESTYLE
350
3F34
  3
DIMADEC
350
43
  3
SORTENTS
350
3EBE
  0
XRECORD
  5
3F25
102
{ACAD_REACTORS
330
3F24
102
}
330
3F24
100
AcDbXrecord
280
     1
290
     1
  0
XRECORD
  5
3F27
102
{ACAD_REACTORS
330
3F26
102
}
330
3F26
100
AcDbXrecord
280
     1
290
     1
  0
XRECORD
  5
3F29
102
{ACAD_REACTORS
330
3F28
102
}
330
3F28
100
AcDbXrecord
280
     1
290
     1
  0
XRECORD
  5
3F2B
102
{ACAD_REACTORS
330
3F2A
102
}
330
3F2A
100
AcDbXrecord
280
     1
290
     1
  0
XRECORD
  5
3F2D
102
{ACAD_REACTORS
330
3F2C
102
}
330
3F2C
100
AcDbXrecord
280
     1
290
     1
  0
XRECORD
  5
3F2F
102
{ACAD_REACTORS
330
3F2E
102
}
330
3F2E
100
AcDbXrecord
280
     1
290
     1
  0
XRECORD
  5
3F31
102
{ACAD_REACTORS
330
3F30
102
}
330
3F30
100
AcDbXrecord
280
     1
290
     1
  0
XRECORD
  5
3F33
102
{ACAD_REACTORS
330
3F32
102
}
330
3F32
100
AcDbXrecord
280
     1
290
     1
  0
LAYOUT
  5
3F1F
102
{ACAD_REACTORS
330
3F1C
102
}
330
3F1C
100
AcDbPlotSettings
  1

  2
\\uschmmgmt015\USCHMPD0025
  4

  6

 40
0.0
 41
0.0
 42
0.0
 43
0.0
 44
0.0
 45
0.0
 46
0.0
 47
0.0
 48
0.0
 49
0.0
140
0.0
141
0.0
142
1.0
143
1.0
 70
   688
 72
     0
 73
     0
 74
     5
  7

 75
    16
147
1.0
 76
     0
 77
     2
 78
   300
148
0.0
149
0.0
100
AcDbLayout
  1
Layout1
 70
     0
 71
     1
 10
0.0
 20
0.0
 11
12.0
 21
9.0
 12
0.0
 22
0.0
 32
0.0
 14
1.000000000000000E+20
 24
1.000000000000000E+20
 34
1.000000000000000E+20
 15
-1.000000000000000E+20
 25
-1.000000000000000E+20
 35
-1.000000000000000E+20
146
0.0
 13
0.0
 23
0.0
 33
0.0
 16
1.0
 26
0.0
 36
0.0
 17
0.0
 27
1.0
 37
0.0
 76
     0
330
14
  0
LAYOUT
  5
3F1E
102
{ACAD_REACTORS
330
3F1C
102
}
330
3F1C
100
AcDbPlotSettings
  1

  2
\\uschmmgmt015\USCHMPD0025
  4

  6

 40
0.0
 41
0.0
 42
0.0
 43
0.0
 44
0.0
 45
0.0
 46
0.0
 47
0.0
 48
0.0
 49
0.0
140
0.0
141
0.0
142
1.0
143
1.0
 70
  1712
 72
     0
 73
     0
 74
     0
  7

 75
     0
147
1.0
 76
     0
 77
     2
 78
   300
148
0.0
149
0.0
100
AcDbLayout
  1
Model
 70
     1
 71
     0
 10
0.0
 20
0.0
 11
12.0
 21
9.0
 12
0.0
 22
0.0
 32
0.0
 14
0.0
 24
0.0
 34
0.0
 15
0.0
 25
0.0
 35
0.0
146
0.0
 13
0.0
 23
0.0
 33
0.0
 16
1.0
 26
0.0
 36
0.0
 17
0.0
 27
1.0
 37
0.0
 76
     0
330
17
331
3EC6
  0
MATERIAL
  5
3ED3
102
{ACAD_XDICTIONARY
360
3ED4
102
}
102
{ACAD_REACTORS
330
3ECA
102
}
330
3ECA
100
AcDbMaterial
  1
ByBlock
 72
     0
 43
0.0208333333333333
 43
0.0
 43
0.0
 43
0.0
 43
0.0
 43
0.0208333333333333
 43
0.0
 43
0.0
 43
0.0
 43
0.0
 43
1.0
 43
0.0
 43
0.0
 43
0.0
 43
0.0
 43
1.0
 77
     0
 47
0.0208333333333333
 47
0.0
 47
0.0
 47
0.0
 47
0.0
 47
0.0208333333333333
 47
0.0
 47
0.0
 47
0.0
 47
0.0
 47
1.0
 47
0.0
 47
0.0
 47
0.0
 47
0.0
 47
1.0
171
     0
 49
0.0208333333333333
 49
0.0
 49
0.0
 49
0.0
 49
0.0
 49
0.0208333333333333
 49
0.0
 49
0.0
 49
0.0
 49
0.0
 49
1.0
 49
0.0
 49
0.0
 49
0.0
 49
0.0
 49
1.0
175
     0
142
0.0208333333333333
142
0.0
142
0.0
142
0.0
142
0.0
142
0.0208333333333333
142
0.0
142
0.0
142
0.0
142
0.0
142
1.0
142
0.0
142
0.0
142
0.0
142
0.0
142
1.0
179
     0
144
0.0208333333333333
144
0.0
144
0.0
144
0.0
144
0.0
144
0.0208333333333333
144
0.0
144
0.0
144
0.0
144
0.0
144
1.0
144
0.0
144
0.0
144
0.0
144
0.0
144
1.0
147
0.0208333333333333
147
0.0
147
0.0
147
0.0
147
0.0
147
0.0208333333333333
147
0.0
147
0.0
147
0.0
147
0.0
147
1.0
147
0.0
147
0.0
147
0.0
147
0.0
147
1.0
  0
MATERIAL
  5
3ECB
102
{ACAD_XDICTIONARY
360
3ECC
102
}
102
{ACAD_REACTORS
330
3ECA
102
}
330
3ECA
100
AcDbMaterial
  1
ByLayer
 72
     0
 43
0.0208333333333333
 43
0.0
 43
0.0
 43
0.0
 43
0.0
 43
0.0208333333333333
 43
0.0
 43
0.0
 43
0.0
 43
0.0
 43
1.0
 43
0.0
 43
0.0
 43
0.0
 43
0.0
 43
1.0
 77
     0
 47
0.0208333333333333
 47
0.0
 47
0.0
 47
0.0
 47
0.0
 47
0.0208333333333333
 47
0.0
 47
0.0
 47
0.0
 47
0.0
 47
1.0
 47
0.0
 47
0.0
 47
0.0
 47
0.0
 47
1.0
171
     0
 49
0.0208333333333333
 49
0.0
 49
0.0
 49
0.0
 49
0.0
 49
0.0208333333333333
 49
0.0
 49
0.0
 49
0.0
 49
0.0
 49
1.0
 49
0.0
 49
0.0
 49
0.0
 49
0.0
 49
1.0
175
     0
142
0.0208333333333333
142
0.0
142
0.0
142
0.0
142
0.0
142
0.0208333333333333
142
0.0
142
0.0
142
0.0
142
0.0
142
1.0
142
0.0
142
0.0
142
0.0
142
0.0
142
1.0
179
     0
144
0.0208333333333333
144
0.0
144
0.0
144
0.0
144
0.0
144
0.0208333333333333
144
0.0
144
0.0
144
0.0
144
0.0
144
1.0
144
0.0
144
0.0
144
0.0
144
0.0
144
1.0
147
0.0208333333333333
147
0.0
147
0.0
147
0.0
147
0.0
147
0.0208333333333333
147
0.0
147
0.0
147
0.0
147
0.0
147
1.0
147
0.0
147
0.0
147
0.0
147
0.0
147
1.0
  0
MATERIAL
  5
3EDB
102
{ACAD_XDICTIONARY
360
3EDC
102
}
102
{ACAD_REACTORS
330
3ECA
102
}
330
3ECA
100
AcDbMaterial
  1
Global
 72
     0
 43
0.0208333333333333
 43
0.0
 43
0.0
 43
0.0
 43
0.0
 43
0.0208333333333333
 43
0.0
 43
0.0
 43
0.0
 43
0.0
 43
1.0
 43
0.0
 43
0.0
 43
0.0
 43
0.0
 43
1.0
 77
     0
 47
0.0208333333333333
 47
0.0
 47
0.0
 47
0.0
 47
0.0
 47
0.0208333333333333
 47
0.0
 47
0.0
 47
0.0
 47
0.0
 47
1.0
 47
0.0
 47
0.0
 47
0.0
 47
0.0
 47
1.0
171
     0
 49
0.0208333333333333
 49
0.0
 49
0.0
 49
0.0
 49
0.0
 49
0.0208333333333333
 49
0.0
 49
0.0
 49
0.0
 49
0.0
 49
1.0
 49
0.0
 49
0.0
 49
0.0
 49
0.0
 49
1.0
175
     0
142
0.0208333333333333
142
0.0
142
0.0
142
0.0
142
0.0
142
0.0208333333333333
142
0.0
142
0.0
142
0.0
142
0.0
142
1.0
142
0.0
142
0.0
142
0.0
142
0.0
142
1.0
179
     0
144
0.0208333333333333
144
0.0
144
0.0
144
0.0
144
0.0
144
0.0208333333333333
144
0.0
144
0.0
144
0.0
144
0.0
144
1.0
144
0.0
144
0.0
144
0.0
144
0.0
144
1.0
147
0.0208333333333333
147
0.0
147
0.0
147
0.0
147
0.0
147
0.0208333333333333
147
0.0
147
0.0
147
0.0
147
0.0
147
1.0
147
0.0
147
0.0
147
0.0
147
0.0
147
1.0
  0
MLEADERSTYLE
  5
3F1A
102
{ACAD_REACTORS
330
3F19
102
}
330
3F19
100
AcDbMLeaderStyle
170
     2
171
     1
172
     0
 90
        2
 40
0.0
 41
0.0
173
     1
 91
-1056964608
340
11
 92
       -2
290
     1
 42
0.09
291
     1
 43
0.36
  3
Standard
 44
0.18
300

342
F
174
     1
178
     6
175
     1
176
     0
 93
-1056964608
 45
0.18
292
     0
297
     0
 46
0.18
 94
-1056964608
 47
1.0
 49
1.0
140
1.0
293
     1
141
0.0
294
     1
177
     0
142
1.0
295
     0
296
     0
143
0.125
1001
ACAD_MLEADERVER
1070
     2
  0
MLINESTYLE
  5
1B
102
{ACAD_REACTORS
330
1A
102
}
330
1A
100
AcDbMlineStyle
  2
STANDARD
 70
     0
  3

 62
   256
 51
90.0
 52
90.0
 71
     2
 49
0.5
 62
   256
  6
BYLAYER
 49
-0.5
 62
   256
  6
BYLAYER
  0
ACDBPLACEHOLDER
  5
3EC9
102
{ACAD_REACTORS
330
3EC8
102
}
330
3EC8
  0
SCALE
  5
3EF8
102
{ACAD_REACTORS
330
3EF7
102
}
330
3EF7
100
AcDbScale
 70
     0
300
1:1
140
1.0
141
1.0
290
     1
  0
SCALE
  5
3EF9
102
{ACAD_REACTORS
330
3EF7
102
}
330
3EF7
100
AcDbScale
 70
     0
300
1:2
140
1.0
141
2.0
290
     0
  0
SCALE
  5
3EFA
102
{ACAD_REACTORS
330
3EF7
102
}
330
3EF7
100
AcDbScale
 70
     0
300
1:4
140
1.0
141
4.0
290
     0
  0
SCALE
  5
3EFB
102
{ACAD_REACTORS
330
3EF7
102
}
330
3EF7
100
AcDbScale
 70
     0
300
1:5
140
1.0
141
5.0
290
     0
  0
SCALE
  5
3EFC
102
{ACAD_REACTORS
330
3EF7
102
}
330
3EF7
100
AcDbScale
 70
     0
300
1:8
140
1.0
141
8.0
290
     0
  0
SCALE
  5
3EFD
102
{ACAD_REACTORS
330
3EF7
102
}
330
3EF7
100
AcDbScale
 70
     0
300
1:10
140
1.0
141
10.0
290
     0
  0
SCALE
  5
3EFE
102
{ACAD_REACTORS
330
3EF7
102
}
330
3EF7
100
AcDbScale
 70
     0
300
1:16
140
1.0
141
16.0
290
     0
  0
SCALE
  5
3EFF
102
{ACAD_REACTORS
330
3EF7
102
}
330
3EF7
100
AcDbScale
 70
     0
300
1:20
140
1.0
141
20.0
290
     0
  0
SCALE
  5
3F00
102
{ACAD_REACTORS
330
3EF7
102
}
330
3EF7
100
AcDbScale
 70
     0
300
1:30
140
1.0
141
30.0
290
     0
  0
SCALE
  5
3F01
102
{ACAD_REACTORS
330
3EF7
102
}
330
3EF7
100
AcDbScale
 70
     0
300
1:40
140
1.0
141
40.0
290
     0
  0
SCALE
  5
3F02
102
{ACAD_REACTORS
330
3EF7
102
}
330
3EF7
100
AcDbScale
 70
     0
300
1:50
140
1.0
141
50.0
290
     0
  0
SCALE
  5
3F03
102
{ACAD_REACTORS
330
3EF7
102
}
330
3EF7
100
AcDbScale
 70
     0
300
1:100
140
1.0
141
100.0
290
     0
  0
SCALE
  5
3F04
102
{ACAD_REACTORS
330
3EF7
102
}
330
3EF7
100
AcDbScale
 70
     0
300
2:1
140
2.0
141
1.0
290
     0
  0
SCALE
  5
3F05
102
{ACAD_REACTORS
330
3EF7
102
}
330
3EF7
100
AcDbScale
 70
     0
300
4:1
140
4.0
141
1.0
290
     0
  0
SCALE
  5
3F06
102
{ACAD_REACTORS
330
3EF7
102
}
330
3EF7
100
AcDbScale
 70
     0
300
8:1
140
8.0
141
1.0
290
     0
  0
SCALE
  5
3F07
102
{ACAD_REACTORS
330
3EF7
102
}
330
3EF7
100
AcDbScale
 70
     0
300
10:1
140
10.0
141
1.0
290
     0
  0
SCALE
  5
3F08
102
{ACAD_REACTORS
330
3EF7
102
}
330
3EF7
100
AcDbScale
 70
     0
300
100:1
140
100.0
141
1.0
290
     0
  0
SCALE
  5
3F09
102
{ACAD_REACTORS
330
3EF7
102
}
330
3EF7
100
AcDbScale
 70
     0
300
1/128" = 1'-0"
140
0.0078125
141
12.0
290
     0
  0
SCALE
  5
3F0A
102
{ACAD_REACTORS
330
3EF7
102
}
330
3EF7
100
AcDbScale
 70
     0
300
1/64" = 1'-0"
140
0.015625
141
12.0
290
     0
  0
SCALE
  5
3F0B
102
{ACAD_REACTORS
330
3EF7
102
}
330
3EF7
100
AcDbScale
 70
     0
300
1/32" = 1'-0"
140
0.03125
141
12.0
290
     0
  0
SCALE
  5
3F0C
102
{ACAD_REACTORS
330
3EF7
102
}
330
3EF7
100
AcDbScale
 70
     0
300
1/16" = 1'-0"
140
0.0625
141
12.0
290
     0
  0
SCALE
  5
3F0D
102
{ACAD_REACTORS
330
3EF7
102
}
330
3EF7
100
AcDbScale
 70
     0
300
3/32" = 1'-0"
140
0.09375
141
12.0
290
     0
  0
SCALE
  5
3F0E
102
{ACAD_REACTORS
330
3EF7
102
}
330
3EF7
100
AcDbScale
 70
     0
300
1/8" = 1'-0"
140
0.125
141
12.0
290
     0
  0
SCALE
  5
3F0F
102
{ACAD_REACTORS
330
3EF7
102
}
330
3EF7
100
AcDbScale
 70
     0
300
3/16" = 1'-0"
140
0.1875
141
12.0
290
     0
  0
SCALE
  5
3F10
102
{ACAD_REACTORS
330
3EF7
102
}
330
3EF7
100
AcDbScale
 70
     0
300
1/4" = 1'-0"
140
0.25
141
12.0
290
     0
  0
SCALE
  5
3F11
102
{ACAD_REACTORS
330
3EF7
102
}
330
3EF7
100
AcDbScale
 70
     0
300
3/8" = 1'-0"
140
0.375
141
12.0
290
     0
  0
SCALE
  5
3F12
102
{ACAD_REACTORS
330
3EF7
102
}
330
3EF7
100
AcDbScale
 70
     0
300
1/2" = 1'-0"
140
0.5
141
12.0
290
     0
  0
SCALE
  5
3F13
102
{ACAD_REACTORS
330
3EF7
102
}
330
3EF7
100
AcDbScale
 70
     0
300
3/4" = 1'-0"
140
0.75
141
12.0
290
     0
  0
SCALE
  5
3F14
102
{ACAD_REACTORS
330
3EF7
102
}
330
3EF7
100
AcDbScale
 70
     0
300
1" = 1'-0"
140
1.0
141
12.0
290
     0
  0
SCALE
  5
3F15
102
{ACAD_REACTORS
330
3EF7
102
}
330
3EF7
100
AcDbScale
 70
     0
300
1-1/2" = 1'-0"
140
1.5
141
12.0
290
     0
  0
SCALE
  5
3F16
102
{ACAD_REACTORS
330
3EF7
102
}
330
3EF7
100
AcDbScale
 70
     0
300
3" = 1'-0"
140
3.0
141
12.0
290
     0
  0
SCALE
  5
3F17
102
{ACAD_REACTORS
330
3EF7
102
}
330
3EF7
100
AcDbScale
 70
     0
300
6" = 1'-0"
140
6.0
141
12.0
290
     0
  0
SCALE
  5
3F18
102
{ACAD_REACTORS
330
3EF7
102
}
330
3EF7
100
AcDbScale
 70
     0
300
1'-0" = 1'-0"
140
12.0
141
12.0
290
     0
  0
TABLESTYLE
  5
3EF6
102
{ACAD_XDICTIONARY
360
3F44
102
}
102
{ACAD_REACTORS
330
3EF5
102
}
330
3EF5
100
AcDbTableStyle
  3
Standard
 70
     0
 71
     0
 40
0.06
 41
0.06
280
     0
281
     0
  7
STANDARD
140
0.18
170
     2
 62
     0
 63
     7
283
     0
274
    -2
284
     1
 64
     0
275
    -2
285
     1
 65
     0
276
    -2
286
     1
 66
     0
277
    -2
287
     1
 67
     0
278
    -2
288
     1
 68
     0
279
    -2
289
     1
 69
     0
  7
STANDARD
140
0.25
170
     5
 62
     0
 63
     7
283
     0
274
    -2
284
     1
 64
     0
275
    -2
285
     1
 65
     0
276
    -2
286
     1
 66
     0
277
    -2
287
     1
 67
     0
278
    -2
288
     1
 68
     0
279
    -2
289
     1
 69
     0
  7
STANDARD
140
0.18
170
     5
 62
     0
 63
     7
283
     0
274
    -2
284
     1
 64
     0
275
    -2
285
     1
 65
     0
276
    -2
286
     1
 66
     0
277
    -2
287
     1
 67
     0
278
    -2
288
     1
 68
     0
279
    -2
289
     1
 69
     0
  0
VISUALSTYLE
  5
3EE9
102
{ACAD_REACTORS
330
3EE3
102
}
330
3EE3
100
AcDbVisualStyle
  2
2dWireframe
 70
     4
 71
     0
 72
     2
 73
     0
 90
        0
 40
-0.6
 41
-30.0
 62
     5
 63
     7
421
 16777215
 74
     1
 91
        4
 64
     7
 65
   257
 75
     1
175
     1
 42
1.0
 92
        0
 66
   257
 43
1.0
 76
     1
 77
     6
 78
     2
 67
     7
 79
     5
170
     0
171
     0
290
     0
174
     0
 93
        1
 44
0.0
173
     0
291
     0
 45
0.0
1001
ACAD
1000
AcDbSavedByObjectVersion
1070
     0
  0
VISUALSTYLE
  5
3EEB
102
{ACAD_REACTORS
330
3EE3
102
}
330
3EE3
100
AcDbVisualStyle
  2
3D Hidden
 70
     6
 71
     1
 72
     2
 73
     2
 90
        0
 40
-0.6
 41
-30.0
 62
     5
 63
     7
421
 16777215
 74
     2
 91
        2
 64
     7
 65
   257
 75
     2
175
     1
 42
40.0
 92
        0
 66
   257
 43
1.0
 76
     1
 77
     6
 78
     2
 67
     7
 79
     3
170
     0
171
     0
290
     0
174
     0
 93
        1
 44
0.0
173
     0
291
     0
 45
0.0
1001
ACAD
1000
AcDbSavedByObjectVersion
1070
     0
  0
VISUALSTYLE
  5
3EEA
102
{ACAD_REACTORS
330
3EE3
102
}
330
3EE3
100
AcDbVisualStyle
  2
3dWireframe
 70
     5
 71
     0
 72
     2
 73
     0
 90
        0
 40
-0.6
 41
-30.0
 62
     5
 63
     7
421
 16777215
 74
     1
 91
        4
 64
     7
 65
   257
 75
     1
175
     1
 42
1.0
 92
        0
 66
   257
 43
1.0
 76
     1
 77
     6
 78
     2
 67
     7
 79
     5
170
     0
171
     0
290
     0
174
     0
 93
        1
 44
0.0
173
     0
291
     0
 45
0.0
1001
ACAD
1000
AcDbSavedByObjectVersion
1070
     0
  0
VISUALSTYLE
  5
3EE8
102
{ACAD_REACTORS
330
3EE3
102
}
330
3EE3
100
AcDbVisualStyle
  2
Basic
 70
     7
 71
     1
 72
     0
 73
     1
 90
        0
 40
-0.6
 41
-30.0
 62
     5
 63
     7
421
 16777215
 74
     0
 91
        4
 64
     7
 65
   257
 75
     1
175
     1
 42
1.0
 92
        8
 66
     7
 43
1.0
 76
     1
 77
     6
 78
     2
 67
     7
 79
     5
170
     0
171
     0
290
     0
174
     0
 93
        1
 44
0.0
173
     0
291
     1
 45
0.0
1001
ACAD
1000
AcDbSavedByObjectVersion
1070
     0
  0
VISUALSTYLE
  5
3EEF
102
{ACAD_REACTORS
330
3EE3
102
}
330
3EE3
100
AcDbVisualStyle
  2
Brighten
 70
    12
 71
     2
 72
     2
 73
     0
 90
        0
 40
-0.6
 41
-30.0
 62
     5
 63
     7
421
 16777215
 74
     1
 91
        4
 64
     7
 65
   257
 75
     1
175
     1
 42
1.0
 92
        8
 66
     7
 43
1.0
 76
     1
 77
     6
 78
     2
 67
     7
 79
     5
170
     0
171
     0
290
     0
174
     0
 93
        1
 44
50.0
173
     0
291
     1
 45
0.0
1001
ACAD
1000
AcDbSavedByObjectVersion
1070
     0
  0
VISUALSTYLE
  5
3EF3
102
{ACAD_REACTORS
330
3EE3
102
}
330
3EE3
100
AcDbVisualStyle
  2
ColorChange
 70
    16
 71
     2
 72
     2
 73
     3
 90
        0
 40
-0.6
 41
-30.0
 62
     5
 63
     8
421
  8421504
 74
     1
 91
        4
 64
     7
 65
   257
 75
     1
175
     1
 42
1.0
 92
        8
 66
     8
424
  8421504
 43
1.0
 76
     1
 77
     6
 78
     2
 67
     7
 79
     5
170
     0
171
     0
290
     0
174
     0
 93
        1
 44
0.0
173
     0
291
     1
 45
0.0
1001
ACAD
1000
AcDbSavedByObjectVersion
1070
     0
  0
VISUALSTYLE
  5
3EEC
102
{ACAD_REACTORS
330
3EE3
102
}
330
3EE3
100
AcDbVisualStyle
  2
Conceptual
 70
     9
 71
     3
 72
     2
 73
     0
 90
        0
 40
-0.6
 41
-30.0
 62
     5
 63
     7
421
 16777215
 74
     2
 91
        2
 64
     7
 65
   257
 75
     1
175
     1
 42
40.0
 92
        8
 66
     7
 43
1.0
 76
     1
 77
     6
 78
     2
 67
     7
 79
     3
170
     0
171
     0
290
     0
174
     0
 93
        1
 44
0.0
173
     0
291
     0
 45
0.0
1001
ACAD
1000
AcDbSavedByObjectVersion
1070
     0
  0
VISUALSTYLE
  5
3EEE
102
{ACAD_REACTORS
330
3EE3
102
}
330
3EE3
100
AcDbVisualStyle
  2
Dim
 70
    11
 71
     2
 72
     2
 73
     0
 90
        0
 40
-0.6
 41
-30.0
 62
     5
 63
     7
421
 16777215
 74
     1
 91
        4
 64
     7
 65
   257
 75
     1
175
     1
 42
1.0
 92
        8
 66
     7
 43
1.0
 76
     1
 77
     6
 78
     2
 67
     7
 79
     5
170
     0
171
     0
290
     0
174
     0
 93
        1
 44
-50.0
173
     0
291
     1
 45
0.0
1001
ACAD
1000
AcDbSavedByObjectVersion
1070
     0
  0
VISUALSTYLE
  5
3EF2
102
{ACAD_REACTORS
330
3EE3
102
}
330
3EE3
100
AcDbVisualStyle
  2
Facepattern
 70
    15
 71
     2
 72
     2
 73
     0
 90
        0
 40
-0.6
 41
-30.0
 62
     5
 63
     7
421
 16777215
 74
     1
 91
        4
 64
     7
 65
   257
 75
     1
175
     1
 42
1.0
 92
        8
 66
     7
 43
1.0
 76
     1
 77
     6
 78
     2
 67
     7
 79
     5
170
     0
171
     0
290
     0
174
     0
 93
        1
 44
0.0
173
     0
291
     1
 45
0.0
1001
ACAD
1000
AcDbSavedByObjectVersion
1070
     0
  0
VISUALSTYLE
  5
3EE4
102
{ACAD_REACTORS
330
3EE3
102
}
330
3EE3
100
AcDbVisualStyle
  2
Flat
 70
     0
 71
     2
 72
     1
 73
     1
 90
        2
 40
-0.6
 41
30.0
 62
     5
 63
     7
421
 16777215
 74
     0
 91
        4
 64
     7
 65
   257
 75
     1
175
     1
 42
1.0
 92
        8
 66
     7
 43
1.0
 76
     1
 77
     6
 78
     2
 67
     7
 79
     5
170
     0
171
     0
290
     0
174
     0
 93
       13
 44
0.0
173
     0
291
     1
 45
0.0
1001
ACAD
1000
AcDbSavedByObjectVersion
1070
     0
  0
VISUALSTYLE
  5
3EE5
102
{ACAD_REACTORS
330
3EE3
102
}
330
3EE3
100
AcDbVisualStyle
  2
FlatWithEdges
 70
     1
 71
     2
 72
     1
 73
     1
 90
        2
 40
-0.6
 41
30.0
 62
     5
 63
     7
421
 16777215
 74
     1
 91
        4
 64
     7
 65
   257
 75
     1
175
     1
 42
1.0
 92
        0
 66
   257
 43
1.0
 76
     1
 77
     6
 78
     2
 67
     7
 79
     5
170
     0
171
     0
290
     0
174
     0
 93
       13
 44
0.0
173
     0
291
     1
 45
0.0
1001
ACAD
1000
AcDbSavedByObjectVersion
1070
     0
  0
VISUALSTYLE
  5
3EE6
102
{ACAD_REACTORS
330
3EE3
102
}
330
3EE3
100
AcDbVisualStyle
  2
Gouraud
 70
     2
 71
     2
 72
     2
 73
     1
 90
        2
 40
-0.6
 41
30.0
 62
     5
 63
     7
421
 16777215
 74
     0
 91
        4
 64
     7
 65
   257
 75
     1
175
     1
 42
1.0
 92
        0
 66
     7
 43
1.0
 76
     1
 77
     6
 78
     2
 67
     7
 79
     5
170
     0
171
     0
290
     0
174
     0
 93
       13
 44
0.0
173
     0
291
     1
 45
0.0
1001
ACAD
1000
AcDbSavedByObjectVersion
1070
     0
  0
VISUALSTYLE
  5
3EE7
102
{ACAD_REACTORS
330
3EE3
102
}
330
3EE3
100
AcDbVisualStyle
  2
GouraudWithEdges
 70
     3
 71
     2
 72
     2
 73
     1
 90
        2
 40
-0.6
 41
30.0
 62
     5
 63
     7
421
 16777215
 74
     1
 91
        4
 64
     7
 65
   257
 75
     1
175
     1
 42
1.0
 92
        0
 66
   257
 43
1.0
 76
     1
 77
     6
 78
     2
 67
     7
 79
     5
170
     0
171
     0
290
     0
174
     0
 93
       13
 44
0.0
173
     0
291
     1
 45
0.0
1001
ACAD
1000
AcDbSavedByObjectVersion
1070
     0
  0
VISUALSTYLE
  5
3EF1
102
{ACAD_REACTORS
330
3EE3
102
}
330
3EE3
100
AcDbVisualStyle
  2
Linepattern
 70
    14
 71
     2
 72
     2
 73
     0
 90
        0
 40
-0.6
 41
-30.0
 62
     5
 63
     7
421
 16777215
 74
     1
 91
        4
 64
     7
 65
   257
 75
     7
175
     7
 42
1.0
 92
        8
 66
     7
 43
1.0
 76
     1
 77
     6
 78
     2
 67
     7
 79
     5
170
     0
171
     0
290
     0
174
     0
 93
        1
 44
0.0
173
     0
291
     1
 45
0.0
1001
ACAD
1000
AcDbSavedByObjectVersion
1070
     0
  0
VISUALSTYLE
  5
3EED
102
{ACAD_REACTORS
330
3EE3
102
}
330
3EE3
100
AcDbVisualStyle
  2
Realistic
 70
     8
 71
     2
 72
     2
 73
     0
 90
        0
 40
-0.6
 41
-30.0
 62
     5
 63
     7
421
 16777215
 74
     1
 91
        0
 64
     7
 65
   257
 75
     1
175
     1
 42
1.0
 92
        8
 66
     8
424
  7895160
 43
1.0
 76
     1
 77
     6
 78
     2
 67
     7
 79
     5
170
     0
171
     0
290
     0
174
     0
 93
       13
 44
0.0
173
     0
291
     0
 45
0.0
1001
ACAD
1000
AcDbSavedByObjectVersion
1070
     0
  0
VISUALSTYLE
  5
3EF0
102
{ACAD_REACTORS
330
3EE3
102
}
330
3EE3
100
AcDbVisualStyle
  2
Thicken
 70
    13
 71
     2
 72
     2
 73
     0
 90
        0
 40
-0.6
 41
-30.0
 62
     5
 63
     7
421
 16777215
 74
     1
 91
        4
 64
     7
 65
   257
 75
     1
175
     1
 42
1.0
 92
       12
 66
     7
 43
1.0
 76
     1
 77
     6
 78
     2
 67
     7
 79
     5
170
     0
171
     0
290
     0
174
     0
 93
        1
 44
0.0
173
     0
291
     1
 45
0.0
1001
ACAD
1000
AcDbSavedByObjectVersion
1070
     0
  0
DICTIONARYVAR
  5
3F36
102
{ACAD_REACTORS
330
42
102
}
330
42
100
DictionaryVariables
280
     0
  1
1:1
  0
DICTIONARYVAR
  5
3F35
102
{ACAD_REACTORS
330
42
102
}
330
42
100
DictionaryVariables
280
     0
  1
STANDARD
  0
DICTIONARYVAR
  5
3F34
102
{ACAD_REACTORS
330
42
102
}
330
42
100
DictionaryVariables
280
     0
  1
STANDARD
  0
DICTIONARYVAR
  5
43
102
{ACAD_REACTORS
330
42
102
}
330
42
100
DictionaryVariables
280
     0
  1
0
  0
DICTIONARYVAR
  5
3EBE
102
{ACAD_REACTORS
330
42
102
}
330
42
100
DictionaryVariables
280
     0
  1
96
  0
DICTIONARY
  5
3ED4
330
3ED3
100
AcDbDictionary
280
     1
281
     1
  3
ACAD_XREC_ROUNDTRIP
360
3F48
  3
BUMPTILE
360
3ED6
  3
DIFFUSETILE
360
3ED5
  3
OPACITYTILE
360
3ED9
  3
REFLECTIONTILE
360
3ED8
  3
REFRACTIONTILE
360
3EDA
  3
SPECULARTILE
360
3ED7
  0
DICTIONARY
  5
3ECC
330
3ECB
100
AcDbDictionary
280
     1
281
     1
  3
ACAD_XREC_ROUNDTRIP
360
3F47
  3
BUMPTILE
360
3ECE
  3
DIFFUSETILE
360
3ECD
  3
OPACITYTILE
360
3ED1
  3
REFLECTIONTILE
360
3ED0
  3
REFRACTIONTILE
360
3ED2
  3
SPECULARTILE
360
3ECF
  0
DICTIONARY
  5
3EDC
330
3EDB
100
AcDbDictionary
280
     1
281
     1
  3
ACAD_XREC_ROUNDTRIP
360
3F49
  3
BUMPTILE
360
3EDE
  3
DIFFUSETILE
360
3EDD
  3
OPACITYTILE
360
3EE1
  3
REFLECTIONTILE
360
3EE0
  3
REFRACTIONTILE
360
3EE2
  3
SPECULARTILE
360
3EDF
  0
DICTIONARY
  5
3F44
330
3EF6
100
AcDbDictionary
280
     1
281
     1
  3
ACAD_ROUNDTRIP_2008_TABLESTYLE_CELLSTYLEMAP
360
3F45
  3
ACAD_XREC_ROUNDTRIP
360
3F4A
  0
XRECORD
  5
3F48
102
{ACAD_REACTORS
330
3ED4
102
}
330
3ED4
100
AcDbXrecord
280
     1
102
MATERIAL
148
0.0
149
0.0
149
0.0
 93
        0
 94
      127
282
     0
 72
     0
 77
     0
171
     0
175
     0
179
     0
273
     0
  0
XRECORD
  5
3ED6
102
{ACAD_REACTORS
330
3ED4
102
}
330
3ED4
100
AcDbXrecord
280
     1
270
     1
271
     1
  0
XRECORD
  5
3ED5
102
{ACAD_REACTORS
330
3ED4
102
}
330
3ED4
100
AcDbXrecord
280
     1
270
     1
271
     1
  0
XRECORD
  5
3ED9
102
{ACAD_REACTORS
330
3ED4
102
}
330
3ED4
100
AcDbXrecord
280
     1
270
     1
271
     1
  0
XRECORD
  5
3ED8
102
{ACAD_REACTORS
330
3ED4
102
}
330
3ED4
100
AcDbXrecord
280
     1
270
     1
271
     1
  0
XRECORD
  5
3EDA
102
{ACAD_REACTORS
330
3ED4
102
}
330
3ED4
100
AcDbXrecord
280
     1
270
     1
271
     1
  0
XRECORD
  5
3ED7
102
{ACAD_REACTORS
330
3ED4
102
}
330
3ED4
100
AcDbXrecord
280
     1
270
     1
271
     1
  0
XRECORD
  5
3F47
102
{ACAD_REACTORS
330
3ECC
102
}
330
3ECC
100
AcDbXrecord
280
     1
102
MATERIAL
148
0.0
149
0.0
149
0.0
 93
        0
 94
      127
282
     0
 72
     0
 77
     0
171
     0
175
     0
179
     0
273
     0
  0
XRECORD
  5
3ECE
102
{ACAD_REACTORS
330
3ECC
102
}
330
3ECC
100
AcDbXrecord
280
     1
270
     1
271
     1
  0
XRECORD
  5
3ECD
102
{ACAD_REACTORS
330
3ECC
102
}
330
3ECC
100
AcDbXrecord
280
     1
270
     1
271
     1
  0
XRECORD
  5
3ED1
102
{ACAD_REACTORS
330
3ECC
102
}
330
3ECC
100
AcDbXrecord
280
     1
270
     1
271
     1
  0
XRECORD
  5
3ED0
102
{ACAD_REACTORS
330
3ECC
102
}
330
3ECC
100
AcDbXrecord
280
     1
270
     1
271
     1
  0
XRECORD
  5
3ED2
102
{ACAD_REACTORS
330
3ECC
102
}
330
3ECC
100
AcDbXrecord
280
     1
270
     1
271
     1
  0
XRECORD
  5
3ECF
102
{ACAD_REACTORS
330
3ECC
102
}
330
3ECC
100
AcDbXrecord
280
     1
270
     1
271
     1
  0
XRECORD
  5
3F49
102
{ACAD_REACTORS
330
3EDC
102
}
330
3EDC
100
AcDbXrecord
280
     1
102
MATERIAL
148
0.0
149
0.0
149
0.0
 93
        0
 94
      127
282
     0
 72
     0
 77
     0
171
     0
175
     0
179
     0
273
     0
  0
XRECORD
  5
3EDE
102
{ACAD_REACTORS
330
3EDC
102
}
330
3EDC
100
AcDbXrecord
280
     1
270
     1
271
     1
  0
XRECORD
  5
3EDD
102
{ACAD_REACTORS
330
3EDC
102
}
330
3EDC
100
AcDbXrecord
280
     1
270
     1
271
     1
  0
XRECORD
  5
3EE1
102
{ACAD_REACTORS
330
3EDC
102
}
330
3EDC
100
AcDbXrecord
280
     1
270
     1
271
     1
  0
XRECORD
  5
3EE0
102
{ACAD_REACTORS
330
3EDC
102
}
330
3EDC
100
AcDbXrecord
280
     1
270
     1
271
     1
  0
XRECORD
  5
3EE2
102
{ACAD_REACTORS
330
3EDC
102
}
330
3EDC
100
AcDbXrecord
280
     1
270
     1
271
     1
  0
XRECORD
  5
3EDF
102
{ACAD_REACTORS
330
3EDC
102
}
330
3EDC
100
AcDbXrecord
280
     1
270
     1
271
     1
  0
CELLSTYLEMAP
  5
3F45
102
{ACAD_REACTORS
330
3F44
102
}
330
3F44
100
AcDbCellStyleMap
 90
        3
300
CELLSTYLE
  1
TABLEFORMAT_BEGIN
 90
        5
170
     1
 91
        0
 92
    32768
 62
   257
 93
        1
300
CONTENTFORMAT
  1
CONTENTFORMAT_BEGIN
 90
        0
 91
        0
 92
      512
 93
        0
300

 40
0.0
140
1.0
 94
        5
 62
     0
340
F
144
0.25
309
CONTENTFORMAT_END
171
     0
 94
        0
309
TABLEFORMAT_END
  1
CELLSTYLE_BEGIN
 90
        1
 91
        1
300
_TITLE
309
CELLSTYLE_END
300
CELLSTYLE
  1
TABLEFORMAT_BEGIN
 90
        5
170
     1
 91
        0
 92
        0
 62
   257
 93
        1
300
CONTENTFORMAT
  1
CONTENTFORMAT_BEGIN
 90
        0
 91
        0
 92
      512
 93
        0
300

 40
0.0
140
1.0
 94
        5
 62
     0
340
F
144
0.18
309
CONTENTFORMAT_END
171
     0
 94
        0
309
TABLEFORMAT_END
  1
CELLSTYLE_BEGIN
 90
        2
 91
        1
300
_HEADER
309
CELLSTYLE_END
300
CELLSTYLE
  1
TABLEFORMAT_BEGIN
 90
        5
170
     1
 91
        0
 92
        0
 62
   257
 93
        1
300
CONTENTFORMAT
  1
CONTENTFORMAT_BEGIN
 90
        0
 91
        0
 92
      512
 93
        0
300

 40
0.0
140
1.0
 94
        2
 62
     0
340
F
144
0.18
309
CONTENTFORMAT_END
171
     0
 94
        0
309
TABLEFORMAT_END
  1
CELLSTYLE_BEGIN
 90
        3
 91
        2
300
_DATA
309
CELLSTYLE_END
  0
XRECORD
  5
3F4A
102
{ACAD_REACTORS
330
3F44
102
}
330
3F44
100
AcDbXrecord
280
     1
102
ACAD_ROUNDTRIP_PRE2007_TABLESTYLE
 90
      512
 91
        0
  1

 92
      512
 93
        0
  2

 94
      512
 95
        0
  3

  0
ENDSEC
  0
EOF
