  0
SECTION
  2
HEADER
  9
$ACADVER
  1
AC1018
  9
$ACADMAINTVER
 70
   104
  9
$DWGCODEPAGE
  3
ANSI_1252
  9
$LASTSAVEDBY
  1
aereyes
  9
$INSBASE
 10
0.0
 20
0.0
 30
0.0
  9
$EXTMIN
 10
0.2349999999999999
 20
0.235
 30
0.0
  9
$EXTMAX
 10
7.794549994862286
 20
10.515
 30
0.0
  9
$LIMMIN
 10
0.0
 20
0.0
  9
$LIMMAX
 10
8.5
 20
11.0
  9
$ORTHOMODE
 70
     1
  9
$REGENMODE
 70
     1
  9
$FILLMODE
 70
     1
  9
$QTEXTMODE
 70
     0
  9
$MIRRTEXT
 70
     1
  9
$LTSCALE
 40
0.4
  9
$ATTMODE
 70
     1
  9
$TEXTSIZE
 40
0.09375
  9
$TRACEWID
 40
0.05
  9
$TEXTSTYLE
  7
ROMANS
  9
$CLAYER
  8
TEXT
  9
$CELTYPE
  6
ByLayer
  9
$CECOLOR
 62
   256
  9
$CELTSCALE
 40
1.0
  9
$DISPSILH
 70
     0
  9
$DIMSCALE
 40
0.7
  9
$DIMASZ
 40
0.18
  9
$DIMEXO
 40
0.0625
  9
$DIMDLI
 40
0.38
  9
$DIMRND
 40
0.0
  9
$DIMDLE
 40
0.0
  9
$DIMEXE
 40
0.18
  9
$DIMTP
 40
0.0
  9
$DIMTM
 40
0.0
  9
$DIMTXT
 40
0.18
  9
$DIMCEN
 40
0.09
  9
$DIMTSZ
 40
0.0
  9
$DIMTOL
 70
     0
  9
$DIMLIM
 70
     0
  9
$DIMTIH
 70
     1
  9
$DIMTOH
 70
     1
  9
$DIMSE1
 70
     0
  9
$DIMSE2
 70
     0
  9
$DIMTAD
 70
     0
  9
$DIMZIN
 70
     4
  9
$DIMBLK
  1

  9
$DIMASO
 70
     1
  9
$DIMSHO
 70
     1
  9
$DIMPOST
  1

  9
$DIMAPOST
  1

  9
$DIMALT
 70
     0
  9
$DIMALTD
 70
     2
  9
$DIMALTF
 40
25.4
  9
$DIMLFAC
 40
10.0
  9
$DIMTOFL
 70
     0
  9
$DIMTVP
 40
0.0
  9
$DIMTIX
 70
     0
  9
$DIMSOXD
 70
     0
  9
$DIMSAH
 70
     0
  9
$DIMBLK1
  1

  9
$DIMBLK2
  1

  9
$DIMSTYLE
  2
Standard
  9
$DIMCLRD
 70
     0
  9
$DIMCLRE
 70
     0
  9
$DIMCLRT
 70
     0
  9
$DIMTFAC
 40
1.0
  9
$DIMGAP
 40
0.09
  9
$DIMJUST
 70
     0
  9
$DIMSD1
 70
     0
  9
$DIMSD2
 70
     0
  9
$DIMTOLJ
 70
     1
  9
$DIMTZIN
 70
     4
  9
$DIMALTZ
 70
     4
  9
$DIMALTTZ
 70
     4
  9
$DIMUPT
 70
     0
  9
$DIMDEC
 70
     0
  9
$DIMTDEC
 70
     0
  9
$DIMALTU
 70
     2
  9
$DIMALTTD
 70
     2
  9
$DIMTXSTY
  7
STANDARD
  9
$DIMAUNIT
 70
     0
  9
$DIMADEC
 70
     0
  9
$DIMALTRND
 40
0.0
  9
$DIMAZIN
 70
     0
  9
$DIMDSEP
 70
    46
  9
$DIMATFIT
 70
     3
  9
$DIMFRAC
 70
     0
  9
$DIMLDRBLK
  1

  9
$DIMLUNIT
 70
     2
  9
$DIMLWD
 70
    -2
  9
$DIMLWE
 70
    -2
  9
$DIMTMOVE
 70
     2
  9
$LUNITS
 70
     2
  9
$LUPREC
 70
     0
  9
$SKETCHINC
 40
0.1
  9
$FILLETRAD
 40
0.1
  9
$AUNITS
 70
     0
  9
$AUPREC
 70
     0
  9
$MENU
  1
acad
  9
$ELEVATION
 40
0.0
  9
$PELEVATION
 40
0.0
  9
$THICKNESS
 40
0.0
  9
$LIMCHECK
 70
     0
  9
$CHAMFERA
 40
0.0
  9
$CHAMFERB
 40
0.0
  9
$CHAMFERC
 40
0.0
  9
$CHAMFERD
 40
0.0
  9
$SKPOLY
 70
     0
  9
$TDCREATE
 40
2449644.565732523
  9
$TDUCREATE
 40
2449644.774065856
  9
$TDUPDATE
 40
2454821.747338797
  9
$TDUUPDATE
 40
2454821.955672130
  9
$TDINDWG
 40
0.6991059491
  9
$TDUSRTIMER
 40
0.6991059491
  9
$USRTIMER
 70
     1
  9
$ANGBASE
 50
0.0
  9
$ANGDIR
 70
     0
  9
$PDMODE
 70
     0
  9
$PDSIZE
 40
0.0
  9
$PLINEWID
 40
0.0
  9
$SPLFRAME
 70
     0
  9
$SPLINETYPE
 70
     6
  9
$SPLINESEGS
 70
     8
  9
$HANDSEED
  5
1D0
  9
$SURFTAB1
 70
     6
  9
$SURFTAB2
 70
     6
  9
$SURFTYPE
 70
     6
  9
$SURFU
 70
     6
  9
$SURFV
 70
     6
  9
$UCSBASE
  2

  9
$UCSNAME
  2

  9
$UCSORG
 10
0.0
 20
0.0
 30
0.0
  9
$UCSXDIR
 10
1.0
 20
0.0
 30
0.0
  9
$UCSYDIR
 10
0.0
 20
1.0
 30
0.0
  9
$UCSORTHOREF
  2

  9
$UCSORTHOVIEW
 70
     0
  9
$UCSORGTOP
 10
0.0
 20
0.0
 30
0.0
  9
$UCSORGBOTTOM
 10
0.0
 20
0.0
 30
0.0
  9
$UCSORGLEFT
 10
0.0
 20
0.0
 30
0.0
  9
$UCSORGRIGHT
 10
0.0
 20
0.0
 30
0.0
  9
$UCSORGFRONT
 10
0.0
 20
0.0
 30
0.0
  9
$UCSORGBACK
 10
0.0
 20
0.0
 30
0.0
  9
$PUCSBASE
  2

  9
$PUCSNAME
  2

  9
$PUCSORG
 10
0.0
 20
0.0
 30
0.0
  9
$PUCSXDIR
 10
1.0
 20
0.0
 30
0.0
  9
$PUCSYDIR
 10
0.0
 20
1.0
 30
0.0
  9
$PUCSORTHOREF
  2

  9
$PUCSORTHOVIEW
 70
     0
  9
$PUCSORGTOP
 10
0.0
 20
0.0
 30
0.0
  9
$PUCSORGBOTTOM
 10
0.0
 20
0.0
 30
0.0
  9
$PUCSORGLEFT
 10
0.0
 20
0.0
 30
0.0
  9
$PUCSORGRIGHT
 10
0.0
 20
0.0
 30
0.0
  9
$PUCSORGFRONT
 10
0.0
 20
0.0
 30
0.0
  9
$PUCSORGBACK
 10
0.0
 20
0.0
 30
0.0
  9
$USERI1
 70
     0
  9
$USERI2
 70
     0
  9
$USERI3
 70
     0
  9
$USERI4
 70
     0
  9
$USERI5
 70
     0
  9
$USERR1
 40
0.0
  9
$USERR2
 40
0.0
  9
$USERR3
 40
0.0
  9
$USERR4
 40
0.0
  9
$USERR5
 40
0.0
  9
$WORLDVIEW
 70
     1
  9
$SHADEDGE
 70
     3
  9
$SHADEDIF
 70
    70
  9
$TILEMODE
 70
     1
  9
$MAXACTVP
 70
    16
  9
$PINSBASE
 10
0.0
 20
0.0
 30
0.0
  9
$PLIMCHECK
 70
     0
  9
$PEXTMIN
 10
1.000000000000000E+20
 20
1.000000000000000E+20
 30
1.000000000000000E+20
  9
$PEXTMAX
 10
-1.000000000000000E+20
 20
-1.000000000000000E+20
 30
-1.000000000000000E+20
  9
$PLIMMIN
 10
0.0
 20
0.0
  9
$PLIMMAX
 10
12.0
 20
9.0
  9
$UNITMODE
 70
     0
  9
$VISRETAIN
 70
     0
  9
$PLINEGEN
 70
     0
  9
$PSLTSCALE
 70
     1
  9
$TREEDEPTH
 70
  3020
  9
$CMLSTYLE
  2
Standard
  9
$CMLJUST
 70
     0
  9
$CMLSCALE
 40
1.0
  9
$PROXYGRAPHICS
 70
     1
  9
$MEASUREMENT
 70
     0
  9
$CELWEIGHT
370
    -1
  9
$ENDCAPS
280
     0
  9
$JOINSTYLE
280
     0
  9
$LWDISPLAY
290
     0
  9
$INSUNITS
 70
     0
  9
$HYPERLINKBASE
  1

  9
$STYLESHEET
  1

  9
$XEDIT
290
     1
  9
$CEPSNTYPE
380
     0
  9
$PSTYLEMODE
290
     1
  9
$FINGERPRINTGUID
  2
{92FAC8EA-5592-4644-B855-FFB4C72794F5}
  9
$VERSIONGUID
  2
{D981D029-0EE8-4D4D-88D9-AA077397BC8B}
  9
$EXTNAMES
290
     1
  9
$PSVPSCALE
 40
0.0
  9
$OLESTARTUP
290
     0
  9
$SORTENTS
280
   127
  9
$INDEXCTL
280
     0
  9
$HIDETEXT
280
     1
  9
$XCLIPFRAME
290
     0
  9
$HALOGAP
280
     0
  9
$OBSCOLOR
 70
   257
  9
$OBSLTYPE
280
     0
  9
$INTERSECTIONDISPLAY
280
     0
  9
$INTERSECTIONCOLOR
 70
   257
  9
$DIMASSOC
280
     2
  9
$PROJECTNAME
  1

  0
ENDSEC
  0
SECTION
  2
CLASSES
  0
CLASS
  1
ACDBDICTIONARYWDFLT
  2
AcDbDictionaryWithDefault
  3
ObjectDBX Classes
 90
        0
 91
        1
280
     0
281
     0
  0
CLASS
  1
MATERIAL
  2
AcDbMaterial
  3
ObjectDBX Classes
 90
     1153
 91
        3
280
     0
281
     0
  0
CLASS
  1
VISUALSTYLE
  2
AcDbVisualStyle
  3
ObjectDBX Classes
 90
     4095
 91
       16
280
     0
281
     0
  0
CLASS
  1
SCALE
  2
AcDbScale
  3
ObjectDBX Classes
 90
     1153
 91
       33
280
     0
281
     0
  0
CLASS
  1
TABLESTYLE
  2
AcDbTableStyle
  3
ObjectDBX Classes
 90
     4095
 91
        1
280
     0
281
     0
  0
CLASS
  1
MLEADERSTYLE
  2
AcDbMLeaderStyle
  3
ACDB_MLEADERSTYLE_CLASS
 90
     4095
 91
        1
280
     0
281
     0
  0
CLASS
  1
DICTIONARYVAR
  2
AcDbDictionaryVar
  3
ObjectDBX Classes
 90
        0
 91
        5
280
     0
281
     0
  0
CLASS
  1
CELLSTYLEMAP
  2
AcDbCellStyleMap
  3
ObjectDBX Classes
 90
     1152
 91
        1
280
     0
281
     0
  0
ENDSEC
  0
SECTION
  2
TABLES
  0
TABLE
  2
VPORT
  5
8
330
0
100
AcDbSymbolTable
 70
     2
  0
VPORT
  5
7B
330
8
100
AcDbSymbolTableRecord
100
AcDbViewportTableRecord
  2
*ACTIVE
 70
     0
 10
0.0
 20
0.0
 11
1.0
 21
1.0
 12
9.242874109263658
 22
5.5
 13
0.0
 23
0.0
 14
0.0625
 24
0.0625
 15
0.5
 25
0.5
 16
0.0
 26
0.0
 36
1.0
 17
0.0
 27
0.0
 37
0.0
 40
11.0
 41
1.680522565320664
 42
50.0
 43
0.0
 44
0.0
 50
0.0
 51
0.0
 71
     0
 72
   100
 73
     1
 74
     1
 75
     0
 76
     1
 77
     0
 78
     0
281
     0
 65
     1
110
0.0
120
0.0
130
0.0
111
1.0
121
0.0
131
0.0
112
0.0
122
1.0
132
0.0
 79
     0
146
0.0
  0
ENDTAB
  0
TABLE
  2
LTYPE
  5
5
330
0
100
AcDbSymbolTable
 70
     1
  0
LTYPE
  5
62
330
5
100
AcDbSymbolTableRecord
100
AcDbLinetypeTableRecord
  2
ByBlock
 70
     0
  3

 72
    65
 73
     0
 40
0.0
  0
LTYPE
  5
63
330
5
100
AcDbSymbolTableRecord
100
AcDbLinetypeTableRecord
  2
ByLayer
 70
     0
  3

 72
    65
 73
     0
 40
0.0
  0
LTYPE
  5
64
330
5
100
AcDbSymbolTableRecord
100
AcDbLinetypeTableRecord
  2
CONTINUOUS
 70
     0
  3
Solid line
 72
    65
 73
     0
 40
0.0
  0
ENDTAB
  0
TABLE
  2
LAYER
  5
2
330
0
100
AcDbSymbolTable
 70
     4
  0
LAYER
  5
5C
102
{ACAD_XDICTIONARY
360
1BD
102
}
330
2
100
AcDbSymbolTableRecord
100
AcDbLayerTableRecord
  2
0
 70
     0
 62
     7
  6
CONTINUOUS
370
    -3
390
F
  0
LAYER
  5
7C
102
{ACAD_XDICTIONARY
360
1BF
102
}
330
2
100
AcDbSymbolTableRecord
100
AcDbLayerTableRecord
  2
TEXT
 70
     0
 62
     2
  6
CONTINUOUS
370
    -3
390
F
  0
LAYER
  5
7D
102
{ACAD_XDICTIONARY
360
1C1
102
}
330
2
100
AcDbSymbolTableRecord
100
AcDbLayerTableRecord
  2
DIM
 70
     0
 62
     4
  6
CONTINUOUS
370
    -3
390
F
  0
LAYER
  5
7E
330
2
100
AcDbSymbolTableRecord
100
AcDbLayerTableRecord
  2
DEFPOINTS
 70
     0
 62
     7
  6
CONTINUOUS
290
     0
370
    -3
390
F
  0
ENDTAB
  0
TABLE
  2
STYLE
  5
3
330
0
100
AcDbSymbolTable
 70
     4
  0
STYLE
  5
5D
330
3
100
AcDbSymbolTableRecord
100
AcDbTextStyleTableRecord
  2
STANDARD
 70
     0
 40
0.0
 41
1.0
 50
0.0
 71
     0
 42
0.2
  3
txt
  4

  0
STYLE
  5
61
330
3
100
AcDbSymbolTableRecord
100
AcDbTextStyleTableRecord
  2
ROMANS
 70
     0
 40
0.0
 41
1.0
 50
0.0
 71
     0
 42
0.09375
  3
romans
  4

1001
AcadAnnotative
1000
AnnotativeData
1002
{
1070
     1
1070
     1
1002
}
  0
STYLE
  5
78
330
3
100
AcDbSymbolTableRecord
100
AcDbTextStyleTableRecord
  2
HELV
 70
     0
 40
0.0
 41
1.0
 50
0.0
 71
     0
 42
0.2
  3
HELVMED
  4

  0
STYLE
  5
79
330
3
100
AcDbSymbolTableRecord
100
AcDbTextStyleTableRecord
  2
HELR
 70
     0
 40
0.0
 41
1.0
 50
0.0
 71
     0
 42
0.2
  3
HELV
  4

  0
ENDTAB
  0
TABLE
  2
VIEW
  5
6
330
0
100
AcDbSymbolTable
 70
     0
  0
ENDTAB
  0
TABLE
  2
UCS
  5
7
330
0
100
AcDbSymbolTable
 70
     0
  0
ENDTAB
  0
TABLE
  2
APPID
  5
9
330
0
100
AcDbSymbolTable
 70
     3
  0
APPID
  5
5E
330
9
100
AcDbSymbolTableRecord
100
AcDbRegAppTableRecord
  2
ACAD
 70
     0
  0
APPID
  5
65
330
9
100
AcDbSymbolTableRecord
100
AcDbRegAppTableRecord
  2
AcadAnnotative
 70
     0
  0
APPID
  5
6F
330
9
100
AcDbSymbolTableRecord
100
AcDbRegAppTableRecord
  2
ACAD_MLEADERVER
 70
     0
  0
ENDTAB
  0
TABLE
  2
DIMSTYLE
  5
A
330
0
100
AcDbSymbolTable
 70
     2
100
AcDbDimStyleTable
 71
     0
  0
DIMSTYLE
105
5F
330
A
100
AcDbSymbolTableRecord
100
AcDbDimStyleTableRecord
  2
Standard
 70
     0
340
5D
  0
DIMSTYLE
105
60
330
A
100
AcDbSymbolTableRecord
100
AcDbDimStyleTableRecord
  2
Annotative
 70
     0
340
5D
1001
AcadAnnotative
1000
AnnotativeData
1002
{
1070
     1
1070
     1
1002
}
  0
ENDTAB
  0
TABLE
  2
BLOCK_RECORD
  5
1
330
0
100
AcDbSymbolTable
 70
     0
  0
BLOCK_RECORD
  5
74
330
1
100
AcDbSymbolTableRecord
100
AcDbBlockTableRecord
  2
*Model_Space
340
77
  0
BLOCK_RECORD
  5
70
330
1
100
AcDbSymbolTableRecord
100
AcDbBlockTableRecord
  2
*Paper_Space
340
73
  0
ENDTAB
  0
ENDSEC
  0
SECTION
  2
BLOCKS
  0
BLOCK
  5
81
330
74
100
AcDbEntity
  8
0
100
AcDbBlockBegin
  2
*Model_Space
 70
     0
 10
0.0
 20
0.0
 30
0.0
  3
*Model_Space
  1

  0
ENDBLK
  5
82
330
74
100
AcDbEntity
  8
0
100
AcDbBlockEnd
  0
BLOCK
  5
7F
330
70
100
AcDbEntity
 67
     1
  8
0
100
AcDbBlockBegin
  2
*Paper_Space
 70
     0
 10
0.0
 20
0.0
 30
0.0
  3
*Paper_Space
  1

  0
ENDBLK
  5
80
330
70
100
AcDbEntity
 67
     1
  8
0
100
AcDbBlockEnd
  0
ENDSEC
  0
SECTION
  2
ENTITIES
  0
TEXT
  5
83
330
74
100
AcDbEntity
  8
TEXT
100
AcDbText
 10
11.94580465877997
 20
19.47165575536675
 30
0.0
 40
0.12
  1

 50
270.0
  7
ROMANS
100
AcDbText
  0
LWPOLYLINE
  5
85
330
74
100
AcDbEntity
  8
0
100
AcDbPolyline
 90
        4
 70
     1
 43
0.0
 10
3.021601974897297
 20
6.822933858229468
 10
3.021601974897297
 20
7.72844385822947
 10
4.399551974897295
 20
7.72844385822947
 10
4.399551974897295
 20
6.822933858229468
  0
LWPOLYLINE
  5
8B
330
74
100
AcDbEntity
  8
DIM
100
AcDbPolyline
 90
        4
 70
     1
 43
0.0
 10
3.090499474897296
 20
6.901673858229468
 10
3.090499474897296
 20
7.649703858229468
 10
4.33065447489729
 20
7.649703858229468
 10
4.33065447489729
 20
6.901673858229468
  0
LINE
  5
91
330
74
100
AcDbEntity
  8
DIM
100
AcDbLine
 10
3.31490847489729
 20
7.318508374409766
 30
0.0
 11
3.240105474897294
 21
7.361695906595958
 31
0.0
  0
LINE
  5
92
330
74
100
AcDbEntity
  8
DIM
100
AcDbLine
 10
3.240105474897294
 20
7.361695906595958
 30
0.0
 11
3.165302474897291
 21
7.318508374409766
 31
0.0
  0
LINE
  5
93
330
74
100
AcDbEntity
  8
DIM
100
AcDbLine
 10
3.165302474897291
 20
7.318508374409766
 30
0.0
 11
3.165302474897291
 21
7.232133310037385
 31
0.0
  0
LINE
  5
94
330
74
100
AcDbEntity
  8
DIM
100
AcDbLine
 10
3.165302474897291
 20
7.232133310037385
 30
0.0
 11
3.240105474897294
 21
7.188945777851193
 31
0.0
  0
LINE
  5
95
330
74
100
AcDbEntity
  8
DIM
100
AcDbLine
 10
3.240105474897294
 20
7.188945777851193
 30
0.0
 11
3.31490847489729
 21
7.232133310037385
 31
0.0
  0
LINE
  5
96
330
74
100
AcDbEntity
  8
DIM
100
AcDbLine
 10
3.31490847489729
 20
7.232133310037385
 30
0.0
 11
3.31490847489729
 21
7.318508374409766
 31
0.0
  0
LINE
  5
97
330
74
100
AcDbEntity
  8
DIM
100
AcDbLine
 10
3.165302474897291
 20
7.232133310037385
 30
0.0
 11
3.090499474897296
 21
7.188945777851193
 31
0.0
  0
LINE
  5
98
330
74
100
AcDbEntity
  8
DIM
100
AcDbLine
 10
3.090499474897296
 20
7.10257071347881
 30
0.0
 11
3.165302474897291
 21
7.05938318129262
 31
0.0
  0
LINE
  5
99
330
74
100
AcDbEntity
  8
DIM
100
AcDbLine
 10
3.165302474897291
 20
7.05938318129262
 30
0.0
 11
3.240105474897294
 21
7.10257071347881
 31
0.0
  0
LINE
  5
9A
330
74
100
AcDbEntity
  8
DIM
100
AcDbLine
 10
3.240105474897294
 20
7.10257071347881
 30
0.0
 11
3.240105474897294
 21
7.188945777851193
 31
0.0
  0
LINE
  5
9B
330
74
100
AcDbEntity
  8
DIM
100
AcDbLine
 10
3.31490847489729
 20
7.05938318129262
 30
0.0
 11
3.240105474897294
 21
7.10257071347881
 31
0.0
  0
LINE
  5
9C
330
74
100
AcDbEntity
  8
DIM
100
AcDbLine
 10
3.165302474897291
 20
7.05938318129262
 30
0.0
 11
3.165302474897291
 21
6.973008116920237
 31
0.0
  0
LINE
  5
9D
330
74
100
AcDbEntity
  8
DIM
100
AcDbLine
 10
3.165302474897291
 20
6.973008116920237
 30
0.0
 11
3.240105474897294
 21
6.929820584734045
 31
0.0
  0
LINE
  5
9E
330
74
100
AcDbEntity
  8
DIM
100
AcDbLine
 10
3.240105474897294
 20
6.929820584734045
 30
0.0
 11
3.31490847489729
 21
6.973008116920237
 31
0.0
  0
LINE
  5
9F
330
74
100
AcDbEntity
  8
DIM
100
AcDbLine
 10
3.31490847489729
 20
6.973008116920237
 30
0.0
 11
3.31490847489729
 21
7.05938318129262
 31
0.0
  0
LINE
  5
A0
330
74
100
AcDbEntity
  8
DIM
100
AcDbLine
 10
3.31490847489729
 20
7.577633567526914
 30
0.0
 11
3.240105474897294
 21
7.620821099713104
 31
0.0
  0
LINE
  5
A1
330
74
100
AcDbEntity
  8
DIM
100
AcDbLine
 10
3.240105474897294
 20
7.620821099713104
 30
0.0
 11
3.165302474897291
 21
7.577633567526914
 31
0.0
  0
LINE
  5
A2
330
74
100
AcDbEntity
  8
DIM
100
AcDbLine
 10
3.165302474897291
 20
7.577633567526914
 30
0.0
 11
3.165302474897291
 21
7.491258503154531
 31
0.0
  0
LINE
  5
A3
330
74
100
AcDbEntity
  8
DIM
100
AcDbLine
 10
3.165302474897291
 20
7.491258503154531
 30
0.0
 11
3.240105474897294
 21
7.448070970968339
 31
0.0
  0
LINE
  5
A4
330
74
100
AcDbEntity
  8
DIM
100
AcDbLine
 10
3.240105474897294
 20
7.448070970968339
 30
0.0
 11
3.31490847489729
 21
7.491258503154531
 31
0.0
  0
LINE
  5
A5
330
74
100
AcDbEntity
  8
DIM
100
AcDbLine
 10
3.31490847489729
 20
7.491258503154531
 30
0.0
 11
3.31490847489729
 21
7.577633567526914
 31
0.0
  0
LINE
  5
A6
330
74
100
AcDbEntity
  8
DIM
100
AcDbLine
 10
3.165302474897291
 20
7.491258503154531
 30
0.0
 11
3.090499474897296
 21
7.448070970968339
 31
0.0
  0
LINE
  5
A7
330
74
100
AcDbEntity
  8
DIM
100
AcDbLine
 10
3.090499474897296
 20
7.361695906595958
 30
0.0
 11
3.165302474897291
 21
7.318508374409766
 31
0.0
  0
LINE
  5
A8
330
74
100
AcDbEntity
  8
DIM
100
AcDbLine
 10
3.240105474897294
 20
7.361695906595958
 30
0.0
 11
3.240105474897294
 21
7.448070970968339
 31
0.0
  0
LINE
  5
A9
330
74
100
AcDbEntity
  8
DIM
100
AcDbLine
 10
3.31490847489729
 20
7.232133310037385
 30
0.0
 11
3.389711474897286
 21
7.188945777851193
 31
0.0
  0
LINE
  5
AA
330
74
100
AcDbEntity
  8
DIM
100
AcDbLine
 10
3.31490847489729
 20
7.05938318129262
 30
0.0
 11
3.389711474897286
 21
7.10257071347881
 31
0.0
  0
LINE
  5
AB
330
74
100
AcDbEntity
  8
DIM
100
AcDbLine
 10
3.31490847489729
 20
7.491258503154531
 30
0.0
 11
3.389711474897286
 21
7.448070970968339
 31
0.0
  0
LINE
  5
AC
330
74
100
AcDbEntity
  8
DIM
100
AcDbLine
 10
3.389711474897286
 20
7.361695906595958
 30
0.0
 11
3.31490847489729
 21
7.318508374409766
 31
0.0
  0
LINE
  5
AD
330
74
100
AcDbEntity
  8
DIM
100
AcDbLine
 10
3.389711474897286
 20
7.10257071347881
 30
0.0
 11
3.389711474897286
 21
7.188945777851193
 31
0.0
  0
LINE
  5
AE
330
74
100
AcDbEntity
  8
DIM
100
AcDbLine
 10
3.389711474897286
 20
7.361695906595958
 30
0.0
 11
3.389711474897286
 21
7.448070970968339
 31
0.0
  0
LINE
  5
AF
330
74
100
AcDbEntity
  8
DIM
100
AcDbLine
 10
3.464514474897288
 20
7.232133310037385
 30
0.0
 11
3.539317474897284
 21
7.188945777851193
 31
0.0
  0
LINE
  5
B0
330
74
100
AcDbEntity
  8
DIM
100
AcDbLine
 10
3.389711474897286
 20
7.188945777851193
 30
0.0
 11
3.464514474897288
 21
7.232133310037385
 31
0.0
  0
LINE
  5
B1
330
74
100
AcDbEntity
  8
DIM
100
AcDbLine
 10
3.464514474897288
 20
7.05938318129262
 30
0.0
 11
3.539317474897284
 21
7.10257071347881
 31
0.0
  0
LINE
  5
B2
330
74
100
AcDbEntity
  8
DIM
100
AcDbLine
 10
3.464514474897288
 20
6.973008116920237
 30
0.0
 11
3.464514474897288
 21
7.05938318129262
 31
0.0
  0
LINE
  5
B3
330
74
100
AcDbEntity
  8
DIM
100
AcDbLine
 10
3.464514474897288
 20
7.05938318129262
 30
0.0
 11
3.389711474897286
 21
7.10257071347881
 31
0.0
  0
LINE
  5
B4
330
74
100
AcDbEntity
  8
DIM
100
AcDbLine
 10
3.539317474897284
 20
7.10257071347881
 30
0.0
 11
3.539317474897284
 21
7.188945777851193
 31
0.0
  0
LINE
  5
B5
330
74
100
AcDbEntity
  8
DIM
100
AcDbLine
 10
3.539317474897284
 20
7.361695906595958
 30
0.0
 11
3.464514474897288
 21
7.318508374409766
 31
0.0
  0
LINE
  5
B6
330
74
100
AcDbEntity
  8
DIM
100
AcDbLine
 10
3.464514474897288
 20
7.491258503154531
 30
0.0
 11
3.539317474897284
 21
7.448070970968339
 31
0.0
  0
LINE
  5
B7
330
74
100
AcDbEntity
  8
DIM
100
AcDbLine
 10
3.464514474897288
 20
7.232133310037385
 30
0.0
 11
3.464514474897288
 21
7.318508374409766
 31
0.0
  0
LINE
  5
B8
330
74
100
AcDbEntity
  8
DIM
100
AcDbLine
 10
3.464514474897288
 20
7.318508374409766
 30
0.0
 11
3.389711474897286
 21
7.361695906595958
 31
0.0
  0
LINE
  5
B9
330
74
100
AcDbEntity
  8
DIM
100
AcDbLine
 10
3.539317474897284
 20
7.361695906595958
 30
0.0
 11
3.539317474897284
 21
7.448070970968339
 31
0.0
  0
LINE
  5
BA
330
74
100
AcDbEntity
  8
DIM
100
AcDbLine
 10
3.389711474897286
 20
7.448070970968339
 30
0.0
 11
3.464514474897288
 21
7.491258503154531
 31
0.0
  0
LINE
  5
BB
330
74
100
AcDbEntity
  8
DIM
100
AcDbLine
 10
3.614120474897287
 20
7.232133310037385
 30
0.0
 11
3.688923474897283
 21
7.188945777851193
 31
0.0
  0
LINE
  5
BC
330
74
100
AcDbEntity
  8
DIM
100
AcDbLine
 10
3.539317474897284
 20
7.188945777851193
 30
0.0
 11
3.614120474897287
 21
7.232133310037385
 31
0.0
  0
LINE
  5
BD
330
74
100
AcDbEntity
  8
DIM
100
AcDbLine
 10
3.614120474897287
 20
7.05938318129262
 30
0.0
 11
3.688923474897283
 21
7.10257071347881
 31
0.0
  0
LINE
  5
BE
330
74
100
AcDbEntity
  8
DIM
100
AcDbLine
 10
3.614120474897287
 20
6.973008116920237
 30
0.0
 11
3.614120474897287
 21
7.05938318129262
 31
0.0
  0
LINE
  5
BF
330
74
100
AcDbEntity
  8
DIM
100
AcDbLine
 10
3.614120474897287
 20
7.05938318129262
 30
0.0
 11
3.539317474897284
 21
7.10257071347881
 31
0.0
  0
LINE
  5
C0
330
74
100
AcDbEntity
  8
DIM
100
AcDbLine
 10
3.688923474897283
 20
7.10257071347881
 30
0.0
 11
3.688923474897283
 21
7.188945777851193
 31
0.0
  0
LINE
  5
C1
330
74
100
AcDbEntity
  8
DIM
100
AcDbLine
 10
3.688923474897283
 20
7.361695906595958
 30
0.0
 11
3.614120474897287
 21
7.318508374409766
 31
0.0
  0
LINE
  5
C2
330
74
100
AcDbEntity
  8
DIM
100
AcDbLine
 10
3.614120474897287
 20
7.491258503154531
 30
0.0
 11
3.688923474897283
 21
7.448070970968339
 31
0.0
  0
LINE
  5
C3
330
74
100
AcDbEntity
  8
DIM
100
AcDbLine
 10
3.614120474897287
 20
7.232133310037385
 30
0.0
 11
3.614120474897287
 21
7.318508374409766
 31
0.0
  0
LINE
  5
C4
330
74
100
AcDbEntity
  8
DIM
100
AcDbLine
 10
3.614120474897287
 20
7.318508374409766
 30
0.0
 11
3.539317474897284
 21
7.361695906595958
 31
0.0
  0
LINE
  5
C5
330
74
100
AcDbEntity
  8
DIM
100
AcDbLine
 10
3.688923474897283
 20
7.361695906595958
 30
0.0
 11
3.688923474897283
 21
7.448070970968339
 31
0.0
  0
LINE
  5
C6
330
74
100
AcDbEntity
  8
DIM
100
AcDbLine
 10
3.539317474897284
 20
7.448070970968339
 30
0.0
 11
3.614120474897287
 21
7.491258503154531
 31
0.0
  0
LINE
  5
C7
330
74
100
AcDbEntity
  8
DIM
100
AcDbLine
 10
3.763726474897286
 20
7.232133310037385
 30
0.0
 11
3.838529474897281
 21
7.188945777851193
 31
0.0
  0
LINE
  5
C8
330
74
100
AcDbEntity
  8
DIM
100
AcDbLine
 10
3.688923474897283
 20
7.188945777851193
 30
0.0
 11
3.763726474897286
 21
7.232133310037385
 31
0.0
  0
LINE
  5
C9
330
74
100
AcDbEntity
  8
DIM
100
AcDbLine
 10
3.763726474897286
 20
7.05938318129262
 30
0.0
 11
3.838529474897281
 21
7.10257071347881
 31
0.0
  0
LINE
  5
CA
330
74
100
AcDbEntity
  8
DIM
100
AcDbLine
 10
3.763726474897286
 20
6.973008116920237
 30
0.0
 11
3.763726474897286
 21
7.05938318129262
 31
0.0
  0
LINE
  5
CB
330
74
100
AcDbEntity
  8
DIM
100
AcDbLine
 10
3.763726474897286
 20
7.05938318129262
 30
0.0
 11
3.688923474897283
 21
7.10257071347881
 31
0.0
  0
LINE
  5
CC
330
74
100
AcDbEntity
  8
DIM
100
AcDbLine
 10
3.838529474897281
 20
7.10257071347881
 30
0.0
 11
3.838529474897281
 21
7.188945777851193
 31
0.0
  0
LINE
  5
CD
330
74
100
AcDbEntity
  8
DIM
100
AcDbLine
 10
3.838529474897281
 20
7.361695906595958
 30
0.0
 11
3.763726474897286
 21
7.318508374409766
 31
0.0
  0
LINE
  5
CE
330
74
100
AcDbEntity
  8
DIM
100
AcDbLine
 10
3.763726474897286
 20
7.491258503154531
 30
0.0
 11
3.838529474897281
 21
7.448070970968339
 31
0.0
  0
LINE
  5
CF
330
74
100
AcDbEntity
  8
DIM
100
AcDbLine
 10
3.763726474897286
 20
7.232133310037385
 30
0.0
 11
3.763726474897286
 21
7.318508374409766
 31
0.0
  0
LINE
  5
D0
330
74
100
AcDbEntity
  8
DIM
100
AcDbLine
 10
3.763726474897286
 20
7.318508374409766
 30
0.0
 11
3.688923474897283
 21
7.361695906595958
 31
0.0
  0
LINE
  5
D1
330
74
100
AcDbEntity
  8
DIM
100
AcDbLine
 10
3.838529474897281
 20
7.361695906595958
 30
0.0
 11
3.838529474897281
 21
7.448070970968339
 31
0.0
  0
LINE
  5
D2
330
74
100
AcDbEntity
  8
DIM
100
AcDbLine
 10
3.688923474897283
 20
7.448070970968339
 30
0.0
 11
3.763726474897286
 21
7.491258503154531
 31
0.0
  0
LINE
  5
D3
330
74
100
AcDbEntity
  8
DIM
100
AcDbLine
 10
3.913332474897284
 20
7.232133310037385
 30
0.0
 11
3.98813547489728
 21
7.188945777851193
 31
0.0
  0
LINE
  5
D4
330
74
100
AcDbEntity
  8
DIM
100
AcDbLine
 10
3.838529474897281
 20
7.188945777851193
 30
0.0
 11
3.913332474897284
 21
7.232133310037385
 31
0.0
  0
LINE
  5
D5
330
74
100
AcDbEntity
  8
DIM
100
AcDbLine
 10
3.913332474897284
 20
7.05938318129262
 30
0.0
 11
3.98813547489728
 21
7.10257071347881
 31
0.0
  0
LINE
  5
D6
330
74
100
AcDbEntity
  8
DIM
100
AcDbLine
 10
3.913332474897284
 20
6.973008116920237
 30
0.0
 11
3.913332474897284
 21
7.05938318129262
 31
0.0
  0
LINE
  5
D7
330
74
100
AcDbEntity
  8
DIM
100
AcDbLine
 10
3.913332474897284
 20
7.05938318129262
 30
0.0
 11
3.838529474897281
 21
7.10257071347881
 31
0.0
  0
LINE
  5
D8
330
74
100
AcDbEntity
  8
DIM
100
AcDbLine
 10
3.98813547489728
 20
7.10257071347881
 30
0.0
 11
3.98813547489728
 21
7.188945777851193
 31
0.0
  0
LINE
  5
D9
330
74
100
AcDbEntity
  8
DIM
100
AcDbLine
 10
3.98813547489728
 20
7.361695906595958
 30
0.0
 11
3.913332474897284
 21
7.318508374409766
 31
0.0
  0
LINE
  5
DA
330
74
100
AcDbEntity
  8
DIM
100
AcDbLine
 10
3.913332474897284
 20
7.491258503154531
 30
0.0
 11
3.98813547489728
 21
7.448070970968339
 31
0.0
  0
LINE
  5
DB
330
74
100
AcDbEntity
  8
DIM
100
AcDbLine
 10
3.913332474897284
 20
7.232133310037385
 30
0.0
 11
3.913332474897284
 21
7.318508374409766
 31
0.0
  0
LINE
  5
DC
330
74
100
AcDbEntity
  8
DIM
100
AcDbLine
 10
3.913332474897284
 20
7.318508374409766
 30
0.0
 11
3.838529474897281
 21
7.361695906595958
 31
0.0
  0
LINE
  5
DD
330
74
100
AcDbEntity
  8
DIM
100
AcDbLine
 10
3.98813547489728
 20
7.361695906595958
 30
0.0
 11
3.98813547489728
 21
7.448070970968339
 31
0.0
  0
LINE
  5
DE
330
74
100
AcDbEntity
  8
DIM
100
AcDbLine
 10
3.838529474897281
 20
7.448070970968339
 30
0.0
 11
3.913332474897284
 21
7.491258503154531
 31
0.0
  0
LINE
  5
DF
330
74
100
AcDbEntity
  8
DIM
100
AcDbLine
 10
4.062938474897283
 20
7.232133310037385
 30
0.0
 11
4.137741474897278
 21
7.188945777851193
 31
0.0
  0
LINE
  5
E0
330
74
100
AcDbEntity
  8
DIM
100
AcDbLine
 10
3.98813547489728
 20
7.188945777851193
 30
0.0
 11
4.062938474897283
 21
7.232133310037385
 31
0.0
  0
LINE
  5
E1
330
74
100
AcDbEntity
  8
DIM
100
AcDbLine
 10
4.062938474897283
 20
7.05938318129262
 30
0.0
 11
4.137741474897278
 21
7.10257071347881
 31
0.0
  0
LINE
  5
E2
330
74
100
AcDbEntity
  8
DIM
100
AcDbLine
 10
4.062938474897283
 20
6.973008116920237
 30
0.0
 11
4.062938474897283
 21
7.05938318129262
 31
0.0
  0
LINE
  5
E3
330
74
100
AcDbEntity
  8
DIM
100
AcDbLine
 10
4.062938474897283
 20
7.05938318129262
 30
0.0
 11
3.98813547489728
 21
7.10257071347881
 31
0.0
  0
LINE
  5
E4
330
74
100
AcDbEntity
  8
DIM
100
AcDbLine
 10
4.137741474897278
 20
7.10257071347881
 30
0.0
 11
4.137741474897278
 21
7.188945777851193
 31
0.0
  0
LINE
  5
E5
330
74
100
AcDbEntity
  8
DIM
100
AcDbLine
 10
4.137741474897278
 20
7.361695906595958
 30
0.0
 11
4.062938474897283
 21
7.318508374409766
 31
0.0
  0
LINE
  5
E6
330
74
100
AcDbEntity
  8
DIM
100
AcDbLine
 10
4.062938474897283
 20
7.491258503154531
 30
0.0
 11
4.137741474897278
 21
7.448070970968339
 31
0.0
  0
LINE
  5
E7
330
74
100
AcDbEntity
  8
DIM
100
AcDbLine
 10
4.062938474897283
 20
7.232133310037385
 30
0.0
 11
4.062938474897283
 21
7.318508374409766
 31
0.0
  0
LINE
  5
E8
330
74
100
AcDbEntity
  8
DIM
100
AcDbLine
 10
4.062938474897283
 20
7.318508374409766
 30
0.0
 11
3.98813547489728
 21
7.361695906595958
 31
0.0
  0
LINE
  5
E9
330
74
100
AcDbEntity
  8
DIM
100
AcDbLine
 10
4.137741474897278
 20
7.361695906595958
 30
0.0
 11
4.137741474897278
 21
7.448070970968339
 31
0.0
  0
LINE
  5
EA
330
74
100
AcDbEntity
  8
DIM
100
AcDbLine
 10
3.98813547489728
 20
7.448070970968339
 30
0.0
 11
4.062938474897283
 21
7.491258503154531
 31
0.0
  0
LINE
  5
EB
330
74
100
AcDbEntity
  8
DIM
100
AcDbLine
 10
4.212544474897281
 20
7.232133310037385
 30
0.0
 11
4.287347474897277
 21
7.188945777851193
 31
0.0
  0
LINE
  5
EC
330
74
100
AcDbEntity
  8
DIM
100
AcDbLine
 10
4.137741474897278
 20
7.188945777851193
 30
0.0
 11
4.212544474897281
 21
7.232133310037385
 31
0.0
  0
LINE
  5
ED
330
74
100
AcDbEntity
  8
DIM
100
AcDbLine
 10
4.212544474897281
 20
7.05938318129262
 30
0.0
 11
4.287347474897277
 21
7.10257071347881
 31
0.0
  0
LINE
  5
EE
330
74
100
AcDbEntity
  8
DIM
100
AcDbLine
 10
4.212544474897281
 20
6.973008116920237
 30
0.0
 11
4.212544474897281
 21
7.05938318129262
 31
0.0
  0
LINE
  5
EF
330
74
100
AcDbEntity
  8
DIM
100
AcDbLine
 10
4.212544474897281
 20
7.05938318129262
 30
0.0
 11
4.137741474897278
 21
7.10257071347881
 31
0.0
  0
LINE
  5
F0
330
74
100
AcDbEntity
  8
DIM
100
AcDbLine
 10
4.287347474897277
 20
7.10257071347881
 30
0.0
 11
4.287347474897277
 21
7.188945777851193
 31
0.0
  0
LINE
  5
F1
330
74
100
AcDbEntity
  8
DIM
100
AcDbLine
 10
4.287347474897277
 20
7.361695906595958
 30
0.0
 11
4.212544474897281
 21
7.318508374409766
 31
0.0
  0
LINE
  5
F2
330
74
100
AcDbEntity
  8
DIM
100
AcDbLine
 10
4.212544474897281
 20
7.491258503154531
 30
0.0
 11
4.287347474897277
 21
7.448070970968339
 31
0.0
  0
LINE
  5
F3
330
74
100
AcDbEntity
  8
DIM
100
AcDbLine
 10
4.212544474897281
 20
7.232133310037385
 30
0.0
 11
4.212544474897281
 21
7.318508374409766
 31
0.0
  0
LINE
  5
F4
330
74
100
AcDbEntity
  8
DIM
100
AcDbLine
 10
4.212544474897281
 20
7.318508374409766
 30
0.0
 11
4.137741474897278
 21
7.361695906595958
 31
0.0
  0
LINE
  5
F5
330
74
100
AcDbEntity
  8
DIM
100
AcDbLine
 10
4.287347474897277
 20
7.361695906595958
 30
0.0
 11
4.287347474897277
 21
7.448070970968339
 31
0.0
  0
LINE
  5
F6
330
74
100
AcDbEntity
  8
DIM
100
AcDbLine
 10
4.137741474897278
 20
7.448070970968339
 30
0.0
 11
4.212544474897281
 21
7.491258503154531
 31
0.0
  0
LINE
  5
F7
330
74
100
AcDbEntity
  8
DIM
100
AcDbLine
 10
3.389711474897286
 20
6.929820584734045
 30
0.0
 11
3.464514474897288
 21
6.973008116920237
 31
0.0
  0
LINE
  5
F8
330
74
100
AcDbEntity
  8
DIM
100
AcDbLine
 10
3.31490847489729
 20
6.973008116920237
 30
0.0
 11
3.389711474897286
 21
6.929820584734045
 31
0.0
  0
LINE
  5
F9
330
74
100
AcDbEntity
  8
DIM
100
AcDbLine
 10
3.539317474897284
 20
6.929820584734045
 30
0.0
 11
3.614120474897287
 21
6.973008116920237
 31
0.0
  0
LINE
  5
FA
330
74
100
AcDbEntity
  8
DIM
100
AcDbLine
 10
3.464514474897288
 20
6.973008116920237
 30
0.0
 11
3.539317474897284
 21
6.929820584734045
 31
0.0
  0
LINE
  5
FB
330
74
100
AcDbEntity
  8
DIM
100
AcDbLine
 10
3.688923474897283
 20
6.929820584734045
 30
0.0
 11
3.763726474897286
 21
6.973008116920237
 31
0.0
  0
LINE
  5
FC
330
74
100
AcDbEntity
  8
DIM
100
AcDbLine
 10
3.614120474897287
 20
6.973008116920237
 30
0.0
 11
3.688923474897283
 21
6.929820584734045
 31
0.0
  0
LINE
  5
FD
330
74
100
AcDbEntity
  8
DIM
100
AcDbLine
 10
3.838529474897281
 20
6.929820584734045
 30
0.0
 11
3.913332474897284
 21
6.973008116920237
 31
0.0
  0
LINE
  5
FE
330
74
100
AcDbEntity
  8
DIM
100
AcDbLine
 10
3.763726474897286
 20
6.973008116920237
 30
0.0
 11
3.838529474897281
 21
6.929820584734045
 31
0.0
  0
LINE
  5
FF
330
74
100
AcDbEntity
  8
DIM
100
AcDbLine
 10
3.98813547489728
 20
6.929820584734045
 30
0.0
 11
4.062938474897283
 21
6.973008116920237
 31
0.0
  0
LINE
  5
100
330
74
100
AcDbEntity
  8
DIM
100
AcDbLine
 10
3.913332474897284
 20
6.973008116920237
 30
0.0
 11
3.98813547489728
 21
6.929820584734045
 31
0.0
  0
LINE
  5
101
330
74
100
AcDbEntity
  8
DIM
100
AcDbLine
 10
4.137741474897278
 20
6.929820584734045
 30
0.0
 11
4.212544474897281
 21
6.973008116920237
 31
0.0
  0
LINE
  5
102
330
74
100
AcDbEntity
  8
DIM
100
AcDbLine
 10
4.062938474897283
 20
6.973008116920237
 30
0.0
 11
4.137741474897278
 21
6.929820584734045
 31
0.0
  0
LINE
  5
103
330
74
100
AcDbEntity
  8
DIM
100
AcDbLine
 10
3.389711474897286
 20
7.620821099713104
 30
0.0
 11
3.31490847489729
 21
7.577633567526914
 31
0.0
  0
LINE
  5
104
330
74
100
AcDbEntity
  8
DIM
100
AcDbLine
 10
3.464514474897288
 20
7.577633567526914
 30
0.0
 11
3.389711474897286
 21
7.620821099713104
 31
0.0
  0
LINE
  5
105
330
74
100
AcDbEntity
  8
DIM
100
AcDbLine
 10
3.464514474897288
 20
7.491258503154531
 30
0.0
 11
3.464514474897288
 21
7.577633567526914
 31
0.0
  0
LINE
  5
106
330
74
100
AcDbEntity
  8
DIM
100
AcDbLine
 10
3.688923474897283
 20
7.620821099713104
 30
0.0
 11
3.614120474897287
 21
7.577633567526914
 31
0.0
  0
LINE
  5
107
330
74
100
AcDbEntity
  8
DIM
100
AcDbLine
 10
3.539317474897284
 20
7.620821099713104
 30
0.0
 11
3.464514474897288
 21
7.577633567526914
 31
0.0
  0
LINE
  5
108
330
74
100
AcDbEntity
  8
DIM
100
AcDbLine
 10
3.614120474897287
 20
7.577633567526914
 30
0.0
 11
3.539317474897284
 21
7.620821099713104
 31
0.0
  0
LINE
  5
109
330
74
100
AcDbEntity
  8
DIM
100
AcDbLine
 10
3.763726474897286
 20
7.577633567526914
 30
0.0
 11
3.688923474897283
 21
7.620821099713104
 31
0.0
  0
LINE
  5
10A
330
74
100
AcDbEntity
  8
DIM
100
AcDbLine
 10
3.98813547489728
 20
7.620821099713104
 30
0.0
 11
3.913332474897284
 21
7.577633567526914
 31
0.0
  0
LINE
  5
10B
330
74
100
AcDbEntity
  8
DIM
100
AcDbLine
 10
3.838529474897281
 20
7.620821099713104
 30
0.0
 11
3.763726474897286
 21
7.577633567526914
 31
0.0
  0
LINE
  5
10C
330
74
100
AcDbEntity
  8
DIM
100
AcDbLine
 10
3.913332474897284
 20
7.577633567526914
 30
0.0
 11
3.838529474897281
 21
7.620821099713104
 31
0.0
  0
LINE
  5
10D
330
74
100
AcDbEntity
  8
DIM
100
AcDbLine
 10
4.062938474897283
 20
7.577633567526914
 30
0.0
 11
3.98813547489728
 21
7.620821099713104
 31
0.0
  0
LINE
  5
10E
330
74
100
AcDbEntity
  8
DIM
100
AcDbLine
 10
3.614120474897287
 20
7.577633567526914
 30
0.0
 11
3.614120474897287
 21
7.491258503154531
 31
0.0
  0
LINE
  5
10F
330
74
100
AcDbEntity
  8
DIM
100
AcDbLine
 10
3.763726474897286
 20
7.491258503154531
 30
0.0
 11
3.763726474897286
 21
7.577633567526914
 31
0.0
  0
LINE
  5
110
330
74
100
AcDbEntity
  8
DIM
100
AcDbLine
 10
3.913332474897284
 20
7.491258503154531
 30
0.0
 11
3.913332474897284
 21
7.577633567526914
 31
0.0
  0
LINE
  5
111
330
74
100
AcDbEntity
  8
DIM
100
AcDbLine
 10
4.062938474897283
 20
7.491258503154531
 30
0.0
 11
4.062938474897283
 21
7.577633567526914
 31
0.0
  0
LINE
  5
112
330
74
100
AcDbEntity
  8
DIM
100
AcDbLine
 10
4.212544474897281
 20
7.491258503154531
 30
0.0
 11
4.212544474897281
 21
7.577633567526914
 31
0.0
  0
LINE
  5
113
330
74
100
AcDbEntity
  8
DIM
100
AcDbLine
 10
4.212544474897281
 20
7.577633567526914
 30
0.0
 11
4.137741474897278
 21
7.620821099713104
 31
0.0
  0
LINE
  5
114
330
74
100
AcDbEntity
  8
DIM
100
AcDbLine
 10
4.137741474897278
 20
7.620821099713104
 30
0.0
 11
4.062938474897283
 21
7.577633567526914
 31
0.0
  0
LINE
  5
115
330
74
100
AcDbEntity
  8
0
100
AcDbLine
 10
3.021601974897297
 20
7.72844385822947
 30
0.0
 11
2.726326974897293
 21
7.72844385822947
 31
0.0
  0
LINE
  5
116
330
74
100
AcDbEntity
  8
0
100
AcDbLine
 10
3.021601974897297
 20
6.822933858229468
 30
0.0
 11
2.726326974897293
 21
6.822933858229468
 31
0.0
  0
LINE
  5
117
330
74
100
AcDbEntity
  8
0
100
AcDbLine
 10
2.726326974897293
 20
7.72844385822947
 30
0.0
 11
2.726326974897293
 21
6.822933858229468
 31
0.0
  0
LINE
  5
118
330
74
100
AcDbEntity
  8
0
100
AcDbLine
 10
2.726326974897293
 20
7.354428858229468
 30
0.0
 11
3.021601974897297
 21
7.354428858229468
 31
0.0
  0
LINE
  5
119
330
74
100
AcDbEntity
  8
0
100
AcDbLine
 10
2.726326974897293
 20
7.196948858229468
 30
0.0
 11
3.021601974897297
 21
7.196948858229468
 31
0.0
  0
ARC
  5
11A
330
74
100
AcDbEntity
  8
0
100
AcDbCircle
 10
2.873964474897295
 20
7.54962124529802
 30
0.0
 40
0.059055
100
AcDbArc
 50
0.0
 51
180.0
  0
ARC
  5
11B
330
74
100
AcDbEntity
  8
0
100
AcDbCircle
 10
2.873964474897295
 20
7.487618956510413
 30
0.0
 40
0.059055
100
AcDbArc
 50
180.0
 51
0.0
  0
LINE
  5
11C
330
74
100
AcDbEntity
  8
0
100
AcDbLine
 10
2.814909474897294
 20
7.54962124529802
 30
0.0
 11
2.814909474897294
 21
7.487618956510413
 31
0.0
  0
LINE
  5
11D
330
74
100
AcDbEntity
  8
0
100
AcDbLine
 10
2.933019474897296
 20
7.54962124529802
 30
0.0
 11
2.933019474897296
 21
7.487618956510413
 31
0.0
  0
ARC
  5
11E
330
74
100
AcDbEntity
  8
0
100
AcDbCircle
 10
2.873964474897295
 20
7.063758759948525
 30
0.0
 40
0.059055
100
AcDbArc
 50
0.0
 51
180.0
  0
ARC
  5
11F
330
74
100
AcDbEntity
  8
0
100
AcDbCircle
 10
2.873964474897295
 20
7.001756471160918
 30
0.0
 40
0.059055
100
AcDbArc
 50
180.0
 51
0.0
  0
LINE
  5
120
330
74
100
AcDbEntity
  8
0
100
AcDbLine
 10
2.933019474897296
 20
7.001756471160918
 30
0.0
 11
2.933019474897296
 21
7.063758759948525
 31
0.0
  0
LINE
  5
121
330
74
100
AcDbEntity
  8
0
100
AcDbLine
 10
2.814909474897294
 20
7.001756471160918
 30
0.0
 11
2.814909474897294
 21
7.063758759948525
 31
0.0
  0
LWPOLYLINE
  5
122
330
74
100
AcDbEntity
  8
0
100
AcDbPolyline
 90
        5
 70
     0
 43
0.03
 10
0.25
 20
0.25
 10
7.681266621231465
 20
0.25
 10
7.681266621231465
 20
10.5
 10
0.25
 20
10.5
 10
0.25
 20
0.25
  0
LWPOLYLINE
  5
129
330
74
100
AcDbEntity
  8
0
100
AcDbPolyline
 90
        2
 70
     0
 43
0.02
 10
0.25
 20
2.0
 10
7.681266621231465
 20
2.0
  0
TEXT
  5
12D
330
74
100
AcDbEntity
  8
0
100
AcDbText
 10
0.3827972380272824
 20
1.871600897271502
 30
0.0
 40
0.06
  1
UNLESS OTHERWISE SPECIFIED
  7
HELR
100
AcDbText
  0
TEXT
  5
12F
330
74
100
AcDbEntity
  8
0
100
AcDbText
 10
0.3827972380272824
 20
1.720612830372884
 30
0.0
 40
0.05
  1
DIMENSIONS ARE IN INCHES
100
AcDbText
  0
TEXT
  5
131
330
74
100
AcDbEntity
  8
0
100
AcDbText
 10
0.3827972380272824
 20
1.637279497039552
 30
0.0
 40
0.05
  1
TOLERANCES ON
100
AcDbText
  0
TEXT
  5
132
330
74
100
AcDbEntity
  8
0
100
AcDbText
 10
0.3827972380272824
 20
1.491446163706218
 30
0.0
 40
0.05
  1
FRACTION
100
AcDbText
  0
TEXT
  5
133
330
74
100
AcDbEntity
  8
0
100
AcDbText
 10
0.3801424879153163
 20
1.167474668863999
 30
0.0
 40
0.06
  1
MATERIAL
  7
HELR
100
AcDbText
  0
TEXT
  5
134
330
74
100
AcDbEntity
  8
0
100
AcDbText
 10
0.3827972380272824
 20
0.833083836904036
 30
0.0
 40
0.06
  1
FINISH
  7
HELR
100
AcDbText
  0
TEXT
  5
135
330
74
100
AcDbEntity
  8
0
100
AcDbText
 10
0.3620016954835492
 20
0.4878250320453362
 30
0.0
 40
0.06
  1
SCALE
  7
HELR
100
AcDbText
  0
LINE
  5
136
330
74
100
AcDbEntity
  8
0
100
AcDbLine
 10
0.2669856606428484
 20
1.80893380333266
 30
0.0
 11
1.997503483628642
 21
1.80893380333266
 31
0.0
  0
LINE
  5
137
330
74
100
AcDbEntity
  8
0
100
AcDbLine
 10
0.2621047129369911
 20
1.278673777696321
 30
0.0
 11
1.997503483628642
 21
1.278673777696321
 31
0.0
  0
LINE
  5
138
330
74
100
AcDbEntity
  8
0
100
AcDbLine
 10
0.2621047129369911
 20
0.9267739425012955
 30
0.0
 11
1.997503483628642
 21
0.9267739425012955
 31
0.0
  0
LINE
  5
139
330
74
100
AcDbEntity
  8
0
100
AcDbLine
 10
0.2669856606428484
 20
0.5893357443690804
 30
0.0
 11
1.997503483628642
 21
0.5893357443690804
 31
0.0
  0
LINE
  5
13A
330
74
100
AcDbEntity
  8
0
100
AcDbLine
 10
1.997035771726281
 20
1.606596777146977
 30
0.0
 11
4.001814564612556
 21
1.606596777146977
 31
0.0
  0
TEXT
  5
13B
330
74
100
AcDbEntity
  8
0
100
AcDbText
 10
2.253219157530993
 20
1.703694378318926
 30
0.0
 40
0.15
  1
APPROVALS
  7
HELV
100
AcDbText
  0
TEXT
  5
13C
330
74
100
AcDbEntity
  8
0
100
AcDbText
 10
2.022584983773151
 20
1.442844717084716
 30
0.0
 40
0.07
  1
DWN.
  7
HELR
100
AcDbText
  0
TEXT
  5
13D
330
74
100
AcDbEntity
  8
0
100
AcDbText
 10
2.022584983773151
 20
1.238367515107054
 30
0.0
 40
0.07
  1
CK'D
  7
HELR
100
AcDbText
  0
TEXT
  5
13E
330
74
100
AcDbEntity
  8
0
100
AcDbText
 10
3.03902519067291
 20
1.430237136055609
 30
0.0
 40
0.07
  1
DATE
  7
HELR
100
AcDbText
  0
LINE
  5
13F
330
74
100
AcDbEntity
  8
0
100
AcDbLine
 10
2.999425168169418
 20
1.606596777146977
 30
0.0
 11
2.999425168169418
 21
0.8291750595128313
 31
0.0
  0
LINE
  5
140
330
74
100
AcDbEntity
  8
0
100
AcDbLine
 10
1.997035771726281
 20
1.385803882072812
 30
0.0
 11
4.001814564612556
 21
1.385803882072812
 31
0.0
  0
LINE
  5
141
330
74
100
AcDbEntity
  8
0
100
AcDbLine
 10
2.005884938766167
 20
1.191288225599635
 30
0.0
 11
4.001814564612556
 21
1.191288225599635
 31
0.0
  0
LINE
  5
142
330
74
100
AcDbEntity
  8
0
100
AcDbLine
 10
1.997035771726281
 20
1.005745284746307
 30
0.0
 11
4.001814564612556
 21
1.005745284746307
 31
0.0
  0
LINE
  5
143
330
74
100
AcDbEntity
  8
0
100
AcDbLine
 10
1.997035771726281
 20
0.8291750595128313
 30
0.0
 11
4.001814564612556
 21
0.8291750595128313
 31
0.0
  0
TEXT
  5
144
330
74
100
AcDbEntity
  8
0
100
AcDbText
 10
2.339940994521881
 20
0.7340001831165655
 30
0.0
 40
0.05
  1
THIS DRAWING IS PROPERTY OF
100
AcDbText
  0
TEXT
  5
145
330
74
100
AcDbEntity
  8
0
100
AcDbText
 10
2.386841579833279
 20
0.6522660684855453
 30
0.0
 40
0.05
  1
THE ALLEN-BRADLEY CO. INC.
100
AcDbText
  0
TEXT
  5
146
330
74
100
AcDbEntity
  8
0
100
AcDbText
 10
2.286403533930567
 20
0.5663660501738815
 30
0.0
 40
0.05
  1
AND MAY NOT BE COPIED, USED OR
100
AcDbText
  0
TEXT
  5
147
330
74
100
AcDbEntity
  8
0
100
AcDbText
 10
2.239945406971163
 20
0.484311481413581
 30
0.0
 40
0.05
  1
DISCLOSED FOR ANY PURPOSE EXCEPT
100
AcDbText
  0
TEXT
  5
148
330
74
100
AcDbEntity
  8
0
100
AcDbText
 10
2.329321994074017
 20
0.3987319172311974
 30
0.0
 40
0.05
  1
AUTHORIZED IN WRITING BY THE 
100
AcDbText
  0
TEXT
  5
149
330
74
100
AcDbEntity
  8
0
100
AcDbText
 10
2.497456167831859
 20
0.3128318989195336
 30
0.0
 40
0.05
  1
ALLEN-BRADLEY CO.INC.
100
AcDbText
  0
TEXT
  5
14A
330
74
100
AcDbEntity
  8
0
100
AcDbText
 10
4.092076068419397
 20
0.5202572788865663
 30
0.0
 40
0.1
  1
CHG
  7
HELR
100
AcDbText
  0
TEXT
  5
14B
330
74
100
AcDbEntity
  8
0
100
AcDbText
 10
4.092076068419397
 20
0.3535906122199002
 30
0.0
 40
0.1
  1
LTR
  7
HELR
100
AcDbText
  0
LINE
  5
14C
330
74
100
AcDbEntity
  8
0
100
AcDbLine
 10
4.514623794573975
 20
0.747779710675621
 30
0.0
 11
4.514623794573975
 21
0.268380333272205
 31
0.0
  0
LWPOLYLINE
  5
14D
330
74
100
AcDbEntity
  8
0
100
AcDbPolyline
 90
        2
 70
     0
 43
0.02
 10
5.25
 20
0.75
 10
5.25
 20
0.25
  0
LWPOLYLINE
  5
151
330
74
100
AcDbEntity
  8
0
100
AcDbPolyline
 90
        2
 70
     0
 43
0.02
 10
6.335875367769419
 20
2.0
 10
6.335875367769419
 20
0.75
  0
LWPOLYLINE
  5
155
330
74
100
AcDbEntity
  8
0
100
AcDbPolyline
 90
        2
 70
     0
 43
0.02
 10
7.681266621231465
 20
0.75
 10
4.0
 20
0.75
  0
LWPOLYLINE
  5
159
330
74
100
AcDbEntity
  8
0
100
AcDbPolyline
 90
        2
 70
     0
 43
0.02
 10
7.148375367769419
 20
0.75
 10
7.148375367769419
 20
0.25
  0
LWPOLYLINE
  5
15D
330
74
100
AcDbEntity
  8
0
100
AcDbPolyline
 90
        2
 70
     0
 43
0.02
 10
4.0
 20
2.0
 10
4.0
 20
0.25
  0
LWPOLYLINE
  5
161
330
74
100
AcDbEntity
  8
0
100
AcDbPolyline
 90
        2
 70
     0
 43
0.02
 10
2.0
 20
2.0
 10
2.0
 20
0.25
  0
TEXT
  5
165
330
74
100
AcDbEntity
  8
0
100
AcDbText
 10
7.267740449410764
 20
0.6199185130927578
 30
0.0
 40
0.08
  1
REV.
  7
HELR
100
AcDbText
  0
TEXT
  5
166
330
74
100
AcDbEntity
  8
0
100
AcDbText
 10
5.375647747554928
 20
0.5740691570529624
 30
0.0
 40
0.08
  1
DWG.
  7
HELR
100
AcDbText
  0
TEXT
  5
167
330
74
100
AcDbEntity
  8
0
100
AcDbText
 10
5.375647747554928
 20
0.4407358237196295
 30
0.0
 40
0.08
  1
NO.
  7
HELR
100
AcDbText
  0
TEXT
  5
168
330
74
100
AcDbEntity
  8
0
100
AcDbText
 10
6.472869535614568
 20
1.173342794359934
 30
0.0
 40
0.09
  1
ALLEN-BRADLEY
  7
HELR
100
AcDbText
  0
TEXT
  5
169
330
74
100
AcDbEntity
  8
0
100
AcDbText
 10
6.521097495981949
 20
1.023342794359935
 30
0.0
 40
0.07
  1
2 EXECUTIVE DRIVE
  7
HELR
100
AcDbText
  0
TEXT
  5
16A
330
74
100
AcDbEntity
  8
0
100
AcDbText
 10
6.49454999486229
 20
0.865972349386487
 30
0.0
 40
0.07
  1
CHELMSFORD, MA 01824
  7
HELR
100
AcDbText
  0
LWPOLYLINE
  5
16B
330
74
100
AcDbEntity
  8
0
100
AcDbPolyline
 90
        8
 70
     1
 43
0.02
 10
6.89192276541055
 20
1.898850943050664
 10
6.728045228313952
 20
1.734973405954066
 10
6.728045228313952
 20
1.503215570423757
 10
6.89192276541055
 20
1.339338033327159
 10
7.123680600940858
 20
1.339338033327159
 10
7.287558138037455
 20
1.503215570423757
 10
7.287558138037455
 20
1.734973405954065
 10
7.123680600940858
 20
1.898850943050664
  0
TEXT
  5
175
330
74
100
AcDbEntity
  8
0
100
AcDbText
 10
6.817544591818144
 20
1.531290056766094
 30
0.0
 40
0.2
  1
AB
  7
HELV
100
AcDbText
  0
TEXT
  5
176
330
74
100
AcDbEntity
  8
TEXT
100
AcDbText
 10
4.345659438059745
 20
1.569017298176422
 30
0.0
 40
0.1875
  1
RECTANGULAR
  7
ROMANS
 72
     1
 11
5.314409438059745
 21
1.569017298176422
 31
0.0
100
AcDbText
  0
TEXT
  5
177
330
74
100
AcDbEntity
  8
TEXT
100
AcDbText
 10
4.533159438059745
 20
1.231279202938326
 30
0.0
 40
0.1875
  1
REFLECTOR
  7
ROMANS
 72
     1
 11
5.314409438059745
 21
1.231279202938326
 31
0.0
100
AcDbText
  0
TEXT
  5
178
330
74
100
AcDbEntity
  8
TEXT
100
AcDbText
 10
5.802380432482027
 20
0.4473469958848588
 30
0.0
 40
0.17
  1
92-93
  7
ROMANS
100
AcDbText
  0
TEXT
  5
179
330
74
100
AcDbEntity
  8
TEXT
100
AcDbText
 10
7.405408982935951
 20
0.3610374618307865
 30
0.0
 40
0.17
  1
2
  7
ROMANS
100
AcDbText
  0
TEXT
  5
17B
330
74
100
AcDbEntity
  8
TEXT
100
AcDbText
 10
3.349621372467132
 20
1.4309605807587
 30
0.0
 40
0.0781
  1
9/1/95
  7
ROMANS
100
AcDbText
  0
TEXT
  5
17C
330
74
100
AcDbEntity
  8
TEXT
100
AcDbText
 10
4.767490227994758
 20
0.3978879337295602
 30
0.0
 40
0.18
  1
B
  7
ROMANS
 72
     1
 11
4.861775942280472
 21
0.3978879337295602
 31
0.0
100
AcDbText
  0
TEXT
  5
17D
330
74
100
AcDbEntity
  8
DIM
 62
     0
100
AcDbText
 10
7.133805833544922
 20
8.126230340667637
 30
0.0
 40
0.11
  1
  
 72
     1
 11
7.243805833544922
 21
8.181230340667637
 31
0.0
100
AcDbText
 73
     2
  0
TEXT
  5
195
330
74
100
AcDbEntity
  8
0
100
AcDbText
 10
0.9452972380272823
 20
1.491446163706218
 30
0.0
 40
0.05
  1
2 PL DEC.
100
AcDbText
  0
TEXT
  5
196
330
74
100
AcDbEntity
  8
0
100
AcDbText
 10
1.507797238027282
 20
1.491446163706218
 30
0.0
 40
0.05
  1
3 PL DEC.
100
AcDbText
  0
TEXT
  5
198
330
74
100
AcDbEntity
  8
TEXT
100
AcDbText
 10
4.492980866631174
 20
0.9187792029383263
 30
0.0
 40
0.1875
  1
W/BRACKET
  7
ROMANS
 72
     1
 11
5.314409438059745
 21
0.9187792029383263
 31
0.0
100
AcDbText
  0
LINE
  5
199
330
74
100
AcDbEntity
  8
0
  6
ByBlock
 62
     0
100
AcDbLine
 10
2.726326974897293
 20
6.779183858229468
 30
0.0
 11
2.726326974897293
 21
6.025012573832775
 31
0.0
  0
LINE
  5
19A
330
74
100
AcDbEntity
  8
0
  6
ByBlock
 62
     0
100
AcDbLine
 10
4.399551974897295
 20
6.779183858229468
 30
0.0
 11
4.399551974897295
 21
6.025012573832775
 31
0.0
  0
LINE
  5
19B
330
74
100
AcDbEntity
  8
0
  6
ByBlock
 62
     0
100
AcDbLine
 10
2.852326974897293
 20
6.151012573832775
 30
0.0
 11
3.144336821392726
 21
6.151012573832775
 31
0.0
  0
LINE
  5
19C
330
74
100
AcDbEntity
  8
0
  6
ByBlock
 62
     0
100
AcDbLine
 10
4.273551974897295
 20
6.151012573832775
 30
0.0
 11
3.994337578859323
 21
6.151012573832775
 31
0.0
  0
SOLID
  5
19D
330
74
100
AcDbEntity
  8
0
  6
ByBlock
 62
     0
100
AcDbTrace
 10
2.852326974897293
 20
6.172012573832775
 30
0.0
 11
2.852326974897293
 21
6.130012573832775
 31
0.0
 12
2.726326974897293
 22
6.151012573832775
 32
0.0
 13
2.726326974897293
 23
6.151012573832775
 33
0.0
  0
SOLID
  5
19E
330
74
100
AcDbEntity
  8
0
  6
ByBlock
 62
     0
100
AcDbTrace
 10
4.273551974897295
 20
6.172012573832775
 30
0.0
 11
4.273551974897295
 21
6.130012573832775
 31
0.0
 12
4.399551974897295
 22
6.151012573832775
 32
0.0
 13
4.399551974897295
 23
6.151012573832775
 33
0.0
  0
TEXT
  5
19F
330
74
100
AcDbEntity
  8
0
  6
ByBlock
 62
     0
100
AcDbText
 10
3.185707332040152
 20
6.104137573832775
 30
0.0
 40
0.09375
  1
42MM REF
  7
ROMANS
 72
     4
 11
3.562939474897294
 21
6.151012573832775
 31
0.0
100
AcDbText
  0
POINT
  5
1A0
330
74
100
AcDbEntity
  8
DEFPOINTS
  6
ByBlock
 62
     0
100
AcDbPoint
 10
2.726326974897293
 20
6.822933858229468
 30
0.0
  0
POINT
  5
1A1
330
74
100
AcDbEntity
  8
DEFPOINTS
  6
ByBlock
 62
     0
100
AcDbPoint
 10
4.399551974897295
 20
6.822933858229468
 30
0.0
  0
POINT
  5
1A2
330
74
100
AcDbEntity
  8
DEFPOINTS
  6
ByBlock
 62
     0
100
AcDbPoint
 10
4.399551974897295
 20
6.151012573832775
 30
0.0
  0
LINE
  5
1A3
330
74
100
AcDbEntity
  8
0
  6
ByBlock
 62
     0
100
AcDbLine
 10
4.443301974897296
 20
7.72844385822947
 30
0.0
 11
5.156276061281173
 21
7.72844385822947
 31
0.0
  0
LINE
  5
1A4
330
74
100
AcDbEntity
  8
0
  6
ByBlock
 62
     0
100
AcDbLine
 10
4.443301974897296
 20
6.822933858229468
 30
0.0
 11
5.156276061281173
 21
6.822933858229468
 31
0.0
  0
LINE
  5
1A5
330
74
100
AcDbEntity
  8
0
  6
ByBlock
 62
     0
100
AcDbLine
 10
5.030276061281172
 20
7.602443858229469
 30
0.0
 11
5.030276061281172
 21
7.401688858229469
 31
0.0
  0
LINE
  5
1A6
330
74
100
AcDbEntity
  8
0
  6
ByBlock
 62
     0
100
AcDbLine
 10
5.030276061281172
 20
6.948933858229469
 30
0.0
 11
5.030276061281172
 21
7.149688858229469
 31
0.0
  0
SOLID
  5
1A7
330
74
100
AcDbEntity
  8
0
  6
ByBlock
 62
     0
100
AcDbTrace
 10
5.009276061281172
 20
7.602443858229469
 30
0.0
 11
5.051276061281172
 21
7.602443858229469
 31
0.0
 12
5.030276061281172
 22
7.72844385822947
 32
0.0
 13
5.030276061281172
 23
7.72844385822947
 33
0.0
  0
SOLID
  5
1A8
330
74
100
AcDbEntity
  8
0
  6
ByBlock
 62
     0
100
AcDbTrace
 10
5.009276061281172
 20
6.948933858229469
 30
0.0
 11
5.051276061281172
 21
6.948933858229469
 31
0.0
 12
5.030276061281172
 22
6.822933858229468
 32
0.0
 13
5.030276061281172
 23
6.822933858229468
 33
0.0
  0
TEXT
  5
1A9
330
74
100
AcDbEntity
  8
0
  6
ByBlock
 62
     0
100
AcDbText
 10
4.653043918424029
 20
7.228813858229469
 30
0.0
 40
0.09375
  1
22MM REF
  7
ROMANS
 72
     4
 11
5.030276061281172
 21
7.275688858229469
 31
0.0
100
AcDbText
  0
POINT
  5
1AA
330
74
100
AcDbEntity
  8
DEFPOINTS
  6
ByBlock
 62
     0
100
AcDbPoint
 10
4.399551974897295
 20
7.72844385822947
 30
0.0
  0
POINT
  5
1AB
330
74
100
AcDbEntity
  8
DEFPOINTS
  6
ByBlock
 62
     0
100
AcDbPoint
 10
4.399551974897295
 20
6.822933858229468
 30
0.0
  0
POINT
  5
1AC
330
74
100
AcDbEntity
  8
DEFPOINTS
  6
ByBlock
 62
     0
100
AcDbPoint
 10
5.030276061281172
 20
6.822933858229468
 30
0.0
  0
TEXT
  5
1AE
330
74
100
AcDbEntity
  8
TEXT
100
AcDbText
 10
0.972590571451505
 20
3.686239611298063
 30
0.0
 40
0.09375
  1
AND HARDWARE SUPPLIED.
  7
ROMANS
100
AcDbText
  0
TEXT
  5
1AF
330
74
100
AcDbEntity
  8
TEXT
100
AcDbText
 10
1.0
 20
3.973309604193367
 30
0.0
 40
0.09375
  1
1. REFLECTOR SUPPLIED IN A PLASTIC BAG WITH MOUNTING BRACKET 
  7
ROMANS
100
AcDbText
  0
TEXT
  5
1B1
330
74
100
AcDbEntity
  8
TEXT
100
AcDbText
 10
1.0
 20
4.25
 30
0.0
 40
0.09375
  1
NOTES:
  7
ROMANS
100
AcDbText
  0
TEXT
  5
1B9
330
74
100
AcDbEntity
  8
TEXT
100
AcDbText
 10
3.349621372467132
 20
1.245586426342438
 30
0.0
 40
0.0781
  1
9/7/95
  7
ROMANS
100
AcDbText
  0
ENDSEC
  0
SECTION
  2
OBJECTS
  0
DICTIONARY
  5
C
330
0
100
AcDbDictionary
281
     1
  3
ACAD_COLOR
350
6A
  3
ACAD_GROUP
350
D
  3
ACAD_LAYOUT
350
69
  3
ACAD_MATERIAL
350
10
  3
ACAD_MLEADERSTYLE
350
6D
  3
ACAD_MLINESTYLE
350
66
  3
ACAD_PLOTSETTINGS
350
68
  3
ACAD_PLOTSTYLENAME
350
E
  3
ACAD_SCALELIST
350
3A
  3
ACAD_TABLESTYLE
350
6B
  3
ACAD_VISUALSTYLE
350
29
  3
ACDB_RECOMPOSE_DATA
350
1CB
  3
AcDbVariableDictionary
350
1C3
  0
DICTIONARY
  5
1BD
330
5C
100
AcDbDictionary
280
     1
281
     1
  3
ADSK_XREC_LAYER_RECONCILED
360
1BE
  0
DICTIONARY
  5
1BF
330
7C
100
AcDbDictionary
280
     1
281
     1
  3
ADSK_XREC_LAYER_RECONCILED
360
1C0
  0
DICTIONARY
  5
1C1
330
7D
100
AcDbDictionary
280
     1
281
     1
  3
ADSK_XREC_LAYER_RECONCILED
360
1C2
  0
DICTIONARY
  5
6A
102
{ACAD_REACTORS
330
C
102
}
330
C
100
AcDbDictionary
281
     1
  0
DICTIONARY
  5
D
102
{ACAD_REACTORS
330
C
102
}
330
C
100
AcDbDictionary
281
     1
  0
DICTIONARY
  5
69
102
{ACAD_REACTORS
330
C
102
}
330
C
100
AcDbDictionary
281
     1
  3
Layout1
350
73
  3
Model
350
77
  0
DICTIONARY
  5
10
102
{ACAD_REACTORS
330
C
102
}
330
C
100
AcDbDictionary
281
     1
  3
ByBlock
350
19
  3
ByLayer
350
11
  3
Global
350
21
  0
DICTIONARY
  5
6D
102
{ACAD_REACTORS
330
C
102
}
330
C
100
AcDbDictionary
281
     1
  3
Standard
350
6E
  0
DICTIONARY
  5
66
102
{ACAD_REACTORS
330
C
102
}
330
C
100
AcDbDictionary
281
     1
  3
Standard
350
67
  0
DICTIONARY
  5
68
102
{ACAD_REACTORS
330
C
102
}
330
C
100
AcDbDictionary
281
     1
  0
ACDBDICTIONARYWDFLT
  5
E
102
{ACAD_REACTORS
330
C
102
}
330
C
100
AcDbDictionary
281
     1
  3
Normal
350
F
100
AcDbDictionaryWithDefault
340
F
  0
DICTIONARY
  5
3A
102
{ACAD_REACTORS
330
C
102
}
330
C
100
AcDbDictionary
281
     1
  3
A0
350
3B
  3
A1
350
3C
  3
A2
350
3D
  3
A3
350
3E
  3
A4
350
3F
  3
A5
350
40
  3
A6
350
41
  3
A7
350
42
  3
A8
350
43
  3
A9
350
44
  3
B0
350
45
  3
B1
350
46
  3
B2
350
47
  3
B3
350
48
  3
B4
350
49
  3
B5
350
4A
  3
B6
350
4B
  3
B7
350
4C
  3
B8
350
4D
  3
B9
350
4E
  3
C0
350
4F
  3
C1
350
50
  3
C2
350
51
  3
C3
350
52
  3
C4
350
53
  3
C5
350
54
  3
C6
350
55
  3
C7
350
56
  3
C8
350
57
  3
C9
350
58
  3
D0
350
59
  3
D1
350
5A
  3
D2
350
5B
  0
DICTIONARY
  5
6B
102
{ACAD_REACTORS
330
C
102
}
330
C
100
AcDbDictionary
281
     1
  3
Standard
350
6C
  0
DICTIONARY
  5
29
102
{ACAD_REACTORS
330
C
102
}
330
C
100
AcDbDictionary
281
     1
  3
2dWireframe
350
2F
  3
3D Hidden
350
31
  3
3dWireframe
350
30
  3
Basic
350
2E
  3
Brighten
350
35
  3
ColorChange
350
39
  3
Conceptual
350
32
  3
Dim
350
34
  3
Facepattern
350
38
  3
Flat
350
2A
  3
FlatWithEdges
350
2B
  3
Gouraud
350
2C
  3
GouraudWithEdges
350
2D
  3
Linepattern
350
37
  3
Realistic
350
33
  3
Thicken
350
36
  0
XRECORD
  5
1CB
102
{ACAD_REACTORS
330
C
102
}
330
C
100
AcDbXrecord
280
     1
 90
        1
330
6C
  0
DICTIONARY
  5
1C3
102
{ACAD_REACTORS
330
C
102
}
330
C
100
AcDbDictionary
281
     1
  3
CANNOSCALE
350
1C7
  3
CMLEADERSTYLE
350
1C5
  3
CTABLESTYLE
350
1C4
  3
LIGHTINGUNITS
350
1C8
  3
MSLTSCALE
350
1C6
  0
XRECORD
  5
1BE
102
{ACAD_REACTORS
330
1BD
102
}
330
1BD
100
AcDbXrecord
280
     1
290
     1
  0
XRECORD
  5
1C0
102
{ACAD_REACTORS
330
1BF
102
}
330
1BF
100
AcDbXrecord
280
     1
290
     1
  0
XRECORD
  5
1C2
102
{ACAD_REACTORS
330
1C1
102
}
330
1C1
100
AcDbXrecord
280
     1
290
     1
  0
LAYOUT
  5
73
102
{ACAD_REACTORS
330
69
102
}
330
69
100
AcDbPlotSettings
  1

  2
\\uschmmgmt015\USCHMPD0025
  4

  6

 40
0.0
 41
0.0
 42
0.0
 43
0.0
 44
0.0
 45
0.0
 46
0.0
 47
0.0
 48
0.0
 49
0.0
140
0.0
141
0.0
142
1.0
143
1.0
 70
   688
 72
     0
 73
     0
 74
     5
  7

 75
    16
147
1.0
 76
     0
 77
     2
 78
   300
148
0.0
149
0.0
100
AcDbLayout
  1
Layout1
 70
     1
 71
     1
 10
0.0
 20
0.0
 11
12.0
 21
9.0
 12
0.0
 22
0.0
 32
0.0
 14
1.000000000000000E+20
 24
1.000000000000000E+20
 34
1.000000000000000E+20
 15
-1.000000000000000E+20
 25
-1.000000000000000E+20
 35
-1.000000000000000E+20
146
0.0
 13
0.0
 23
0.0
 33
0.0
 16
1.0
 26
0.0
 36
0.0
 17
0.0
 27
1.0
 37
0.0
 76
     0
330
70
  0
LAYOUT
  5
77
102
{ACAD_REACTORS
330
69
102
}
330
69
100
AcDbPlotSettings
  1

  2
\\uschmmgmt015\USCHMPD0025
  4

  6

 40
0.0
 41
0.0
 42
0.0
 43
0.0
 44
0.0
 45
0.0
 46
0.0
 47
0.0
 48
0.0
 49
0.0
140
0.0
141
0.0
142
1.0
143
1.0
 70
  1712
 72
     0
 73
     0
 74
     0
  7

 75
     0
147
1.0
 76
     0
 77
     2
 78
   300
148
0.0
149
0.0
100
AcDbLayout
  1
Model
 70
     1
 71
     0
 10
0.0
 20
0.0
 11
12.0
 21
9.0
 12
0.0
 22
0.0
 32
0.0
 14
0.0
 24
0.0
 34
0.0
 15
0.0
 25
0.0
 35
0.0
146
0.0
 13
0.0
 23
0.0
 33
0.0
 16
1.0
 26
0.0
 36
0.0
 17
0.0
 27
1.0
 37
0.0
 76
     0
330
74
331
7B
  0
MATERIAL
  5
19
102
{ACAD_XDICTIONARY
360
1A
102
}
102
{ACAD_REACTORS
330
10
102
}
330
10
100
AcDbMaterial
  1
ByBlock
 72
     0
 43
0.0208333333333333
 43
0.0
 43
0.0
 43
0.0
 43
0.0
 43
0.0208333333333333
 43
0.0
 43
0.0
 43
0.0
 43
0.0
 43
1.0
 43
0.0
 43
0.0
 43
0.0
 43
0.0
 43
1.0
 77
     0
 47
0.0208333333333333
 47
0.0
 47
0.0
 47
0.0
 47
0.0
 47
0.0208333333333333
 47
0.0
 47
0.0
 47
0.0
 47
0.0
 47
1.0
 47
0.0
 47
0.0
 47
0.0
 47
0.0
 47
1.0
171
     0
 49
0.0208333333333333
 49
0.0
 49
0.0
 49
0.0
 49
0.0
 49
0.0208333333333333
 49
0.0
 49
0.0
 49
0.0
 49
0.0
 49
1.0
 49
0.0
 49
0.0
 49
0.0
 49
0.0
 49
1.0
175
     0
142
0.0208333333333333
142
0.0
142
0.0
142
0.0
142
0.0
142
0.0208333333333333
142
0.0
142
0.0
142
0.0
142
0.0
142
1.0
142
0.0
142
0.0
142
0.0
142
0.0
142
1.0
179
     0
144
0.0208333333333333
144
0.0
144
0.0
144
0.0
144
0.0
144
0.0208333333333333
144
0.0
144
0.0
144
0.0
144
0.0
144
1.0
144
0.0
144
0.0
144
0.0
144
0.0
144
1.0
147
0.0208333333333333
147
0.0
147
0.0
147
0.0
147
0.0
147
0.0208333333333333
147
0.0
147
0.0
147
0.0
147
0.0
147
1.0
147
0.0
147
0.0
147
0.0
147
0.0
147
1.0
  0
MATERIAL
  5
11
102
{ACAD_XDICTIONARY
360
12
102
}
102
{ACAD_REACTORS
330
10
102
}
330
10
100
AcDbMaterial
  1
ByLayer
 72
     0
 43
0.0208333333333333
 43
0.0
 43
0.0
 43
0.0
 43
0.0
 43
0.0208333333333333
 43
0.0
 43
0.0
 43
0.0
 43
0.0
 43
1.0
 43
0.0
 43
0.0
 43
0.0
 43
0.0
 43
1.0
 77
     0
 47
0.0208333333333333
 47
0.0
 47
0.0
 47
0.0
 47
0.0
 47
0.0208333333333333
 47
0.0
 47
0.0
 47
0.0
 47
0.0
 47
1.0
 47
0.0
 47
0.0
 47
0.0
 47
0.0
 47
1.0
171
     0
 49
0.0208333333333333
 49
0.0
 49
0.0
 49
0.0
 49
0.0
 49
0.0208333333333333
 49
0.0
 49
0.0
 49
0.0
 49
0.0
 49
1.0
 49
0.0
 49
0.0
 49
0.0
 49
0.0
 49
1.0
175
     0
142
0.0208333333333333
142
0.0
142
0.0
142
0.0
142
0.0
142
0.0208333333333333
142
0.0
142
0.0
142
0.0
142
0.0
142
1.0
142
0.0
142
0.0
142
0.0
142
0.0
142
1.0
179
     0
144
0.0208333333333333
144
0.0
144
0.0
144
0.0
144
0.0
144
0.0208333333333333
144
0.0
144
0.0
144
0.0
144
0.0
144
1.0
144
0.0
144
0.0
144
0.0
144
0.0
144
1.0
147
0.0208333333333333
147
0.0
147
0.0
147
0.0
147
0.0
147
0.0208333333333333
147
0.0
147
0.0
147
0.0
147
0.0
147
1.0
147
0.0
147
0.0
147
0.0
147
0.0
147
1.0
  0
MATERIAL
  5
21
102
{ACAD_XDICTIONARY
360
22
102
}
102
{ACAD_REACTORS
330
10
102
}
330
10
100
AcDbMaterial
  1
Global
 72
     0
 43
0.0208333333333333
 43
0.0
 43
0.0
 43
0.0
 43
0.0
 43
0.0208333333333333
 43
0.0
 43
0.0
 43
0.0
 43
0.0
 43
1.0
 43
0.0
 43
0.0
 43
0.0
 43
0.0
 43
1.0
 77
     0
 47
0.0208333333333333
 47
0.0
 47
0.0
 47
0.0
 47
0.0
 47
0.0208333333333333
 47
0.0
 47
0.0
 47
0.0
 47
0.0
 47
1.0
 47
0.0
 47
0.0
 47
0.0
 47
0.0
 47
1.0
171
     0
 49
0.0208333333333333
 49
0.0
 49
0.0
 49
0.0
 49
0.0
 49
0.0208333333333333
 49
0.0
 49
0.0
 49
0.0
 49
0.0
 49
1.0
 49
0.0
 49
0.0
 49
0.0
 49
0.0
 49
1.0
175
     0
142
0.0208333333333333
142
0.0
142
0.0
142
0.0
142
0.0
142
0.0208333333333333
142
0.0
142
0.0
142
0.0
142
0.0
142
1.0
142
0.0
142
0.0
142
0.0
142
0.0
142
1.0
179
     0
144
0.0208333333333333
144
0.0
144
0.0
144
0.0
144
0.0
144
0.0208333333333333
144
0.0
144
0.0
144
0.0
144
0.0
144
1.0
144
0.0
144
0.0
144
0.0
144
0.0
144
1.0
147
0.0208333333333333
147
0.0
147
0.0
147
0.0
147
0.0
147
0.0208333333333333
147
0.0
147
0.0
147
0.0
147
0.0
147
1.0
147
0.0
147
0.0
147
0.0
147
0.0
147
1.0
  0
MLEADERSTYLE
  5
6E
102
{ACAD_REACTORS
330
6D
102
}
330
6D
100
AcDbMLeaderStyle
170
     2
171
     1
172
     0
 90
        2
 40
0.0
 41
0.0
173
     1
 91
-1056964608
340
62
 92
       -2
290
     1
 42
0.09
291
     1
 43
0.36
  3
Standard
 44
0.18
300

342
5D
174
     1
178
     6
175
     1
176
     0
 93
-1056964608
 45
0.18
292
     0
297
     0
 46
0.18
 94
-1056964608
 47
1.0
 49
1.0
140
1.0
293
     1
141
0.0
294
     1
177
     0
142
1.0
295
     0
296
     0
143
0.125
1001
ACAD_MLEADERVER
1070
     2
  0
MLINESTYLE
  5
67
102
{ACAD_REACTORS
330
66
102
}
330
66
100
AcDbMlineStyle
  2
STANDARD
 70
     0
  3

 62
   256
 51
90.0
 52
90.0
 71
     2
 49
0.5
 62
   256
  6
BYLAYER
 49
-0.5
 62
   256
  6
BYLAYER
  0
ACDBPLACEHOLDER
  5
F
102
{ACAD_REACTORS
330
E
102
}
330
E
  0
SCALE
  5
3B
102
{ACAD_REACTORS
330
3A
102
}
330
3A
100
AcDbScale
 70
     0
300
1:1
140
1.0
141
1.0
290
     1
  0
SCALE
  5
3C
102
{ACAD_REACTORS
330
3A
102
}
330
3A
100
AcDbScale
 70
     0
300
1:2
140
1.0
141
2.0
290
     0
  0
SCALE
  5
3D
102
{ACAD_REACTORS
330
3A
102
}
330
3A
100
AcDbScale
 70
     0
300
1:4
140
1.0
141
4.0
290
     0
  0
SCALE
  5
3E
102
{ACAD_REACTORS
330
3A
102
}
330
3A
100
AcDbScale
 70
     0
300
1:5
140
1.0
141
5.0
290
     0
  0
SCALE
  5
3F
102
{ACAD_REACTORS
330
3A
102
}
330
3A
100
AcDbScale
 70
     0
300
1:8
140
1.0
141
8.0
290
     0
  0
SCALE
  5
40
102
{ACAD_REACTORS
330
3A
102
}
330
3A
100
AcDbScale
 70
     0
300
1:10
140
1.0
141
10.0
290
     0
  0
SCALE
  5
41
102
{ACAD_REACTORS
330
3A
102
}
330
3A
100
AcDbScale
 70
     0
300
1:16
140
1.0
141
16.0
290
     0
  0
SCALE
  5
42
102
{ACAD_REACTORS
330
3A
102
}
330
3A
100
AcDbScale
 70
     0
300
1:20
140
1.0
141
20.0
290
     0
  0
SCALE
  5
43
102
{ACAD_REACTORS
330
3A
102
}
330
3A
100
AcDbScale
 70
     0
300
1:30
140
1.0
141
30.0
290
     0
  0
SCALE
  5
44
102
{ACAD_REACTORS
330
3A
102
}
330
3A
100
AcDbScale
 70
     0
300
1:40
140
1.0
141
40.0
290
     0
  0
SCALE
  5
45
102
{ACAD_REACTORS
330
3A
102
}
330
3A
100
AcDbScale
 70
     0
300
1:50
140
1.0
141
50.0
290
     0
  0
SCALE
  5
46
102
{ACAD_REACTORS
330
3A
102
}
330
3A
100
AcDbScale
 70
     0
300
1:100
140
1.0
141
100.0
290
     0
  0
SCALE
  5
47
102
{ACAD_REACTORS
330
3A
102
}
330
3A
100
AcDbScale
 70
     0
300
2:1
140
2.0
141
1.0
290
     0
  0
SCALE
  5
48
102
{ACAD_REACTORS
330
3A
102
}
330
3A
100
AcDbScale
 70
     0
300
4:1
140
4.0
141
1.0
290
     0
  0
SCALE
  5
49
102
{ACAD_REACTORS
330
3A
102
}
330
3A
100
AcDbScale
 70
     0
300
8:1
140
8.0
141
1.0
290
     0
  0
SCALE
  5
4A
102
{ACAD_REACTORS
330
3A
102
}
330
3A
100
AcDbScale
 70
     0
300
10:1
140
10.0
141
1.0
290
     0
  0
SCALE
  5
4B
102
{ACAD_REACTORS
330
3A
102
}
330
3A
100
AcDbScale
 70
     0
300
100:1
140
100.0
141
1.0
290
     0
  0
SCALE
  5
4C
102
{ACAD_REACTORS
330
3A
102
}
330
3A
100
AcDbScale
 70
     0
300
1/128" = 1'-0"
140
0.0078125
141
12.0
290
     0
  0
SCALE
  5
4D
102
{ACAD_REACTORS
330
3A
102
}
330
3A
100
AcDbScale
 70
     0
300
1/64" = 1'-0"
140
0.015625
141
12.0
290
     0
  0
SCALE
  5
4E
102
{ACAD_REACTORS
330
3A
102
}
330
3A
100
AcDbScale
 70
     0
300
1/32" = 1'-0"
140
0.03125
141
12.0
290
     0
  0
SCALE
  5
4F
102
{ACAD_REACTORS
330
3A
102
}
330
3A
100
AcDbScale
 70
     0
300
1/16" = 1'-0"
140
0.0625
141
12.0
290
     0
  0
SCALE
  5
50
102
{ACAD_REACTORS
330
3A
102
}
330
3A
100
AcDbScale
 70
     0
300
3/32" = 1'-0"
140
0.09375
141
12.0
290
     0
  0
SCALE
  5
51
102
{ACAD_REACTORS
330
3A
102
}
330
3A
100
AcDbScale
 70
     0
300
1/8" = 1'-0"
140
0.125
141
12.0
290
     0
  0
SCALE
  5
52
102
{ACAD_REACTORS
330
3A
102
}
330
3A
100
AcDbScale
 70
     0
300
3/16" = 1'-0"
140
0.1875
141
12.0
290
     0
  0
SCALE
  5
53
102
{ACAD_REACTORS
330
3A
102
}
330
3A
100
AcDbScale
 70
     0
300
1/4" = 1'-0"
140
0.25
141
12.0
290
     0
  0
SCALE
  5
54
102
{ACAD_REACTORS
330
3A
102
}
330
3A
100
AcDbScale
 70
     0
300
3/8" = 1'-0"
140
0.375
141
12.0
290
     0
  0
SCALE
  5
55
102
{ACAD_REACTORS
330
3A
102
}
330
3A
100
AcDbScale
 70
     0
300
1/2" = 1'-0"
140
0.5
141
12.0
290
     0
  0
SCALE
  5
56
102
{ACAD_REACTORS
330
3A
102
}
330
3A
100
AcDbScale
 70
     0
300
3/4" = 1'-0"
140
0.75
141
12.0
290
     0
  0
SCALE
  5
57
102
{ACAD_REACTORS
330
3A
102
}
330
3A
100
AcDbScale
 70
     0
300
1" = 1'-0"
140
1.0
141
12.0
290
     0
  0
SCALE
  5
58
102
{ACAD_REACTORS
330
3A
102
}
330
3A
100
AcDbScale
 70
     0
300
1-1/2" = 1'-0"
140
1.5
141
12.0
290
     0
  0
SCALE
  5
59
102
{ACAD_REACTORS
330
3A
102
}
330
3A
100
AcDbScale
 70
     0
300
3" = 1'-0"
140
3.0
141
12.0
290
     0
  0
SCALE
  5
5A
102
{ACAD_REACTORS
330
3A
102
}
330
3A
100
AcDbScale
 70
     0
300
6" = 1'-0"
140
6.0
141
12.0
290
     0
  0
SCALE
  5
5B
102
{ACAD_REACTORS
330
3A
102
}
330
3A
100
AcDbScale
 70
     0
300
1'-0" = 1'-0"
140
12.0
141
12.0
290
     0
  0
TABLESTYLE
  5
6C
102
{ACAD_XDICTIONARY
360
1C9
102
}
102
{ACAD_REACTORS
330
6B
102
}
330
6B
100
AcDbTableStyle
  3
Standard
 70
     0
 71
     0
 40
0.06
 41
0.06
280
     0
281
     0
  7
STANDARD
140
0.18
170
     2
 62
     0
 63
     7
283
     0
274
    -2
284
     1
 64
     0
275
    -2
285
     1
 65
     0
276
    -2
286
     1
 66
     0
277
    -2
287
     1
 67
     0
278
    -2
288
     1
 68
     0
279
    -2
289
     1
 69
     0
  7
STANDARD
140
0.25
170
     5
 62
     0
 63
     7
283
     0
274
    -2
284
     1
 64
     0
275
    -2
285
     1
 65
     0
276
    -2
286
     1
 66
     0
277
    -2
287
     1
 67
     0
278
    -2
288
     1
 68
     0
279
    -2
289
     1
 69
     0
  7
STANDARD
140
0.18
170
     5
 62
     0
 63
     7
283
     0
274
    -2
284
     1
 64
     0
275
    -2
285
     1
 65
     0
276
    -2
286
     1
 66
     0
277
    -2
287
     1
 67
     0
278
    -2
288
     1
 68
     0
279
    -2
289
     1
 69
     0
  0
VISUALSTYLE
  5
2F
102
{ACAD_REACTORS
330
29
102
}
330
29
100
AcDbVisualStyle
  2
2dWireframe
 70
     4
 71
     0
 72
     2
 73
     0
 90
        0
 40
-0.6
 41
-30.0
 62
     5
 63
     7
421
 16777215
 74
     1
 91
        4
 64
     7
 65
   257
 75
     1
175
     1
 42
1.0
 92
        0
 66
   257
 43
1.0
 76
     1
 77
     6
 78
     2
 67
     7
 79
     5
170
     0
171
     0
290
     0
174
     0
 93
        1
 44
0.0
173
     0
291
     0
 45
0.0
1001
ACAD
1000
AcDbSavedByObjectVersion
1070
     0
  0
VISUALSTYLE
  5
31
102
{ACAD_REACTORS
330
29
102
}
330
29
100
AcDbVisualStyle
  2
3D Hidden
 70
     6
 71
     1
 72
     2
 73
     2
 90
        0
 40
-0.6
 41
-30.0
 62
     5
 63
     7
421
 16777215
 74
     2
 91
        2
 64
     7
 65
   257
 75
     2
175
     1
 42
40.0
 92
        0
 66
   257
 43
1.0
 76
     1
 77
     6
 78
     2
 67
     7
 79
     3
170
     0
171
     0
290
     0
174
     0
 93
        1
 44
0.0
173
     0
291
     0
 45
0.0
1001
ACAD
1000
AcDbSavedByObjectVersion
1070
     0
  0
VISUALSTYLE
  5
30
102
{ACAD_REACTORS
330
29
102
}
330
29
100
AcDbVisualStyle
  2
3dWireframe
 70
     5
 71
     0
 72
     2
 73
     0
 90
        0
 40
-0.6
 41
-30.0
 62
     5
 63
     7
421
 16777215
 74
     1
 91
        4
 64
     7
 65
   257
 75
     1
175
     1
 42
1.0
 92
        0
 66
   257
 43
1.0
 76
     1
 77
     6
 78
     2
 67
     7
 79
     5
170
     0
171
     0
290
     0
174
     0
 93
        1
 44
0.0
173
     0
291
     0
 45
0.0
1001
ACAD
1000
AcDbSavedByObjectVersion
1070
     0
  0
VISUALSTYLE
  5
2E
102
{ACAD_REACTORS
330
29
102
}
330
29
100
AcDbVisualStyle
  2
Basic
 70
     7
 71
     1
 72
     0
 73
     1
 90
        0
 40
-0.6
 41
-30.0
 62
     5
 63
     7
421
 16777215
 74
     0
 91
        4
 64
     7
 65
   257
 75
     1
175
     1
 42
1.0
 92
        8
 66
     7
 43
1.0
 76
     1
 77
     6
 78
     2
 67
     7
 79
     5
170
     0
171
     0
290
     0
174
     0
 93
        1
 44
0.0
173
     0
291
     1
 45
0.0
1001
ACAD
1000
AcDbSavedByObjectVersion
1070
     0
  0
VISUALSTYLE
  5
35
102
{ACAD_REACTORS
330
29
102
}
330
29
100
AcDbVisualStyle
  2
Brighten
 70
    12
 71
     2
 72
     2
 73
     0
 90
        0
 40
-0.6
 41
-30.0
 62
     5
 63
     7
421
 16777215
 74
     1
 91
        4
 64
     7
 65
   257
 75
     1
175
     1
 42
1.0
 92
        8
 66
     7
 43
1.0
 76
     1
 77
     6
 78
     2
 67
     7
 79
     5
170
     0
171
     0
290
     0
174
     0
 93
        1
 44
50.0
173
     0
291
     1
 45
0.0
1001
ACAD
1000
AcDbSavedByObjectVersion
1070
     0
  0
VISUALSTYLE
  5
39
102
{ACAD_REACTORS
330
29
102
}
330
29
100
AcDbVisualStyle
  2
ColorChange
 70
    16
 71
     2
 72
     2
 73
     3
 90
        0
 40
-0.6
 41
-30.0
 62
     5
 63
     8
421
  8421504
 74
     1
 91
        4
 64
     7
 65
   257
 75
     1
175
     1
 42
1.0
 92
        8
 66
     8
424
  8421504
 43
1.0
 76
     1
 77
     6
 78
     2
 67
     7
 79
     5
170
     0
171
     0
290
     0
174
     0
 93
        1
 44
0.0
173
     0
291
     1
 45
0.0
1001
ACAD
1000
AcDbSavedByObjectVersion
1070
     0
  0
VISUALSTYLE
  5
32
102
{ACAD_REACTORS
330
29
102
}
330
29
100
AcDbVisualStyle
  2
Conceptual
 70
     9
 71
     3
 72
     2
 73
     0
 90
        0
 40
-0.6
 41
-30.0
 62
     5
 63
     7
421
 16777215
 74
     2
 91
        2
 64
     7
 65
   257
 75
     1
175
     1
 42
40.0
 92
        8
 66
     7
 43
1.0
 76
     1
 77
     6
 78
     2
 67
     7
 79
     3
170
     0
171
     0
290
     0
174
     0
 93
        1
 44
0.0
173
     0
291
     0
 45
0.0
1001
ACAD
1000
AcDbSavedByObjectVersion
1070
     0
  0
VISUALSTYLE
  5
34
102
{ACAD_REACTORS
330
29
102
}
330
29
100
AcDbVisualStyle
  2
Dim
 70
    11
 71
     2
 72
     2
 73
     0
 90
        0
 40
-0.6
 41
-30.0
 62
     5
 63
     7
421
 16777215
 74
     1
 91
        4
 64
     7
 65
   257
 75
     1
175
     1
 42
1.0
 92
        8
 66
     7
 43
1.0
 76
     1
 77
     6
 78
     2
 67
     7
 79
     5
170
     0
171
     0
290
     0
174
     0
 93
        1
 44
-50.0
173
     0
291
     1
 45
0.0
1001
ACAD
1000
AcDbSavedByObjectVersion
1070
     0
  0
VISUALSTYLE
  5
38
102
{ACAD_REACTORS
330
29
102
}
330
29
100
AcDbVisualStyle
  2
Facepattern
 70
    15
 71
     2
 72
     2
 73
     0
 90
        0
 40
-0.6
 41
-30.0
 62
     5
 63
     7
421
 16777215
 74
     1
 91
        4
 64
     7
 65
   257
 75
     1
175
     1
 42
1.0
 92
        8
 66
     7
 43
1.0
 76
     1
 77
     6
 78
     2
 67
     7
 79
     5
170
     0
171
     0
290
     0
174
     0
 93
        1
 44
0.0
173
     0
291
     1
 45
0.0
1001
ACAD
1000
AcDbSavedByObjectVersion
1070
     0
  0
VISUALSTYLE
  5
2A
102
{ACAD_REACTORS
330
29
102
}
330
29
100
AcDbVisualStyle
  2
Flat
 70
     0
 71
     2
 72
     1
 73
     1
 90
        2
 40
-0.6
 41
30.0
 62
     5
 63
     7
421
 16777215
 74
     0
 91
        4
 64
     7
 65
   257
 75
     1
175
     1
 42
1.0
 92
        8
 66
     7
 43
1.0
 76
     1
 77
     6
 78
     2
 67
     7
 79
     5
170
     0
171
     0
290
     0
174
     0
 93
       13
 44
0.0
173
     0
291
     1
 45
0.0
1001
ACAD
1000
AcDbSavedByObjectVersion
1070
     0
  0
VISUALSTYLE
  5
2B
102
{ACAD_REACTORS
330
29
102
}
330
29
100
AcDbVisualStyle
  2
FlatWithEdges
 70
     1
 71
     2
 72
     1
 73
     1
 90
        2
 40
-0.6
 41
30.0
 62
     5
 63
     7
421
 16777215
 74
     1
 91
        4
 64
     7
 65
   257
 75
     1
175
     1
 42
1.0
 92
        0
 66
   257
 43
1.0
 76
     1
 77
     6
 78
     2
 67
     7
 79
     5
170
     0
171
     0
290
     0
174
     0
 93
       13
 44
0.0
173
     0
291
     1
 45
0.0
1001
ACAD
1000
AcDbSavedByObjectVersion
1070
     0
  0
VISUALSTYLE
  5
2C
102
{ACAD_REACTORS
330
29
102
}
330
29
100
AcDbVisualStyle
  2
Gouraud
 70
     2
 71
     2
 72
     2
 73
     1
 90
        2
 40
-0.6
 41
30.0
 62
     5
 63
     7
421
 16777215
 74
     0
 91
        4
 64
     7
 65
   257
 75
     1
175
     1
 42
1.0
 92
        0
 66
     7
 43
1.0
 76
     1
 77
     6
 78
     2
 67
     7
 79
     5
170
     0
171
     0
290
     0
174
     0
 93
       13
 44
0.0
173
     0
291
     1
 45
0.0
1001
ACAD
1000
AcDbSavedByObjectVersion
1070
     0
  0
VISUALSTYLE
  5
2D
102
{ACAD_REACTORS
330
29
102
}
330
29
100
AcDbVisualStyle
  2
GouraudWithEdges
 70
     3
 71
     2
 72
     2
 73
     1
 90
        2
 40
-0.6
 41
30.0
 62
     5
 63
     7
421
 16777215
 74
     1
 91
        4
 64
     7
 65
   257
 75
     1
175
     1
 42
1.0
 92
        0
 66
   257
 43
1.0
 76
     1
 77
     6
 78
     2
 67
     7
 79
     5
170
     0
171
     0
290
     0
174
     0
 93
       13
 44
0.0
173
     0
291
     1
 45
0.0
1001
ACAD
1000
AcDbSavedByObjectVersion
1070
     0
  0
VISUALSTYLE
  5
37
102
{ACAD_REACTORS
330
29
102
}
330
29
100
AcDbVisualStyle
  2
Linepattern
 70
    14
 71
     2
 72
     2
 73
     0
 90
        0
 40
-0.6
 41
-30.0
 62
     5
 63
     7
421
 16777215
 74
     1
 91
        4
 64
     7
 65
   257
 75
     7
175
     7
 42
1.0
 92
        8
 66
     7
 43
1.0
 76
     1
 77
     6
 78
     2
 67
     7
 79
     5
170
     0
171
     0
290
     0
174
     0
 93
        1
 44
0.0
173
     0
291
     1
 45
0.0
1001
ACAD
1000
AcDbSavedByObjectVersion
1070
     0
  0
VISUALSTYLE
  5
33
102
{ACAD_REACTORS
330
29
102
}
330
29
100
AcDbVisualStyle
  2
Realistic
 70
     8
 71
     2
 72
     2
 73
     0
 90
        0
 40
-0.6
 41
-30.0
 62
     5
 63
     7
421
 16777215
 74
     1
 91
        0
 64
     7
 65
   257
 75
     1
175
     1
 42
1.0
 92
        8
 66
     8
424
  7895160
 43
1.0
 76
     1
 77
     6
 78
     2
 67
     7
 79
     5
170
     0
171
     0
290
     0
174
     0
 93
       13
 44
0.0
173
     0
291
     0
 45
0.0
1001
ACAD
1000
AcDbSavedByObjectVersion
1070
     0
  0
VISUALSTYLE
  5
36
102
{ACAD_REACTORS
330
29
102
}
330
29
100
AcDbVisualStyle
  2
Thicken
 70
    13
 71
     2
 72
     2
 73
     0
 90
        0
 40
-0.6
 41
-30.0
 62
     5
 63
     7
421
 16777215
 74
     1
 91
        4
 64
     7
 65
   257
 75
     1
175
     1
 42
1.0
 92
       12
 66
     7
 43
1.0
 76
     1
 77
     6
 78
     2
 67
     7
 79
     5
170
     0
171
     0
290
     0
174
     0
 93
        1
 44
0.0
173
     0
291
     1
 45
0.0
1001
ACAD
1000
AcDbSavedByObjectVersion
1070
     0
  0
DICTIONARYVAR
  5
1C7
102
{ACAD_REACTORS
330
1C3
102
}
330
1C3
100
DictionaryVariables
280
     0
  1
1:1
  0
DICTIONARYVAR
  5
1C5
102
{ACAD_REACTORS
330
1C3
102
}
330
1C3
100
DictionaryVariables
280
     0
  1
STANDARD
  0
DICTIONARYVAR
  5
1C4
102
{ACAD_REACTORS
330
1C3
102
}
330
1C3
100
DictionaryVariables
280
     0
  1
STANDARD
  0
DICTIONARYVAR
  5
1C8
102
{ACAD_REACTORS
330
1C3
102
}
330
1C3
100
DictionaryVariables
280
     0
  1
2
  0
DICTIONARYVAR
  5
1C6
102
{ACAD_REACTORS
330
1C3
102
}
330
1C3
100
DictionaryVariables
280
     0
  1
1
  0
DICTIONARY
  5
1A
330
19
100
AcDbDictionary
280
     1
281
     1
  3
ACAD_XREC_ROUNDTRIP
360
1CD
  3
BUMPTILE
360
1C
  3
DIFFUSETILE
360
1B
  3
OPACITYTILE
360
1F
  3
REFLECTIONTILE
360
1E
  3
REFRACTIONTILE
360
20
  3
SPECULARTILE
360
1D
  0
DICTIONARY
  5
12
330
11
100
AcDbDictionary
280
     1
281
     1
  3
ACAD_XREC_ROUNDTRIP
360
1CC
  3
BUMPTILE
360
14
  3
DIFFUSETILE
360
13
  3
OPACITYTILE
360
17
  3
REFLECTIONTILE
360
16
  3
REFRACTIONTILE
360
18
  3
SPECULARTILE
360
15
  0
DICTIONARY
  5
22
330
21
100
AcDbDictionary
280
     1
281
     1
  3
ACAD_XREC_ROUNDTRIP
360
1CE
  3
BUMPTILE
360
24
  3
DIFFUSETILE
360
23
  3
OPACITYTILE
360
27
  3
REFLECTIONTILE
360
26
  3
REFRACTIONTILE
360
28
  3
SPECULARTILE
360
25
  0
DICTIONARY
  5
1C9
330
6C
100
AcDbDictionary
280
     1
281
     1
  3
ACAD_ROUNDTRIP_2008_TABLESTYLE_CELLSTYLEMAP
360
1CA
  3
ACAD_XREC_ROUNDTRIP
360
1CF
  0
XRECORD
  5
1CD
102
{ACAD_REACTORS
330
1A
102
}
330
1A
100
AcDbXrecord
280
     1
102
MATERIAL
148
0.0
149
0.0
149
0.0
 93
        0
 94
      127
282
     0
 72
     0
 77
     0
171
     0
175
     0
179
     0
273
     0
  0
XRECORD
  5
1C
102
{ACAD_REACTORS
330
1A
102
}
330
1A
100
AcDbXrecord
280
     1
270
     1
271
     1
  0
XRECORD
  5
1B
102
{ACAD_REACTORS
330
1A
102
}
330
1A
100
AcDbXrecord
280
     1
270
     1
271
     1
  0
XRECORD
  5
1F
102
{ACAD_REACTORS
330
1A
102
}
330
1A
100
AcDbXrecord
280
     1
270
     1
271
     1
  0
XRECORD
  5
1E
102
{ACAD_REACTORS
330
1A
102
}
330
1A
100
AcDbXrecord
280
     1
270
     1
271
     1
  0
XRECORD
  5
20
102
{ACAD_REACTORS
330
1A
102
}
330
1A
100
AcDbXrecord
280
     1
270
     1
271
     1
  0
XRECORD
  5
1D
102
{ACAD_REACTORS
330
1A
102
}
330
1A
100
AcDbXrecord
280
     1
270
     1
271
     1
  0
XRECORD
  5
1CC
102
{ACAD_REACTORS
330
12
102
}
330
12
100
AcDbXrecord
280
     1
102
MATERIAL
148
0.0
149
0.0
149
0.0
 93
        0
 94
      127
282
     0
 72
     0
 77
     0
171
     0
175
     0
179
     0
273
     0
  0
XRECORD
  5
14
102
{ACAD_REACTORS
330
12
102
}
330
12
100
AcDbXrecord
280
     1
270
     1
271
     1
  0
XRECORD
  5
13
102
{ACAD_REACTORS
330
12
102
}
330
12
100
AcDbXrecord
280
     1
270
     1
271
     1
  0
XRECORD
  5
17
102
{ACAD_REACTORS
330
12
102
}
330
12
100
AcDbXrecord
280
     1
270
     1
271
     1
  0
XRECORD
  5
16
102
{ACAD_REACTORS
330
12
102
}
330
12
100
AcDbXrecord
280
     1
270
     1
271
     1
  0
XRECORD
  5
18
102
{ACAD_REACTORS
330
12
102
}
330
12
100
AcDbXrecord
280
     1
270
     1
271
     1
  0
XRECORD
  5
15
102
{ACAD_REACTORS
330
12
102
}
330
12
100
AcDbXrecord
280
     1
270
     1
271
     1
  0
XRECORD
  5
1CE
102
{ACAD_REACTORS
330
22
102
}
330
22
100
AcDbXrecord
280
     1
102
MATERIAL
148
0.0
149
0.0
149
0.0
 93
        0
 94
      127
282
     0
 72
     0
 77
     0
171
     0
175
     0
179
     0
273
     0
  0
XRECORD
  5
24
102
{ACAD_REACTORS
330
22
102
}
330
22
100
AcDbXrecord
280
     1
270
     1
271
     1
  0
XRECORD
  5
23
102
{ACAD_REACTORS
330
22
102
}
330
22
100
AcDbXrecord
280
     1
270
     1
271
     1
  0
XRECORD
  5
27
102
{ACAD_REACTORS
330
22
102
}
330
22
100
AcDbXrecord
280
     1
270
     1
271
     1
  0
XRECORD
  5
26
102
{ACAD_REACTORS
330
22
102
}
330
22
100
AcDbXrecord
280
     1
270
     1
271
     1
  0
XRECORD
  5
28
102
{ACAD_REACTORS
330
22
102
}
330
22
100
AcDbXrecord
280
     1
270
     1
271
     1
  0
XRECORD
  5
25
102
{ACAD_REACTORS
330
22
102
}
330
22
100
AcDbXrecord
280
     1
270
     1
271
     1
  0
CELLSTYLEMAP
  5
1CA
102
{ACAD_REACTORS
330
1C9
102
}
330
1C9
100
AcDbCellStyleMap
 90
        3
300
CELLSTYLE
  1
TABLEFORMAT_BEGIN
 90
        5
170
     1
 91
        0
 92
    32768
 62
   257
 93
        1
300
CONTENTFORMAT
  1
CONTENTFORMAT_BEGIN
 90
        0
 91
        0
 92
      512
 93
        0
300

 40
0.0
140
1.0
 94
        5
 62
     0
340
5D
144
0.25
309
CONTENTFORMAT_END
171
     0
 94
        0
309
TABLEFORMAT_END
  1
CELLSTYLE_BEGIN
 90
        1
 91
        1
300
_TITLE
309
CELLSTYLE_END
300
CELLSTYLE
  1
TABLEFORMAT_BEGIN
 90
        5
170
     1
 91
        0
 92
        0
 62
   257
 93
        1
300
CONTENTFORMAT
  1
CONTENTFORMAT_BEGIN
 90
        0
 91
        0
 92
      512
 93
        0
300

 40
0.0
140
1.0
 94
        5
 62
     0
340
5D
144
0.18
309
CONTENTFORMAT_END
171
     0
 94
        0
309
TABLEFORMAT_END
  1
CELLSTYLE_BEGIN
 90
        2
 91
        1
300
_HEADER
309
CELLSTYLE_END
300
CELLSTYLE
  1
TABLEFORMAT_BEGIN
 90
        5
170
     1
 91
        0
 92
        0
 62
   257
 93
        1
300
CONTENTFORMAT
  1
CONTENTFORMAT_BEGIN
 90
        0
 91
        0
 92
      512
 93
        0
300

 40
0.0
140
1.0
 94
        2
 62
     0
340
5D
144
0.18
309
CONTENTFORMAT_END
171
     0
 94
        0
309
TABLEFORMAT_END
  1
CELLSTYLE_BEGIN
 90
        3
 91
        2
300
_DATA
309
CELLSTYLE_END
  0
XRECORD
  5
1CF
102
{ACAD_REACTORS
330
1C9
102
}
330
1C9
100
AcDbXrecord
280
     1
102
ACAD_ROUNDTRIP_PRE2007_TABLESTYLE
 90
      512
 91
        0
  1

 92
      512
 93
        0
  2

 94
      512
 95
        0
  3

  0
ENDSEC
  0
EOF
